Oops, an error
Loading. Please wait.

7 Minutes In Heaven Atavan Halen Tab

ver4
ver4

Whole song

Interactive

More versions @911Tabs.com
3,815 views 1 this week
2 commentsread comments
1 2 3 4 5
accurate
x 2
Autoscroll
+/-
esc
set tempo
stop
Contributor
NEW! There's an official Ultimate Guitar app which is ideal
for learning songs when you're away from computer. Get the app
WARNING: You are trying to view
                                    content from Ultimate-Guitar.com
                                    in an unauthorized application,
                                    which is prohibited.

                                    Please use an official Ultimate
                                    Guitar Tabs application for iPhone,
                                    iPad or Android to access legitimate
                                    chords, guitar, bass, and drum tabs
                                    from Ultimate-Guitar.com database.

                                    Type "ultimate guitar tabs" in Apple
                                    App Store's or Android Market's
                                    search to find the application.
Artist: Fall Out Boy	
Song: 7 Minutes In Heaven (Atavan Halen)

*LOOK AT THE TIME ON WHERE THAT GUITAR COMES IN* 

Intro Gtr.1 (0:00-0:04)
e|----------------------------------|
B|-5-----4-----2-----5-----4---2----| 2x
G|-4-4-4-4-4-4-4-4-4-4-4-4-4-4-4-4--|
D|---*-*---*-*---*-*---*-*---*---*--|
A|----------------------------------|
E|----------------------------------|

Pre-Verse Gtr.1 (0:05-0:14)
e|------------------------------------------------------------------|
B|------------------------------------------------------------------| 2x
G|-11111111--8---8-6-6-6-6---4-----111111118-8-8-8-6-6-6/8\6--------|
D|-x-x-x-x---x---x-x-x-x-x---x-----x-x-x-x-x-x-x-x-x-x-x-x-x--------|
A|-9-9-9-9---6---6-4-4-4-4---2-----9-9-9-9-6-6-6-6-4-4-4/6\4--------|
E|------------------------------------------------------------------|

Pre-Verse Gtr.2 (0:05-0:14)
e|------------------------------------------------------------------|
B|------------------------------------------------------------------| 2x
G|---------------------------4--------------------------------------|
D|-6-6-6-6---2---4-4-4-4-4---4-----6-6-6-6-2-2-2-2-4-4-4-4-4-4-4-4--|
A|-6-6-6-6---2---4-4-4-4-2---2-----6-6-6-6-2-2-2-2-4-4-4-4-4-4-4-4--|
E|-4-4-4-4---0---2-2-2-2-2---------4-4-4-4-0-0-0-0-2-2-2-2-2-2-2-2--|

Verse Gtr.1 (0:15-0:35)
e|------------------------------------------------------------------|
B|---------------------------------5-----4-----2-----5-----4---2----| 4x
G|---------------------------------4-4-4-4-4-4-4-4-4-4-4-4-4-4-4-4--|
D|-----------------------------------*-*---*-*---*-*---*-*---*---*--|
A|------------------------------------------------------------------|
E|------------------------------------------------------------------|

Verse Gtr.2 (0:15-0:35)
e|------------------------------------------------------------------|
B|------------------------------------------------------------------|
G|-------------------------------------6-------6-------6-------6----|
D|-----6-------6-------6-------6-------6-------6-------6-------6----|
A|-----6-------6-------6-------6---4-4-4---4-4-4---4-4-4---4-4-4----|
E|-4-4-4---4-4-4---4-4-4---4-4-4---*-*-----*-*-----*-*-----*-*------|
   * *     * *     * *     * * 
e|------------------------------------------------------------------|
B|------------------------------------------------------------------|
G|-------------------------------------4-------4-------4-------4----|
D|-----2-------2-------2-------2-------4-------4-------4-------4----|
A|-----2-------2-------2-------2---2-2-2---2-2-2---2-2-2---1-1-1----|
E|-0-0-0---0-0-0---0-0-0---0-0-0---*-*-----*-*-----*-*-----*-*------|
   * *     * *     * *     * *
e|------------------------------------------------------------------|
B|------------------------------------------------------------------|
G|-------------------------------------6-------6-------6-------6----|
D|-----6-------6-------6-------6-------6-------6-------6-------6----|
A|-----6-------6-------6-------6---4-4-4---4-4-4---4-4-4---4-4-4----|
E|-4-4-4---4-4-4---4-4-4---4-4-4---*-*-----*-*-----*-*-----*-*------|
   * *     * *     * *     * *
e|------------------------------------------------------------------|
B|------------------------------------------------------------------|
G|------------------------------------------------------------------|
D|-----2-------2-------2-------2-------2-------2-------2-------2----|
A|-----2-------2-------2-------2-------2-------2-------2-------2----|
E|-0-0-0---0-0-0---0-0-0---0-0-0---0-0-0---0-0-0---0-0-0---0-0-0----|
   * *     * *     * *     * *     * *     * *     * *     * *
Pre-Chorus Gtr.1+2 (0:36-0:45)
e|------------------------------------------------------------------|
B|------------------------------------------------------------------|
G|-------------------------4----------------------------------------|
D|-6---6-----2-----4---4---4-------6---6---2---2---4---4---4---4----|
A|-6---6-----2-----4---2---2-------6---6---2---2---4---4---4---4----|
E|-4---4-----0-----2---2-----------4---4---0---0---2---2---2---2----|

e|------------------------------------------------------------------|
B|------------------------------------------------------------------|
G|-------------------------4----------------------------------------|
D|-6---6-----2-----4---4---4-------6---6---2---2---4-------4--------|
A|-6---6-----2-----4---2---2-------6---6---2---2---4-------4--------|
E|-4---4-----0-----2---2-----------4---4---0---0---2-2-2-2-2--------|
						     * * *
Chorus Gtr.1+2 (0:46-1:06)
e|------------------------------------------------------------------|
B|------------------------------------------------------------------| 4x
G|-4---4------------------------------------------------------------|
D|-4---4-------4---2---2-------4---6---6-------4---2---2-----4------|
A|-2---2-------4---2---2-------4---6---6-------4---2---2-----4------|
E|---------2-2-2---0---0---2-2-2---4---4---2-2-2---0---0---2-2------|
	   * *		   * *		   * *		   *
Pre-Verse Gtr.1 (1:07-1:17)
e|------------------------------------------------------------------|
B|------------------------------------------------------------------| 2x
G|-11111111--8---8-6-6-6-6---4-----111111118-8-8-8-6-6-6/8\6--------|
D|-x-x-x-x---x---x-x-x-x-x---x-----x-x-x-x-x-x-x-x-x-x-x-x-x--------|
A|-9-9-9-9---6---6-4-4-4-4---2-----9-9-9-9-6-6-6-6-4-4-4/6\4--------|
E|------------------------------------------------------------------|

Pre-Verse Gtr.2 (1:07-1:17)
e|------------------------------------------------------------------|
B|------------------------------------------------------------------| 2x
G|---------------------------4--------------------------------------|
D|-6-6-6-6---2---4-4-4-4-4---4-----6-6-6-6-2-2-2-2-4-4-4-4-4-4-4-4--|
A|-6-6-6-6---2---4-4-4-4-2---2-----6-6-6-6-2-2-2-2-4-4-4-4-4-4-4-4--|
E|-4-4-4-4---0---2-2-2-2-2---------4-4-4-4-0-0-0-0-2-2-2-2-2-2-2-2--|

Verse Gtr.1 (1:17-1:35)
e|----------------------------------|
B|-5-----4-----2-----5-----4---2----| 8x
G|-4-4-4-4-4-4-4-4-4-4-4-4-4-4-4-4--|
D|---*-*---*-*---*-*---*-*---*---*--|
A|----------------------------------|
E|----------------------------------|

Verse Gtr.2 (1:27-1:37)
e|------------------------------------------------------------------|
B|------------------------------------------------------------------|
G|-------------------------------------6-------6-------6-------6----|
D|-----6-------6-------6-------6-------6-------6-------6-------6----|
A|-----6-------6-------6-------6---4-4-4---4-4-4---4-4-4---4-4-4----|
E|-4-4-4---4-4-4---4-4-4---4-4-4---*-*-----*-*-----*-*-----*-*------|
   * *     * *     * *     * *
e|------------------------------------------------------------------|
B|------------------------------------------------------------------|
G|------------------------------------------------------------------|
D|-----2-------2-------2-------2------------------------------------|
A|-----2-------2-------2-------2------------------------------------|
E|-0-0-0---0-0-0---0-0-0---0-0-0---0-0-0-0-0-0-0-0-0-0-0-0-0-0-0-0--|
   * *     * *     * *     * *     * * * * * * * * * * * * * * * *
Pre-Chorus Gtr.1+2 (1:38-1:48)
e|------------------------------------------------------------------|
B|------------------------------------------------------------------|
G|-------------------------4----------------------------------------|
D|-6---6-----2-----4---4---4-------6---6---2---2---4---4---4---4----|
A|-6---6-----2-----4---2---2-------6---6---2---2---4---4---4---4----|
E|-4---4-----0-----2---2-----------4---4---0---0---2---2---2---2----|

e|------------------------------------------------------------------|
B|------------------------------------------------------------------|
G|-------------------------4----------------------------------------|
D|-6---6-----2-----4---4---4-------6---6---2---2---4-------4--------|
A|-6---6-----2-----4---2---2-------6---6---2---2---4-------4--------|
E|-4---4-----0-----2---2-----------4---4---0---0---2-2-2-2-2--------|
                                                     * * *
Chorus Gtr.1+2 (1:48-2:08)
e|------------------------------------------------------------------|
B|------------------------------------------------------------------| 4x
G|-4---4------------------------------------------------------------|
D|-4---4-------4---2---2-------4---6---6-------4---2---2-----4------|
A|-2---2-------4---2---2-------4---6---6-------4---2---2-----4------|
E|---------2-2-2---0---0---2-2-2---4---4---2-2-2---0---0---2-2------|
	   * *		   * *		   * *		   *
Breakdown Gtr.1 (2:19-2:29)
e|----------------------------------|
B|-5-----4-----2-----5-----4---2----| 4x
G|-4-4-4-4-4-4-4-4-4-4-4-4-4-4-4-4--|
D|---*-*---*-*---*-*---*-*---*---*--|
A|----------------------------------|
E|----------------------------------|

Breakdown Gtr.2 (2:09-2:29)
e|------------------------------------------------------------------|
B|------------------------------------------------------------------|
G|------------------------------------------------------------------|
D|-------------------------------3-6-6-6-6-6-6-6-6-6-6-6-6-6-6-6-6--|
A|-6-6-6-6-6-6-6-6-6-6-6-6-6-6-6-1/4-4-4-4-4-4-4-4-4-4-4-4-4-4-4-4--|
E|-4-4-4-4-4-4-4-4-4-4-4-4-4-4-4-*-*-*-*-*-*-*-*-*-*-*-*-*-*-*-*-*--|
   * * * * * * * * * * * * * * *
e|------------------------------------------------------------------|
B|------------------------------------------------------------------|
G|------------------------------------------------------------------|
D|---------------------------------4-4-4-4-4-4-4-4-4-4-4-4-4-4-4-4--|
A|-2-2-2-2-2-2-2-2-2-2-2-2-2-2-2-2-2-2-2-2-2-2-2-2-2-2-2-2-1-1-1-1--|
E|-0-0-0-0-0-0-0-0-0-0-0-0-0-0-0-0-*-*-*-*-*-*-*-*-*-*-*-*-*-*-*-*--|
   * * * * * * * * * * * * * * * *
e|------------------------------------------------------------------|
B|------------------------------------------------------------------|
G|------------------------------------------------------------------|
D|-------------------------------3-6-6-6-6-6-6-6-6-6-6-6-6-6-6-6-6--|
A|-6-6-6-6-6-6-6-6-6-6-6-6-6-6-6-1/4-4-4-4-4-4-4-4-4-4-4-4-4-4-4-4--|
E|-4-4-4-4-4-4-4-4-4-4-4-4-4-4-4-*-*-*-*-*-*-*-*-*-*-*-*-*-*-*-*-*--|
   * * * * * * * * * * * * * * *
e|------------------------------------------------------------------|
B|------------------------------------------------------------------|
G|------------------------------------------------------------------|
D|------------------------------------------------------------------|
A|-2-2-2-2-2-2-2-2-2-2-2-2-2-2-2-2-2-2-2-2-2-2-2-2-2-2-2-2-2-2-2-2--|
E|-0-0-0-0-0-0-0-0-0-0-0-0-0-0-0-0-0-0-0-0-0-0-0-0-0-0-0-0-0-0-0-0--|
   * * * * * * * * * * * * * * * * * * * * * * * * * * * * * * * *

Bridge Gtr.1+2 (2:29-2:39)
e|------------------------------------------------------------------|
B|------------------------------------------------------------------|
G|---------------------------4-4-4----------------------------------|
D|-6-6-------------4-4-------x-x-x-6-6-6-6-2-2-2-2-4-4-4-4----------|
A|-6-6-------------4-4-------2-2-2-6-6-6-6-2-2-2-2-4-4-4-2----------|
E|-4-4-------------2-2-------------4-4-4-4-0-0-0-0-2-2-2-2----------|

e|------------------------------------------------------------------|
B|------------------------------------------------------------------|
G|-------------------------4----------------------------------------|
D|-6---6-----2-----4---4---4-------6---6---2---2---4---4---4---4----|
A|-6---6-----2-----4---2---2-------6---6---2---2---4---4---4---4----|
E|-4---4-----0-----2---2-----------4---4---0---0---2---2---2---2----|

Solo Gtr.1 (2:39-2:49)
e|------------------------------------------------------------------|
B|------------------------------------------------------------------| 2x
G|-4/6-6-h-8-4/6-6-h-8-4/6-6-h-8-4-----4/6-6-h-8-4/6-6-h-8-6~-------|
D|---------------------------------4--------------------------------|
A|------------------------------------------------------------------|
E|------------------------------------------------------------------|

Solo Gtr.2 (2:39-2:49)
e|------------------------------------------------------------------|
B|------------------------------------------------------------------|
G|-------------------------4----------------------------------------|
D|-6---6-----2-----4---4---4-------6---6---2---2---4---4---4--------|
A|-6---6-----2-----4---2---2-------6---6---2---2---4---4---4--------|
E|-4---4-----0-----2---2-----------4---4---0---0---2---2---2--------|

e|------------------------------------------------------------------|
B|------------------------------------------------------------------|
G|-------------------------4----------------------------------------|
D|-6---6-----2-----4---4---4-------6---6---2---2---4~---------------|
A|-6---6-----2-----4---2---2-------6---6---2---2---4~---------------|
E|-4---4-----0-----2---2-----------4---4---0---0---2~---------------|

Outro Gtr.1/2 (2:50-3:02)
e|------------------------------------------------------------------|
B|------------------------------------------------------------------|
G|-4---4------------------------------------------------------------|
D|-4---4-------4---2---2-------4---6---6-------4---2---2-----4------|
A|-2---2-------4---2---2-------4---6---6-------4---2---2-----4------|
E|---------2-2-2---0---0---2-2-2---4---4---2-2-2---0---0---2-2------|
	   * *		   * *		   * *		   *
e|------------------------------------------------------------------|
B|------------------------------------------------------------------| End
G|-4---4------------------------------------------------------------|
D|-4---4-------4---2---2-------4---6---6-------4---2---2------------|
A|-2---2-------4---2---2-------4---6---6-------4---2---2------------|
E|---------2-2-2---0---0---2-2-2---4---4---2-2-2---0---0------------|
	   * *		   * *		   * *
comments
We did not receive enough feedback on this tab! Please rate:
print report bad tab
1 2 3 4 5
2 comments total.
0 reply
pnkr0cker wrote on June 30 2006, 03:53 pm

srry bad tab

0 reply
drummer_boi_19 wrote on July 5 2006, 12:28 am

dude this tab isn't bad, this one actually sounds right

I want to post or [tab]
guest
You may want to rate the tab now too:
select rating
Please do not post tabs as comments. Select "correction" instead!