Oops, an error
Loading. Please wait.

Bang The Doldrums Tab

ver3
ver3

Whole song

More versions @911Tabs.com
792 views 3 this week
no commentswrite comment
1 2 3 4 5
worth learning
x 2
Autoscroll
+/-
esc
set tempo
stop
Contributor
Difficulty
intermediate
WARNING: You are trying to view
                                    content from Ultimate-Guitar.com
                                    in an unauthorized application,
                                    which is prohibited.

                                    Please use an official Ultimate
                                    Guitar Tabs application for iPhone,
                                    iPad or Android to access legitimate
                                    chords, guitar, bass, and drum tabs
                                    from Ultimate-Guitar.com database.

                                    Type "ultimate guitar tabs" in Apple
                                    App Store's or Android Market's
                                    search to find the application.
Artist: Fall Out Boy
Song: Bang The Doldrums                           
Album: Infinity On High
Tab by FaQ_94


Intro:
0:00
e|--x---x---x---x-x-x----------------|
B|--x---x---x---x-x-x----------------|
G|--x---x---x---x-x-x----------------|
D|--x---x---x---x-x-x----------------|
A|--x---x---x---x-x-x----------------|
E|--x---x---x---x-x-x----------------|
0:02
e|--------------------------------------------------------------------|
B|--------------------------------------------------------------------|
G|--------------------6-6-6-x-x---------------------------------------|
D|--8/-6/-4/x-6-6-6-x-6-6-6-x-x--8/-6/-4/x-6-6-6-x-8-8-8-x-x----------| x2
A|--8/-6/-4/x-6-6-6-x-4-4-4-x-x--8/-6/-4/x-6-6-6-x-8-8-8-x-x----------|
E|--6/-4/-2/x-4-4-4-x------------6/-4/-2/x-4-4-4-x-6-6-6-x-x----------|

Verse:
0:17
e|-------------------------------|-------------------------------|
B|-------------------------------|-------------------------------|
G|-------------------------------|-------------------------------|
D|-11-11-11-------10-10-10-------|-11-11-11-------10-10-10-------|
A|----------9-9-9----------8-8-8-|----------9-9-9----------8-8-8-|
E|-------------------------------|-------------------------------|

e|-------------------------------|-------------------------------|
B|-------------------------------|-------------------------------|
G|-------------------------------|-------------------------------|
D|-11-11-11-------10-10-10-------|-11-11-11--------10-10-10-x-8/-|
A|----------9-9-9----------8-8-8-|----------9-9-9--12-12-12-x-8/-|
E|-------------------------------|----------------------------6/-|

e|-------------------------------|-------------------------------|
B|-------------------------------|-------------------------------|
G|-------------------------------|-------------------------------|
D|-11-11-11-------10-10-10-------|-11-11-11-------10-10-10-------|
A|----------9-9-9----------8-8-8-|----------9-9-9----------8-8-8-|
E|-------------------------------|-------------------------------|

e|-------------------------------|-------------------------------|
B|-------------------------------|-------------------------------|
G|-------------------------------|-------------------------------|
D|-11-11-11-------10-10-10-------|-11-11-11-------10-10-10-------|
A|----------9-9-9----------8-8-8-|----------9-9-9----------8-8-8-|
E|-------------------------------|-------------------------------|

0:31
e|---------------------------------------------------------------|
B|---------------------------------------------------------------|
G|---------------------------------------------------------------|
D|-8-8-x-x-8-8-x-x-8-8-8-8-8---8-8-x-x-8-8-x-x-8888888-----------|
A|-6-6-x-x-8-8-x-x-9-9-9-9-9---6-6-x-x-8-8-x-x-9999999-----------|
E|---------------------------------------------------------------|

Chorus:
0:39
e|---------------------------------------------------------------|
B|---------------------------------------------------------------|
G|-6-6-6-6---------6-6-6-6---------------------------------------|
D|-6-6-6-6-7-7-7-7-6-6-6-6--8/-6/-4/--7-7-7-7--4/-6/-8/----------|
A|-4-4-4-4-7-7-7-7-4-4-4-4--8/-6/-4/--7-7-7-7--4/-6/-8/----------|
E|---------5-5-5-5----------6/-4/-2/--5-5-5-5--2/-4/-6/----------|

e|--------------------|
B|--------------------|
G|--------------------|
D|-4-4-4-4-6-6-6-6----|
A|-4-4-4-4-6-6-6-6----|
E|-2-2-2-2-4-4-4-4----|
e|--------------------------------------------------------------------|
B|--------------------------------------------------------------------|
G|--------------------6-6-6-x-x---------------------------------------|
D|--8/-6/-4/x-6-6-6-x-6-6-6-x-x--8/-6/-4/x-6-6-6-x-8-8-8-x-x----------| 
A|--8/-6/-4/x-6-6-6-x-4-4-4-x-x--8/-6/-4/x-6-6-6-x-8-8-8-x-x----------|
E|--6/-4/-2/x-4-4-4-x------------6/-4/-2/x-4-4-4-x-6-6-6-x-x----------|

0:54
e|--------------------------------------------------------------------|
B|--------------------------------------------------------------------|
G|--------------------6-6-6-x-x---------------------------------------|
D|--8/-6/-4/x-6-6-6-x-6-6-6-x-x--8/-6/-4/x-6-6-6-x-8-8-8/-------------|x2 
A|--8/-6/-4/x-6-6-6-x-4-4-4-x-x--8/-6/-4/x-6-6-6-x-8-8-8/-------------|
E|--6/-4/-2/x-4-4-4-x------------6/-4/-2/x-4-4-4-x-6-6-6/-------------|

Verse:
1:09
e|-------------------------------|-------------------------------|
B|-------------------------------|-------------------------------|
G|-------------------------------|-------------------------------|
D|-11-11-11-------10-10-10-------|-11-11-11-------10-10-10-------|
A|----------9-9-9----------8-8-8-|----------9-9-9----------8-8-8-|
E|-------------------------------|-------------------------------|

e|-------------------------------|-------------------------------|
B|-------------------------------|-------------------------------|
G|-------------------------------|-------------------------------|
D|-11-11-11-------10-10-10-------|-11-11-11--------10-10-10-x-8/-|
A|----------9-9-9----------8-8-8-|----------9-9-9--12-12-12-x-8/-|
E|-------------------------------|----------------------------6/-|

e|-------------------------------|-------------------------------|
B|-------------------------------|-------------------------------|
G|-------------------------------|-------------------------------|
D|-11-11-11-------10-10-10-------|-11-11-11-------10-10-10-------|
A|----------9-9-9----------8-8-8-|----------9-9-9----------8-8-8-|
E|-------------------------------|-------------------------------|

e|-------------------------------|-------------------------------|
B|-------------------------------|-------------------------------|
G|-------------------------------|-------------------------------|
D|-11-11-11-------10-10-10-------|-11-11-11-------10-10-10-------|
A|----------9-9-9----------8-8-8-|----------9-9-9----------8-8-8-|
E|-------------------------------|-------------------------------|

1:24
e|---------------------------------------------------------------|
B|---------------------------------------------------------------|
G|---------------------------------------------------------------|
D|-8-8-x-x-8-8-x-x-8-8-8-8-8---8-8-x-x-8-8-x-x-8888888-----------|
A|-6-6-x-x-8-8-x-x-9-9-9-9-9---6-6-x-x-8-8-x-x-9999999-----------|
E|---------------------------------------------------------------|

Chorus:
1:31
e|---------------------------------------------------------------|
B|---------------------------------------------------------------|
G|-6-6-6-6---------6-6-6-6---------------------------------------|
D|-6-6-6-6-7-7-7-7-6-6-6-6--8/-6/-4/--7-7-7-7--4/-6/-8/----------|
A|-4-4-4-4-7-7-7-7-4-4-4-4--8/-6/-4/--7-7-7-7--4/-6/-8/----------|
E|---------5-5-5-5----------6/-4/-2/--5-5-5-5--2/-4/-6/----------|

e|--------------------|
B|--------------------|
G|--------------------|
D|-4-4-4-4-6-6-6-6----|
A|-4-4-4-4-6-6-6-6----|
E|-2-2-2-2-4-4-4-4----|

e|--------------------------------------------------------------------|
B|--------------------------------------------------------------------|
G|--------------------6-6-6-x-x---------------------------------------|
D|--8/-6/-4/x-6-6-6-x-6-6-6-x-x--8/-6/-4/x-6-6-6-x-8-8-8-x-x----------| 
A|--8/-6/-4/x-6-6-6-x-4-4-4-x-x--8/-6/-4/x-6-6-6-x-8-8-8-x-x----------|
E|--6/-4/-2/x-4-4-4-x------------6/-4/-2/x-4-4-4-x-6-6-6-x-x----------|

1:47
e|--------------------------------------------------------------------|
B|--------------------------------------------------------------------|
G|--------------------6-6-6-x-x---------------------------------------|
D|--8/-6/-4/x-6-6-6-x-6-6-6-x-x--8/-6/-4/x-6-6-6-x-8-8-8/-------------|x2 
A|--8/-6/-4/x-6-6-6-x-4-4-4-x-x--8/-6/-4/x-6-6-6-x-8-8-8/-------------|
E|--6/-4/-2/x-4-4-4-x------------6/-4/-2/x-4-4-4-x-6-6-6/-------------|

Bridge:
2:02
e|-----------|
B|-----------|
G|-----------|
D|----8------| 
A|----8------|
E|----6------|

2:10
e|--------------------------------------------------------|
B|--------------------------------------------------------|
G|-6666666666h7p6666666666h7p6666666666h7p6666666666/-----|
D|--------------------------------------------------------| 
A|--------------------------------------------------------|
E|--------------------------------------------------------|

2:17
e|----------------------------------------------------------|
B|----------------------------------------------------------|
G|-----------------6-6-5-5----------------------------------|
D|-4-4-4-4-6-6-6-6-6-6-5-5-8-8-2-2--4-4-4-4-6-6-6-6-2-2-2-2-|
A|-4-4-4-4-6-6-6-6-4-4-3-3-8-8-2-2--4-4-4-4-6-6-6-6-2-2-2-2-|
E|-2-2-2-2-4-4-4-4---------6-6-1-1--2-2-2-2-4-4-4-4-1-1-1-1-|
   
|------------------------------------------------------------------|
|------------------------------------------------------------------|
|---------------------------6-6-5-5-------------------------6/-----|
|-88-8/-6/-4-4-4-4--6-6-6-6-6-6-5-5-8-8-2-2-4-4-4-4-6-6-6-6-6/-----| 
|-88-8/-6/-4-4-4-4--6-6-6-6-4-4-3-3-8-8-2-2-4-4-4-4-6-6-6-6-4/-----|
|-66-6/-4/-2-2-2-2--4-4-4-4---------6-6-1-1-2-2-2-2-4-4-4-4--------|

2:48
e|---------------------------------------------|
B|---------------------------------------------|
G|---------------------------------------------|
D|-/4/-6/-4/--7-7-7-7--4/-6/-8/--4-4-4-4-6/----| 
A|-/4/-6/-4/--7-7-7-7--4/-6/-8/--4-4-4-4-6/----|
E|-/6/-4/-2/--5-5-5-5--2/-4/-6/--2-2-2-2-4/----|

Final Chorus:
2:58
e|--------------------------------------------------------------------|
B|--------------------------------------------------------------------|
G|--------------------6-6-6-x-x---------------------------------------|
D|--8/-6/-4/x-6-6-6-x-6-6-6-x-x--8/-6/-4/x-6-6-6-x-8-8-8-x-x----------| x3
A|--8/-6/-4/x-6-6-6-x-4-4-4-x-x--8/-6/-4/x-6-6-6-x-8-8-8-x-x----------|
E|--6/-4/-2/x-4-4-4-x------------6/-4/-2/x-4-4-4-x-6-6-6-x-x----------|

e|--------------------------------------------------------------------|
B|--------------------------------------------------------------------|
G|--------------------6-6-6-x-x---------------------------------------|
D|--8/-6/-4/x-6-6-6-x-6-6-6-x-x--8/-6/-4/x-6-6-6-x-8-8-8-8/-----------| 
A|--8/-6/-4/x-6-6-6-x-4-4-4-x-x--8/-6/-4/x-6-6-6-x-8-8-8-8/-----------|
E|--6/-4/-2/x-4-4-4-x------------6/-4/-2/x-4-4-4-x-6-6-6-8/-----------|

This is my first tab....Enjoy it..
comments
We did not receive enough feedback on this tab! Please rate:
print report bad tab
1 2 3 4 5
I want to post or [tab]
guest
You may want to rate the tab now too:
select rating
Please do not post tabs as comments. Select "correction" instead!