Oops, an error
Loading. Please wait.

Believers Never Die Tab

7,776 views 27 this week
no commentswrite comment
1 2 3 4 5
excellent!
x 5
Autoscroll
+/-
esc
set tempo
stop
Contributor
Hey! There's an official Ultimate Guitar app which is ideal
for learning songs when you're away from computer. Get the app
WARNING: You are trying to view
                                    content from Ultimate-Guitar.com
                                    in an unauthorized application,
                                    which is prohibited.

                                    Please use an official Ultimate
                                    Guitar Tabs application for iPhone,
                                    iPad or Android to access legitimate
                                    chords, guitar, bass, and drum tabs
                                    from Ultimate-Guitar.com database.

                                    Type "ultimate guitar tabs" in Apple
                                    App Store's or Android Market's
                                    search to find the application.
ALBUM: BELIEVERS NEVER DIE [GREATEST HITS]
BAND : FALL OUT BOY

COMPILED BY: RUSSELL LEE (MORTE_COEUR)

I TOOK ALL THE HIGHEST RATED TABS FROM U-G AND COMPILED THEM =D

IF YOUR TAB IS ON HERE, PLEASE CONTACT ME IF YOU WANT IT REMOVED, OR IF YOU HAVE UPDATED
YOUR TAB AND WANT IT UPDATED ON HERE.



LISTING:
DEAD ON ARRIVAL......................................DIAMOND JERRY (RAPTUREBOY182@YAHOO.COM)
GRAND THEFT AUTUMN...................................STEPH (XFCKTHESYSTMX@YAHOO.COM)
SATURDAY.............................................UNREGISTERED
SUGER, WE'RE GOING DOWN..............................STEPHEN ADAMS (BIGSTEVE0788@AOL.COM)
DANCE, DANCE.........................................LARRY-A
A LITTLE LESS SIXTEEN CANDLES, A LITTLE MORE TOUCH ME.......LARRY-A
THIS AIN'T A SCENE, IT'S AN ARMS RACE.......................SHUGO449
THNKS FR TH MMRS............................................KIEFERMATOT
THE TAKE OVER, THE BREAKS OVER..............................RYAN MANONGDO (NO_FALTER0X@YAHOO.COM)
I'M LIKE A LAWYER WITH THE WAY I'M ALWAYS TRYING TO GET YOU OFF (ME & YOU).......F_SARIO@YAHOO.COM
BEAT IT (FEATURING JOHN MAYER).................JAYTEEROCKS07
I DON'T CARE...................................SHAWN (MOTIONCITYOST@YAHOO.COM)
AMERICA'S SUITEHEARTS..........................RYAN MANONGDO (NO_FALTER0X@YAHOO.COM)
WHAT A CATCH, DONNIE...........................PNKR0CKER
ALPHA DOG......................................KEVY ABSOLUTION (KEVIN.HEILAND@GMAIL.COM)
FROM NOW ON WE ARE ENEMIES.....................KELLAN6
YULE SHOOT YOUR EYE OUT........................PMEG568C
GROWING UP.....................................ANDREW LASSISE (LASSISE2@HOTMAIL.COM)




1. DEAD ON ARRIVAL

------------------------------------------------------------------------------


[Intro]
e|--------------------------------------|------------|
B|--------------------------------------|------------|
G|-------------------(0-4-5-4-0)--------|--^^^^^^^---|
D|---33--777--555------------------(3x)-|--5555555---|
A|---33--777--555-----------------------|--5555555---|
E|---11--555--333-----------------------|--3333333---|


[Verse] 
e|---------------------------------------------------|
B|---------------------------------------------------|
G|--55555555--*--------------^^^^^^^^-^-^---^-^------|
D|--55555555--2--3--777777---33333333-3-3---5-5------|
A|--33333333--2--3--777777---33333333-3-3---5-5------|
E|------------0--1--555555---11111111-1-1---3-3------|

e|---------------------------------------------------|
B|---------------------------------------------------|
G|--55555555--*--------------^^^^^^^^-^-^---^-^------|
D|--55555555--2--3--777777---33333333-3-3---6-6------|
A|--33333333--2--3--777777---33333333-3-3---6-6------|
E|------------0--1--555555---11111111-1-1---4-4------|


Play this on * 
e|--------------------|
B|---5-3----5-3-------|
G|--------5------5~---| (harmonic)
D|--------------------|
A|--------------------|
E|--------------------|


[Pre-chorus]
e|---------------------------------------------------|
B|---------------------------------------------------|
G|---------------------------------------------------|
D|--77777777--33333333---777777777---3-3-33---555----|
A|--77777777--33333333---777777777---3-3-33---555----|
E|--55555555--11111111---555555555---1-1-11---333----|


[Chorus]
e|---------------------------------------------------|
B|---------------------------------------------------|
G|--55-5---------------------------------------------|
D|--55-5---5--7----33-3---7--5----(4x)---------------|
A|--33-3---5--7----33-3---7--5-----------------------|
E|---------3--5----11-1---5--3-----------------------|


[Solo1]  F - C (4x) - G
e|---------------------------------------------------------------------------|
B|-----------------------33-55--------------------33-------------------------|
G|--55-44-55-44-55-44-55--------44-55-44-55-44-55----55----------------------|
D|---------------------------------------------------------------------------|
A|---------------------------------------------------------------------------|
E|---------------------------------------------------------------------------|

e|---------------------------------------------------------------------------|
B|--------------------33-55--------------------------------------------------|
G|--44-55-44-55-44-55--------44-55-44-55-44-55-------------------------------|
D|---------------------------------------------5~----------------------------|
A|---------------------------------------------------------------------------|
E|---------------------------------------------------------------------------|

[Solo2] -play along the solo1-
e|---------------------------------------------------------------------------|
B|--55-33-55-33-55-33-55-66-55---33-55-33-55-33-55-66-55---------------------|
G|---------------------------------------------------------------------------|
D|---------------------------------------------------------------------------|
A|---------------------------------------------------------------------------|
E|---------------------------------------------------------------------------|

e|---------------------------------------------------------------------------|
B|--33-55-33-55-33-55-66--8--6--5~-------------------------------------------|
G|---------------------------------------------------------------------------|
D|---------------------------------------------------------------------------|
A|---------------------------------------------------------------------------|
E|---------------------------------------------------------------------------|


-repeat verse, pre-chorus, chorus-


[Interlude]
e|-----------------------|-------------------------------------------------------|
B|-----------------------|-------------------------------------------------------|
G|--------------------5~-|-5555--7777--9999--10101010--12121212121212-14-12-7-5~-|
D|--33--77--55--(5x)--5~-|-xxxx--xxxx--xxxx---x-x-x-x---x-x-x-x-x-x-x--x--x-x-x--|
A|--33--77--55--------3~-|-3333--5555--7777---8-8-8-8--10101010101010-12-10-5-3~-|
E|--11--55--33-----------|-------------------------------------------------------|

e|---------------------------------------|---------------------------------------|
B|---------------------------------------|---------------------------------------|
G|--5~-------------------^^^^^^^^^^---55-|--101010101010--/17-17-17-17-17---55---|
D|--5~----33333333333333-3333333333---55-|---x-x-x-x-x-x--/-x--x--x--x--x---xx---|
A|--3~----33333333333333-3333333333---33-|---8-8-8-8-8-8--/15-15-15-15-15---33---|
E|--------11111111111111-1111111111------|---------------------------------------|


[Chorus2]
e|------------------------------------------|
B|------------------------------------------|
G|--55----------------55--------------------|
D|--55--3--7--5--7----55--3--7--5--7--------|
A|--33--3--7--5--7----33--3--7--5--7--------|
E|------1--5--3--5--------1--5--3--5--------|

-repeat chorus-

[Outro]
e|-------|
B|-------|
G|--55---|
D|--55---|
A|--33---|
E|-------|


2. GRAND THEFT AUTUMN
---------------------------------------------------------

Tuning: DADGBe

intro x6
1st verse x1
intro x1
chorus x1
intro x 4
2nd verse x1
chorus x1
solo x1
bridge x4
post bridge chorus x1
last chorus x1

intro   
e|-------------------------------------------------------------------------|
B|-------------------------------------------------------------------------|
G|----6/7777---6/7777----6/777---------------------------------------------|
D|----x-xxxx---x-xxxx----x-xxx---------------------------------------------|
A|----4/5555---4/5555----4/555---------------------------------------------|
D|-------------------------------------------------------------------------|

1st verse
e|-------------------------------------------------------------------------|
B|-------------------------------------------------------------------------|
G|-7--------------7--------------------------------------------------------|
D|-x--7------7----x--7-----7-----------------------------------------------|
A|-5--5---2--5----5--5--2--5-----------------------------------------------|
D|----5---2--5-------5--2--5-----------------------------------------------|

e|-------------------------------------------------------------------------|
B|-------------------------------------------------------------------------|
G|-------------------------------------------------------------------------|
D|-------------------------------------------------------------------------|
A|-55555555--77777777--00000000--44444444---55-55--77-77--00-00------------|
D|-55555555--77777777--00000000--44444444---55-55--77-77--00-00------------|

chorus
e|-------------------------------------------------------------------------|
B|-------------------------------------------------------------------------|
G|-------------------------------------------------------------------------|
D|-------------------------------------------------------------------------|
A|-99-55-00-44-55-77-00-44-55-77--00000000--22222222---5-------------------|
D|-99-55-00-44-55-77-00-44-55-77--00000000--22222222---5-------------------|

2nd verse
e|-------------------------------------------------------------------------|
B|-------------------------------------------------------------------------|
G|-7--------------7--------------------------------------------------------|
D|-x--7------7----x--7-----7-----------------------------------------------|
A|-5--5---2--5----5--5--2--5-----------------------------------------------|
D|----5---2--5-------5--2--5-----------------------------------------------|

e|-------------------------------------------------------------------------|
B|-------------------------------------------------------------------------|
G|-------------------------------------------------------------------------|
D|-------------------------------------------------------------------------|
A|-55555555--77777777--00000000--44444444---55-55--77-77--00-00--4-5/------|
D|-55555555--77777777--00000000--44444444---55-55--77-77--00-00--4-5/------|

solo
e|-------------------------------------------------------------------------|
B|-------------------------------------------------------------------------|
G|-------------------------------------------------------------------------|
D|-------77-7----77-7-------7-7-7---7------77-7----77-7-------77777777-----|
A|--55-5------55------5555-------55---55-5------55-------5555--------------|
D|-------------------------------------------------------------------------|


bridge
e|-------------------------------------------------------------------------|
B|-------------------------------------------------------------------------|
G|-------------------------------------------------------------------------|
D|-------------------------------------------------------------------------|
A|-99999999--77777777--00000000--55555555----------------------------------|
D|-99999999--77777777--00000000--55555555----------------------------------|
 
post bridge chorus
e|-------------------------------------------------------------------------|
B|-------------------------------------------------------------------------|
G|-------------------------------------------------------------------------|
D|-------------------------------------------------------------------------|
A|-99--55--00--44--55--77--5555-7777-00000000-22222222-55555555------------|
D|-99--55--00--44--55--77--5555-7777-00000000-22222222-55555555------------|

last chorus
e|-------------------------------------------------------------------------|
B|-------------------------------------------------------------------------|
G|-------------------------------------------------------------------------|
D|-------------------------------------------------------------------------|
A|-99-55-00-44-55-77-00-44-55-77--00000000--22222222---5----0--------------|
D|-99-55-00-44-55-77-00-44-55-77--00000000--22222222---5----0--------------|


3. SATURDAY
--------------------------------------------------------------------

Intro Part One 1x Guitars 1 and 2
E-----------------------------------------------------|
B-----------------------------------------------------|
G---------------------------------------666666666666--|
D--666666666666-999999999999-2-22-22-22-666666666666--|
A--666666666666-999999999999-2-22-22-22-444444444444--|
E--444444444444-777777777777-0-00-00-00---------------|

Intro Part Two 1x Guitar 1
E-----------------------------------------------------------|
B-----------------------------------------------------------|
G-----------------------------------------------------------|
D--222222222222-66-88-9999-22222222222222222222222222222222-|
A--222222222222-66-88-9999-22222222222222222222222222222222-|
E--000000000000-44-66-7777-00000000000000000000000000000000-|

Guitar 2
E-----------------------------------------------------------|
B-----------------------------------------------------------|
G--999999999999------------99-88-66-44-99999/1111-88888/99--|
D--xxxxxxxxxxxx-66-88-9999-xx-xx-xx-xx-99999/1111-88888/99--|
A--777777777777-66-88-9999-77-66-44-22-77777/9-9--66666/77--|
E---------------44-66-7777----------------------------------|

Verse 2x Guitar 1 
E---------------------------------------------------------------|
B---------------------------------------------------------------|
G---------------------------------------------------------------|
D--666666666666-/-222222222222-/-444444444444-/-222222222222-/--|
A--666666666666-/-222222222222-/-444444444444-/-222222222222-/--|
E--444444444444-/-000000000000-/-222222222222-/-000000000000-/--|
PM  ...........    ...........    ...........    ...........

Verse Part One 1x Guitar 2
E-----------------------------------------------------------|
B-----------------------------------------------------------|
G--------------------------------------------------88-66-44-|
D--666666666666-/-222222222222-/-444444444444-/-2--xx-xx-xx-|
A--666666666666-/-222222222222-/-444444444444-/-2--66-44-22-|
E--444444444444-/-000000000000-/-222222222222-/-0-----------|
PM  ...........    ...........    ...........

Verse Part Two 1x Guitar 2
E------------------------------------------------------------|
B--99999999999-1212121212121212-11111111111111-121212121212--|
G------------------------------------------------------------|
D------------------------------------------------------------|
A------------------------------------------------------------|
E------------------------------------------------------------|

Pre Chorus 1x Guitar 1 and 2
E----------|
B----------|
G------9~--| )
D--4-6-9~--| )Pickslide all three strings (A, D and G)
A--4-6-7~--| )
E--2-4-----|

Chorus Part One 2x Guitar 1
E-------------------------------------|
B-------------------------------------|
G------------------------66666-99999--|
D--9999999999-9999999999-66666-99999--|
A--9999999999-9999999999-44444-77777--|
E--7777777777-6666666666--------------|

Chorus Part One 2x Guitar 2

E------------------------------------------|
B------------------------------------------|
G-------------111111111111111-66666-99999--|
D--9999999999-111111111111111-66666-99999--|
A--9999999999-9-9-9-9-9-9-9-9-44444-77777--|
E--7777777777------------------------------|

Chorus Part Two 2x Guitars 1 and 2
E-------------------------------|
B-------------------------------|
G------------------66666-99999--|
D--9999----9999----66666-99999--|
A--9999----9999----44444-77777--|
E--7777----6666-----------------|

Verse 2 Part One 1x Guitar 1
E------------------------------|
B------------------------------|
G------------------------------|
D--6~--/--2~--/--4~--/--2~-xx--|
A--6~--/--2~--/--4~--/--2~-xx--|
E--4~--/--0~--/--2~--/--0~-xx--|

Verse 2 Part One 1x Guitar 2
E--------------------------|
B--------------------------|
G-------------11-----8-8---| )
D--6~------9~--x-8~--x-x---| )Pickslide
A--6~------9~--9-8~--6-6---| )
E--4~--4h6-7~----6~--------| 

Verse 2 Part Two 1x Guitar 1
E---------------------------------------------------------------|
B---------------------------------------------------------------|
G---------------------------------------------------------------|
D--666666666666-/-222222222222-/-444444444444-/-222222222222-/--|
A--666666666666-/-222222222222-/-444444444444-/-222222222222-/--|
E--444444444444-/-000000000000-/-222222222222-/-000000000000-/--|
PM  ...........    ...........    ...........    ...........

Verse 2 Part Two 1x Guitar 2
E-----------------------------------------------|
B-----------------------------------------------|
G--4444444444-9999999999-8888888888-9999999999--|
D--xxxxxxxxxx-xxxxxxxxxx-xxxxxxxxxx-xxxxxxxxxx--|
A--2222222222-7777777777-6666666666-7777777777--|
E-----------------------------------------------|

Repeat Pre Chorus

Repeat Chorus Part One 2x

Repeat Chorus Part Two 2x

Guitar 2 Solo/Interlude
E---2-0--------2-0--------2-0--------2-0--------2-0--------2-0-------
B--0-0-4-2p0--0-0-4-2p0--0-0-4-2p0--0-0-4-2p0--0-0-4-2p0--0-0-4-2p0--
G--------------------------------------------------------------------
D--------------------------------------------------------------------
A--------------------------------------------------------------------
E--------------------------------------------------------------------

Guitar 1 Interlude (During the Solo)
E--------------------------------------------------------------------
B--------------------------------------------------------------------
G--------------------------------------------------------------------
D-9~-----------------------------------------2~---------4~-----------
A-9~-----------------------------------------2~---------4~-----------
E-7~-----------------------------------------0~---------2~-----------

(Solo Continued)





E---2-0--------2-0--------2-0--------2-0--------2-0--------|
B--0-0-4-2p0--0-0-4-2p0--0-0-4-2p0--0-0-4-2p0--0-0-4-2p0---|
G----------------------------------------------------------|
D----------------------------------------------------------|
A----------------------------------------------------------|
E----------------------------------------------------------|

(Guitar 2 Interlude Continued)
E----------------------------------------------------------|
B----------------------------------------------------------|
G----------------------------------------------------------|
D-6~---------9--8--9--2~----------4~---------6~--------9---|
A-6~---------9--8--9--2~----------4~---------6~--------9---|
E-4~---------7--6--7--0~----------2~---------4~--------7---|

Bridge Part One 4x Guitars 1 and 2
E------------------------|
B------------------------|
G------------------------|
D--2222-4444-6666-9999---|
A--2222-4444-6666-9999---|
E--0000-2222-4444-7767---|

Bridge Part Two 1x
E-------|------------22x2x2xx2-|-------------|
B-------|---x4x4x44xx22x2x2xx2-|-------------|
G-------|---x4x4x44xx33x3x3xx3-|-6666-9999---|
D--9~---|---x4x4x44xx44x4x4xx4-|-6666-9999---|
A--9~---|---x2x2x22xx44x4x4xx4-|-4444-7777---|
E--7~---|------------22x2x2xx2-|-------------|
          <<>>

Chorus Part One 1x

Chorus Part Two 2x  (Guitar One plays it four times)

Post Chorus 2x Guitar 2
E---------------------------------------|
B---------------------------------------|
G--------------------------66666-99999--|
D--9999--------9999--------66666-99999--|
A--9999--------9999--------44444-77777--|
E--7777-7h9p7--6666-6h7p6---------------|

Outro 1x Guitars 1 and 2
E--------------|
B--------------|
G----------9~--|
D--4--6--9-9~--|
A--4--6--9-7~--|
E--2--4--7-----|


4. SUGAR, WE'RE GOING DOWN
---------------------------------------------

Tuning: Drop D
*=palm mute
h=hammer on 


Intro Guitar 1
e|------------------------------------------------------------|
B|------------------------------------------------------------|
G|------------------------------------------------------------|
D|-00000000-55555555-99999999-55555555------------------------|x2
A|-00000000-55555555-99999999-55555555------------------------|
D|-00000000-55555555-99999999-55555555------------------------|

Intro Guitar 2
e|------------------------------------------------------------|
B|-777-555-888-555-77-55--------------------------------------|
G|-777-777-777-777-77-77--------------------------------------|
D|------------------------------------------------------------|x2
A|------------------------------------------------------------|
D|------------------------------------------------------------|

Intro Guitar 2 Continued
e|------------------------------------------------------------|
B|-777-555-888-555-77-55-7~-----------------------------------|
G|-777-777-777-777-77-77-7~-----------------------------------|
D|------------------------------------------------------------|
A|------------------------------------------------------------|
D|------------------------------------------------------------|

Verse 1 Guitar 1 "Lie in the grass..."
e|------------------------------------------------------------|
B|------------------------------------------------------------|
G|-7-7-7-7--7-7-7-7-------------------------------------------|
D|-x-x-x-x--x-x-x-x-------------------------------------------|x4
A|-5-5-5-5--7-7-7-7-------------------------------------------|
D|------------------------------------------------------------|

Verse 1 Guitar 2  "Lie in the grass..."
e|------------------------------------------------------------|
B|------------------------------------------------------------|
G|------------------------------------------------------------|
D|-77-7-7h9-7------7h9-7--------------------------------------|
A|-55-5-5---5---7h9-----7-------------------------------------|
D|------------------------------------------------------------|
   ** 

Verse 1 Guitar 2 Continued
e|------------------------------------------------------------|
B|------------------------------------------------------------|
G|------------------------------------------------------------|
D|-7-7-7h9-7------7h9-7---------------------------------------|x3
A|-5-5-5---5---7h9-----7--------------------------------------|
D|------------------------------------------------------------|

Pre Chorus "Drop a heart..." (palm mute)
e|--------------------------------------------------------------------|
B|--------------------------------------------------------------------|
G|--------------------------------------------------------------------|
D|-000000-55555555-777777-99999999-101010101010-99999999-555555555555-|
A|-000000-55555555-777777-99999999-101010101010-99999999-555555555555-|
D|-000000-55555555-777777-99999999-101010101010-99999999-555555555555-|
   
Chorus
e|--------------------------------------------------------------------|
B|--------------------------------------------------------------------|
G|--------------------------------------------------------------------|
D|-0000000000000000-5555555555555555-999999999999999-5555555555555555-|
A|-0000000000000000-5555555555555555-999999999999999-5555555555555555-|
D|-0000000000000000-5555555555555555-999999999999999-5555555555555555-|

Chorus Continued
e|------------------------------------------------------------|
B|------------------------------------------------------------|
G|-----777-----777-----777-----777----------------------------|
D|-000-xxx-000-xxx-555-xxx-555-xxx----------------------------|
A|-000-555-000-555-555-555-555-555----------------------------|
D|-000-----000-----555-----555--------------------------------|

Chorus Continued
e|------------------------------------------------------------|
B|------------------------------------------------------------|
G|-----111111-----111111-----777-----777----------------------|
D|-999-x-x-x--999-x-x-x--555-xxx-555-xxx----------------------|
A|-999-9-9-9--999-9-9-9--555-555-555-555----------------------|
D|-999--------999--------555-----555--------------------------|

Pre Verse
e|------------------------------------------------------------|
B|------------------------------------------------------------|
G|------------------------------------------------------------|
D|-0000-0-00-555-555-55-55-7777-7-999-999-99-99-10101010-10---|
A|-0000-0-00-555-555-55-55-7777-7-999-999-99-99-10101010-10---|
D|-0000-0-00-555-555-55-55-7777-7-999-999-99-99-10101010-10---|
   ****   ** *** *** *  *  ****   *** *** *  *  ********

Pre Verse Continued
e|-------------------------------------------------------------|
B|-------------------------------------------------------------|
G|---------------------7~--------------------------------------|
D|-999-999-99-99---5~--7~--------------------------------------|
A|-999-999-99-99---5~--5~--------------------------------------|
D|-999-999-99-99---5~------------------------------------------|
   *** *** *  *

Verse 2 Guitar 1 "Is this more than..." (palm muted)
e|--------------------------------------------------------------|
B|--------------------------------------------------------------|
G|--------------------------------------------------------------|
D|-00000000-55555555-99999999-55555555--------------------------|x4
A|-00000000-55555555-99999999-55555555--------------------------|
D|-00000000-55555555-99999999-55555555--------------------------|

Verse 2 Guitar 2 "Isn't it messed up"
e|--------------------------------------------------------------|
B|--------------------------------------------------------------|
G|--7777-7-7--7-7-7-7-------------------------------------------|
D|--xxxx-x-x--x-x-x-x-------------------------------------------|x4
A|--5555-5-5--7-7-7-7-------------------------------------------|
E|--------------------------------------------------------------|

Pre Chorus "Drop a heart..." (palm mute)
e|--------------------------------------------------------------------|
B|--------------------------------------------------------------------|
G|--------------------------------------------------------------------|
D|-000000-55555555-777777-99999999-101010101010-99999999-555555555555-|
A|-000000-55555555-777777-99999999-101010101010-99999999-555555555555-|
D|-000000-55555555-777777-99999999-101010101010-99999999-555555555555-|


Chorus
e|--------------------------------------------------------------------|
B|--------------------------------------------------------------------|
G|--------------------------------------------------------------------|
D|-0000000000000000-5555555555555555-999999999999999-5555555555555555-|
A|-0000000000000000-5555555555555555-999999999999999-5555555555555555-|
D|-0000000000000000-5555555555555555-999999999999999-5555555555555555-|

Chorus Continued
e|------------------------------------------------------------|
B|------------------------------------------------------------|
G|-----777-----777-----777-----777----------------------------|
D|-000-xxx-000-xxx-555-xxx-555-xxx----------------------------|
A|-000-555-000-555-555-555-555-555----------------------------|
D|-000-----000-----555-----555--------------------------------|


Chorus Continued
e|------------------------------------------------------------|
B|------------------------------------------------------------|
G|-----111111-----111111-----777-----777----------------------|
D|-999-x-x-x--999-x-x-x--555-xxx-555-xxx----------------------|
A|-999-9-9-9--999-9-9-9--555-555-555-555----------------------|
D|-999--------999--------555-----555--------------------------|

Interlude Guitar 1
e|------------------------------------------------------------|
B|------------------------------------------------------------|
G|------------------------------------------------------------|
D|-5-222-0~-------5~--------0~--------5~-----------55---------|
A|-5-222-0~-------5~--------0~--------5~-----------55---------|
D|-5-222-0~-------5~--------0~--------5~-----------55---------|
* ***
Interlude Guitar 2
e|------------------------------------------------------------|
B|-777-555-888-555-77-55--------------------------------------|
G|-777-777-777-777-77-77--------------------------------------|
D|------------------------------------------------------------|x3
A|------------------------------------------------------------|
D|------------------------------------------------------------|

Interlude Continued Guitar 1 (palm muted)
e|--------------------------------------------------------------|
B|--------------------------------------------------------------|
G|--------------------------------------------------------------|
D|-00000-00000-55555-55555-99999-99999-55555-55555--------------|
A|-00000-00000-55555-55555-99999-99999-55555-55555--------------|
D|-00000-00000-55555-55555-99999-99999-55555-55555--------------|

Interlude Continued Guitar 2 
e|--------------------------------------------------------------|
B|--------------------------------------------------------------|
G|------6h7-6h7-7-----6h7-6h7-7---------------------------------|
D|-----7---7---7-----7---7---7----------------------------------|x4
A|--------------------------------------------------------------|
D|--------------------------------------------------------------|

Interlude Continued Guitar 1
e|--------------------------------------------------------------|
B|--------------------------------------------------------------|
G|--------------------------------------------------------------|
D|-0000000000000000-5555555555555555-9999999999999999-5---------|
A|-0000000000000000-5555555555555555-9999999999999999-5---------|
D|-0000000000000000-5555555555555555-9999999999999999-5---------|

Interlude Continued Guitar 2
e|--------------------------------------------------------------|
B|--------------------------------------------------------------|
G|------6h7-6h7-7-----6h7-6h7-7---------------------------------|
D|-----7---7---7-----7---7---7----------------------------------|x3
A|--------------------------------------------------------------|
D|--------------------------------------------------------------|

Interlude Continued Guitar 3
e|--------------------------------------------------------------|
B|-777-555-888-555-77-55----------------------------------------|
G|-777-777-777-777-77-77----------------------------------------|
D|--------------------------------------------------------------|x3
A|--------------------------------------------------------------|
D|--------------------------------------------------------------|

Outro Guitar 1
e|------------------|
B|------------------|
G|------------------|
D|-5-222-0~---------|
A|-5-222-0~---------|
D|-5-222-0~---------|


Outro Guitar 2 (fades out)


e|--------------------------------------------------------------|
B|-777-555-888-555-77-55----------------------------------------|
G|-777-777-777-777-77-77----------------------------------------|
D|--------------------------------------------------------------|x2
A|--------------------------------------------------------------|
D|--------------------------------------------------------------|


this is 99.9% correct 
i tabbed both guitars,and its pretty self explanatory. 
listen to the song and follow along. have fun.

5. DANCE, DANCE
-----------------------------------------------------------------

Tuning: Drop D
Guitar 1 – Distortion
Guitar 2 – Distortion

 _________________
|Intro (0:04-0:19)|
|_________________|

(Bass)

She says she's no good, with words but I'm worst. Barely stuttered out
"A joke of a romanic," or just stuck to my tongue.
 _________________
|Verse (0:20-0:28)|
|_________________|

Guitar 1
e| |---------------------------------|---------------------------------|
B| |---------------------------------|---------------------------------|
G| |---------------------------------|---------------------------------|
D| |11-9--11-9--12--11-9--11-9--12---|11-9--11-9--12--11-9--11-9--12---|
A| |-----9-----9---9-----9-----9---9-|-----9-----9---9-----9-----9---9-|
D| |---------------------------------|---------------------------------|
     * * * * * * * * * * * * * * * * | * * * * * * * * * * * * * * * *
       Weighed down  over-dramatic      Tonight it's   "No one should 
       with words too       	        "It cannot get  ever feel like..."
                                        much worse" vs.  
 
 ______________________
|Pre-Chorus (0:29-0:38)|
|______________________|

Guitar 1
e| |---------------------------------|---------------------------------|
B| |---------------------------------|---------------------------------|
G| |---------------------------------|---------------------------------|
D| |-----0-0-4-4-2-4------0-0-4-4-2-4|-----0-0-4-4-2-4------0-0-4-4-2-4|
A| |-2-4--------------2-4------------|-2-4--------------2-4------------|
D| |---------------------------------|---------------------------------|
     I'm two quarters And I don't want These words are  So you need them
     and a heart down to forget how    all I have so    just to get by
                      yourvoice sounds I'll write them

Guitar 1
e| |----------------|
B| |----------------|
G| |----------------|
D| |11-9--11-9--12--|
A| |-----9-----9---9|
D| |----------------|
     * * *

 __________________
|Chorus (0:39-0:55)|
|__________________|

Guitar 1
e| |---------------------------------|---------------------------------|
B| |o--------------------------------|--------------------------------o|
G| |---------7-7-7-7-------------2-2-|---------7-7-7-7-------------2-2-|
D| |-9-9-9-9-7-7-7-7-5-5-5-5-4-4-2-2-|-9-9-9-9-7-7-7-7-5-5-5-5-4-4-2-2-|
A| |o9-9-9-9-5-5-5-5-5-5-5-5-4-4-0-0-|-9-9-9-9-5-5-5-5-5-5-5-5-4-4-0-0o|
D| |-9-9-9-9---------5-5-5-5-4-4-----|-9-9-9-9---------5-5-5-5-4-4-----|
  1.    Dance, Dance We're falling        Dance, Dance And these are   |
                     apart to have time                the lives you   |
                                                       love to live    |
                                                                       |
  2.    Dance This is the way they'd      How misery loved me          |
              love to live if they knew                                |

                                                                       |
Guitar 2                                                               |
e| |---------------------------------|---------------------------------|
B| |o--------------------------------|--------------------------------o|
G| |-4-4-4-4-7-7-7-7121212121111-9-9-|-4-4-4-4-7-7-7-7121212121111-9-9-|
D| |-x-x-x-x-x-x-x-x-x-x-x-x-x-x-x-x-|-x-x-x-x-x-x-x-x-x-x-x-x-x-x-x-x-|
A| |o2-2-2-2-5-5-5-510101010-9-9-7-7-|-2-2-2-2-5-5-5-510101010-9-9-7-7o|
D| |---------------------------------|---------------------------------|

 _________________
|Verse (0:56-1:12)|
|_________________|

Guitar 1
e| |---------------------------------|---------------------------------|
B| |---------------------------------|---------------------------------|
G| |---------------------------------|---------------------------------|
D| |11-9--11-9--12--11-9--11-9--12---|11-9--11-9--12--11-9--11-9--12---|
A| |-----9-----9---9-----9-----9---9-|-----9-----9---9-----9-----9---9-|
D| |---------------------------------|---------------------------------|
     * * * * * * * * * * * * * * * *   * * * * * * * * * * * * * * * * |
                                                                       |
Guitar 2                                                               |
e| |---------------------------------|---------------------------------|
B| |---------------------------------|---------------------------------|
G| |-------7~----/-\-------7-----/-\-|-------7-----/-\---------7---/-\-|
D| |-------x---------------x---------|-------x-----------------x-------|
A| |-------5~----/-\-------5-----/-\-|-------5-----/-\---------5---/-\-|
D| |---------------------------------|---------------------------------|

Guitar 1
e| |---------------------------------|---------------------------------|
B| |---------------------------------|---------------------------------|
G| |---------------------------------|---------------------------------|
D| |-9-------------911-9--11-9--12---|11-9--11-9--12--11-9--11-9--12---|
A| |---------------------9-----9---9-|-----9-----9---9-----9-----9---9-|
D| |---------------------------------|---------------------------------|
                     * * * * * * * *   * * * * * * * * * * * * * * * * |
      You always   before you're      Drink up its last  but only the  |
      fold just    found out          call, last resort, first mistake |
                                                                       |
Guitar 2                                                               |
e| |---------------------------------|---------------------------------|
B| |---------------------------------|---------------------------------|
G| |-4-------------4-------7-----/-\-|-------7-----/-\-------7-----/-\-|
D| |-x-------------x-------x---------|-------x-----/-\-------x-----/-\-|
A| |-2-------------2-------5-----/-\-|-------5-----/-\-------5-----/-\-|
D| |---------------------------------|---------------------------------|

 ______________________
|Pre-Chorus (1:13-1:29)|
|______________________|

Guitar 1
e| |---------------------------------|---------------------------------|
B| |---------------------------------|---------------------------------|
G| |---------------------------------|---------------------------------|
D| |-----0-0-4-4-2-4------0-0-4-4-2-4|-----0-0-4-4-2-4------0-0-4-4-2-4|
A| |-2-4--------------2-4------------|-2-4--------------2-4------------|
D| |---------------------------------|---------------------------------|
     I'm two quarters And I don't want These words are  So you need them
     and a heart down to forget how    all I have so    just to get by
                      yourvoice sounds I'll write them

(Bass and Drums)
Why don't you show me the little bit of spine 
you've been saving for his mattress, love.

Guitar 1
e| |----------------|
B| |----------------|
G| |----------------|
D| |-9-9-----9-9-9-9|
A| |-9-9-----9-9-9-9|
D| |-9-9-----9-9-9-9|
     * *     * * *

 __________________
|Chorus (1:30-1:46)|
|__________________|

Guitar 1
e| |---------------------------------|---------------------------------|
B| |o--------------------------------|--------------------------------o|
G| |---------7-7-7-7-------------2-2-|---------7-7-7-7-------------2-2-|
D| |-9-9-9-9-7-7-7-7-5-5-5-5-4-4-2-2-|-9-9-9-9-7-7-7-7-5-5-5-5-4-4-2-2-|
A| |o9-9-9-9-5-5-5-5-5-5-5-5-4-4-0-0-|-9-9-9-9-5-5-5-5-5-5-5-5-4-4-0-0o|
D| |-9-9-9-9---------5-5-5-5-4-4-----|-9-9-9-9---------5-5-5-5-4-4-----|
  1.    Dance, Dance We're falling        Dance, Dance And these are   |
                     apart to have time                the lives you   |
                                                       love to live    |
                                                                       |
  2.    Dance This is the way they'd      How misery loved me          |
              love to live if they knew                                |
                                                                       |
Guitar 2                                                               |
e| |---------------------------------|---------------------------------|
B| |o--------------------------------|--------------------------------o|
G| |-4-4-4-4-7-7-7-7121212121111-9-9-|-4-4-4-4-7-7-7-7121212121111-9-9-|
D| |-x-x-x-x-x-x-x-x-x-x-x-x-x-x-x-x-|-x-x-x-x-x-x-x-x-x-x-x-x-x-x-x-x-|
A| |o2-2-2-2-5-5-5-510101010-9-9-7-7-|-2-2-2-2-5-5-5-510101010-9-9-7-7o|
D| |---------------------------------|---------------------------------|


 __________________
|Bridge (1:47-2:14)|
|__________________|

Guitar 1
e| |---------------------------------|---------------------------------|
B| |---------------------------------|---------------------------------|
G| |-4-4-4-4-4-4-4-4-6-6-6-6-6-6-6-6-|-7-7-7-7-7-7-7-7-7-91111-11b-11b-|
D| |-x-x-x-x-x-x-x-x-x-x-x-x-x-x-x-x-|-x-x-x-x-x-x-x-x-x-x-x-x---------|
A| |-2-2-2-2-2-2-2-2-4-4-4-4-4-4-4-4-|-5-5-5-5-5-5-5-5-5-7-9-9---------|
D| |---------------------------------|---------------------------------|
                                                                       |
Guitar 2                                                               |
e| |---------------------------------|---------------------------------|
B| |---------------------------------|---------------------------------|
G| |-4-4-4-4-4-4-4-4-6-6-6-6-6-6-6-6-|-7-7-7-7-7-7-7-7-9-9-9-911111111-|
D| |-4-4-4-4-4-4-4-4-7-7-7-7-7-7-7-7-|-7-7-7-7-7-7-7-7-9-9-9-911111111-|
A| |-2-2-2-2-2-2-2-2-4-4-4-4-4-4-4-4-|-5-5-5-5-5-5-5-5-7-7-7-7-9-9-9-9-|
D| |---------------------------------|---------------------------------|

Guitar 1
e| |---------------------------------|---------------------------------|
B| |---------------------------------|---------------------------------|
G| |-4-4-4-4-4-4-4-4-6-6-6-6-6-6-6-6-|-7-7-7-7-7-7-7-7-7-7-7-7-9-9-9-9-|
D| |-x-x-x-x-x-x-x-x-x-x-x-x-x-x-x-x-|-x-x-x-x-x-x-x-x-x-x-x-x-x-x-x-x-|
A| |-2-2-2-2-2-2-2-2-4-4-4-4-4-4-4-4-|-5-5-5-5-5-5-5-5-5-5-5-5-7-7-7-7-|
D| |---------------------------------|---------------------------------|
     Why don't you   little bit of     you've been    (mattress)       |
     show me         spine             saving for             (mattress)
                                       his mattress                    |
Guitar 2                                                               |
e| |---------------------------------|---------------------------------|
B| |---------------------------------|---------------------------------|
G| |-4-4-4-4-4-4-4-4-6-6-6-6-6-6-6-6-|-7-7-7-7-7-7-7-7-9-9-9-911111111-|
D| |-4-4-4-4-4-4-4-4-7-7-7-7-7-7-7-7-|-7-7-7-7-7-7-7-7-9-9-9-911111111-|
A| |-2-2-2-2-2-2-2-2-4-4-4-4-4-4-4-4-|-5-5-5-5-5-5-5-5-7-7-7-7-9-9-9-9-|
D| |---------------------------------|---------------------------------|

Guitar 1
e| |---------------------------------|---------------------------------|
B| |---------------------------------|---------------------------------|
G| |-4-4-4-4-4-4-4-4-6-6-6-6-6-6-6-6-|-7-7-9-9111116161515161618182121-|
D| |-x-x-x-x-x-x-x-x-x-x-x-x-x-x-x-x-|-x-x-x-x-x-x-x-x-x-x-x-x-x-x-x-x-|
A| |-2-2-2-2-2-2-2-2-4-4-4-4-4-4-4-4-|-5-5-7-7-9-914141313141416161919-|
D| |---------------------------------|---------------------------------|
     I only want     in the form of    crawling into bed with me       |
     sympathy        you                                               |

                                                                       |
Guitar 2                                                               |
e| |---------------------------------|---------------------------------|
B| |---------------------------------|---------------------------------|
G| |-4-4-4-4-4-4-4-4-6-6-6-6-6-6-6-6-|-7-7-7-7-7-7-7-7-7-7-7-7-7-7-----|
D| |-4-4-4-4-4-4-4-4-7-7-7-7-7-7-7-7-|-7-7-7-7-7-7-7-7-7-7-7-7-7-7-----|
A| |-2-2-2-2-2-2-2-2-4-4-4-4-4-4-4-4-|-5-5-5-5-5-5-5-5-5-5-5-5-5-5-----|
D| |---------------------------------|---------------------------------|

Guitar 1
e| |---------------------------------|---------------------------------|
B| |---------------------------------|---------------------------------|
G| |11111111111111111111111111111111-|11111111-11b~--------------------|
D| |-x-x-x-x-x-x-x-x-x-x-x-x-x-x-x-x-|-x-x-x-x--x----------------------|
A| |-9-9-9-9-9-9-9-9-9-9-9-9-9-9-9-9-|-9-9-9-9--9b~--------------------|
D| |---------------------------------|---------------------------------|
                                                                       |
Guitar 2                                                               |
e| |---------------------------------|---------------------------------|
B| |---------------------------------|---------------------------------|
G| |---------------------------------|-----------------4-4-4---4---4-4-|
D| |---------------------------------|-----------------4-4-4---4---4-4-|
A| |21-21-21-21-21-21-21-21-21-21-21-|21-21-21-21b~----2-2-2---2---2-2-|
D| |---------------------------------|---------------------------------|
                                                       * * *   *   * *
 __________________
|Chorus (2:15-2:40)|
|__________________|

Guitar 1
e| |---------------------------------|---------------------------------|
B| |o--------------------------------|--------------------------------o|
G| |---------7-7-7-7-------------2-2-|---------7-7-7-7-------------2-2-|
D| |-9-9-9-9-7-7-7-7-5-5-5-5-4-4-2-2-|-9-9-9-9-7-7-7-7-5-5-5-5-4-4-2-2-|
A| |o9-9-9-9-5-5-5-5-5-5-5-5-4-4-0-0-|-9-9-9-9-5-5-5-5-5-5-5-5-4-4-0-0o|
D| |-9-9-9-9---------5-5-5-5-4-4-----|-9-9-9-9---------5-5-5-5-4-4-----|
  1.    Dance, Dance We're falling        Dance, Dance And these are   |
                     apart to have time                the lives you   |
                                                       love to live    |
                                                                       |
  2.    Dance This is the way they'd      Dance This is the way they'd |
              love                              love (they'd love)     |
              (if they knew)                    (if they knew)         |
                                                                       |
Guitar 2                                                               |
e| |---------------------------------|---------------------------------|
B| |o--------------------------------|--------------------------------o|
G| |-4-4-4-4-7-7-7-7121212121111-9-9-|-4-4-4-4-7-7-7-7121212121111-9-9-|
D| |-x-x-x-x-x-x-x-x-x-x-x-x-x-x-x-x-|-x-x-x-x-x-x-x-x-x-x-x-x-x-x-x-x-|
A| |o2-2-2-2-5-5-5-510101010-9-9-7-7-|-2-2-2-2-5-5-5-510101010-9-9-7-7o|
D| |---------------------------------|---------------------------------|

Guitar 1
e| |---------------------------------|---------------------------------|
B| |---------------------------------|---------------------------------|
G| |---------7-7-7-7-------------2-2-|---------7-7-7-7-------------2-2-|
D| |-9-9-9-9-7-7-7-7-5-5-5-5-4-4-2-2-|-9-9-9-9-7-7-7-7-5-5-5-5-4-4-2-2-|
A| |-9-9-9-9-5-5-5-5-5-5-5-5-4-4-0-0-|-9-9-9-9-5-5-5-5-5-5-5-5-4-4-0-0-|
D| |-9-9-9-9---------5-5-5-5-4-4-----|-9-9-9-9---------5-5-5-5-4-4-----|
  3.    Dance This is the way they'd      How misery loved me          |
              love if they knew                                        |
                                                                       |
Guitar 2                                                               |
e| |---------------------------------|---------------------------------|
B| |---------------------------------|---------------------------------|
G| |-4-4-4-4-7-7-7-7121212121111-9-9-|-4-4-4-4-7-7-7-7121212121111-9-9-|
D| |-x-x-x-x-x-x-x-x-x-x-x-x-x-x-x-x-|-x-x-x-x-x-x-x-x-x-x-x-x-x-x-x-x-|
A| |-2-2-2-2-5-5-5-510101010-9-9-7-7-|-2-2-2-2-5-5-5-510101010-9-9-7-7-|
D| |---------------------------------|---------------------------------|

 _________________
|Outro (2:41-3:00)|
|_________________|

Guitar 1 & 2

e| |(0)~~----------------------------|---------------------------------|
B| |-0~~~----------------------------|---------------------------------|
G| |-0~~~----------------------------|---------------------------------|
D| |-0~~~----------------------------|---------------------------------|
A| |-0~~~----------------------------|---------------------------------|
D| |-0~~~----------------------------|---------------------------------|

Guitar 1
e| |---------------------------------|---------------------------------|
B| |---------------------------------|---------------------------------|
G| |---------------------------------|---------------------------------|
D| |11-9--11-9--12--11-9--11-9--12---|11-9--11-9--12--11-9--11-9--12---|
A| |-----9-----9---9-----9-----9---9-|-----9-----9---9-----9-----9---9-|
D| |---------------------------------|---------------------------------|
     * * * * * * * * * * * * * * * *   * * * * * * * * * * * * * * * * |
         Dance, Dance    Dance, Dance      Dance, Dance    Dance, Dance|
                                                                       |
Guitar 2                                                               |
e| |---------------------------------|---------------------------------|
B| |---------------------------------|---------------------------------|
G| |---------------------------------|---------------------------------|
D| |-----0-0-4-4-2-4-----0-0-4-4-2-4-|-----0-0-4-4-2-4-----0-0-4-2-4---|
A| |-2-4-------------2-4-------------|-2-4-------------2-4-----------2-|
D| |---------------------------------|---------------------------------|

 ________
| Legend |
|________|

b   - Bend
*   - Palm Mute
(0) - Slightly Played
~   - Hold
x   - Mute

6. A LITTLE LESS SIXTEEN CANDLES, A LITTLE MORE TOUCH ME
------------------------------------------------------------------

Tuning: Drop D
Guitar 1 – Distortion
Guitar 2 – Distortion

 _________________
|Intro (0:00-0:15)|
|_________________|

Guitar 1 & 2
e| |--------|
B| |--------|
G| |-\------|
D| |(\)-----|
A| |-\------|
D| |-\------|


Guitar 1
e| |---------------------------------|---------------------------------|
B| |o--------------------------------|--------------------------------o|
G| |-7-011-9---9-9-9-7-011-9---9-9-9-|-7-011-9---9-9-912--11---9-\-7---|
D| |-x(0)x-x---x-x-x-x(0)x-x---x-x-x-|-x(0)x-x---x-x-x-x---x---x---x---|
A| |o5-0-9-7---7-7-7-5-0-9-7---7-7-7-|-5-0-9-7---7-7-710---9---7-\-5--o|
D| |--(0)-------------(0)------------|--(0)----------------------------|
  1.                                                                   |
  2.                                                             I con |
                                                                       |
Guitar 2                                                               |
e| |---------------------------------|---------------------------------|
B| |o--------------------------------|--------------------------------o|
G| |---------------------------------|---------------------------------|
D| |-0-0-4-5-5-5-5-5-5-5-7-9-9-9-9-9-|-4-4-4-5-5-5-5-5-5---5---5-5-5---|
A| |o0-0-4-5-5-5-5-5-5-5-7-9-9-9-9-9-|-4-4-4-5-5-5-5-5-5---5---5-5-5--o|
D| |-0-0-4-5-5-5-5-5-5-5-7-9-9-9-9-9-|-4-4-4-5-5-5-5-5-5---5---5-5-5---|

 _________________
|Verse (0:15-0:36)|
|_________________|

Guitar 1
e| |---------------------------------|---------------------------------|
B| |---------------------------------|---------------------------------|
G| |-7-7-7-7-7-7-7-7-9-9-9-9-9-9-9-9-|---------------------------------|
D| |-7-7-7-7-7-7-7-7-9-9-9-9-9-9-9-9-|-9-9-9-9-9-9-9-9-5-5-5-5-5-5-5-5-|
A| |-5-5-5-5-5-5-5-5-7-7-7-7-7-7-7-7-|-9-9-9-9-9-9-9-9-5-5-5-5-5-5-5-5-|
D| |---------------------------------|-9-9-9-9-9-9-9-9-5-5-5-5-5-5-5-5-|
     * * * * * * * * * * * * * * * *   * * * * * * * * * * * * * * * *
     -fess I'm just  Dropping "I'm     You're still          And I know
     messed up       sorrys" like      around

Guitar 1
e| |---------------------------------|---------------------------------|
B| |---------------------------------|---------------------------------|
G| |-7-7-7-7-7-7-7-7-9-9-9-9-9-9-9-9-|---------------------------------|
D| |-7-7-7-7-7-7-7-7-9-9-9-9-9-9-9-9-|-9-9-9-9-9-9-9-9-5-5-5-5-5-5-5-5-|
A| |-5-5-5-5-5-5-5-5-7-7-7-7-7-7-7-7-|-9-9-9-9-9-9-9-9-5-5-5-5-5-5-5-5-|
D| |---------------------------------|-9-9-9-9-9-9-9-9-5-5-5-5-5-5-5-5-|
     * * * * * * * * * * * * * * * *   * * * * * * * * * * * * * * * * |
     you dressed up  "Hey kid, you'll  Live this down"                 |
                      never                                            |
                                                                       |
Guitar 2                                                               |
e| |---------------------------------|---------------------------------|
B| |---------------------------------|---------------------------------|
G| |---------------------------------|-------------------------------7-|
D| |---------------------------------|-------------------------------x-|
A| |---------------------------------|-------------------------------5-|
D| |---------------------------------|---------------------------------|


Guitar 1
e| |---------------------------------|---------------------------------|
B| |---------------------------------|---------------------------------|
G| |-7-7-7-7-7-7-7-7-9-9-9-9-9-9-9-9-|---------------------------------|
D| |-7-7-7-7-7-7-7-7-9-9-9-9-9-9-9-9-|-9-9-9-9-9-9-9-9-5-5-5-5-5-5-5-5-|
A| |-5-5-5-5-5-5-5-5-7-7-7-7-7-7-7-7-|-9-9-9-9-9-9-9-9-5-5-5-5-5-5-5-5-|
D| |---------------------------------|-9-9-9-9-9-9-9-9-5-5-5-5-5-5-5-5-|
     * * * * * * * * * * * * * * * *   * * * * * * * * * * * * * * * * |
     You're just the Boys want to      I'm just the   Too many chances |
     girl all the    dance with and    boy whose had                   |
                                                                       |
Guitar 2                                                               |
e| |---------------------------------|---------------------------------|
B| |---------------------------------|---------------------------------|
G| |---------------------------------|---------------------------7---7-|
D| |---------------------------------|---------------------------x---x-|
A| |---------------------------------|---------------------------5---5-|
D| |---------------------------------|---------------------------------|

 ______________________
|Pre-Chorus (0:36-0:43)|
|______________________|

Guitar 1
e| |---------------------------------|---------------------------------|
B| |---------------------------------|---------------------------------|
G| |---------------------------------|---------------------------------|
D| |-5-5-5-5-5-5-5-5-9-9-9-9-9-9-9-9-|-5-5-5-5-5-5-5-5-5-5-5-5-5-5-5-5-|
A| |-5-5-5-5-5-5-5-5-9-9-9-9-9-9-9-9-|-5-5-5-5-5-5-5-5-5-5-5-5-5-5-5-5-|
D| |-5-5-5-5-5-5-5-5-9-9-9-9-9-9-9-9-|-5-5-5-5-5-5-5-5-5-5-5-5-5-5-5-5-|
                                                         * * *
     I'm sleeping on Porch again,      She said, she said, she said,
     your folk's     dreaming          "Why don't you just drop dead"
 __________________
|Chorus (0:44-0:58)|
|__________________|

Guitar 1
e| |---------------------------------|---------------------------------|
B| |---------------------------------|---------------------------------|
G| |---------------------------------|---------------------------------|
D| |-0-0-4-5-5-5-5-5-5-5-7-9-9-9-9-9-|-4-4-4-5-5-5-5-5-9---7---5-5-5---|
A| |-0-0-4-5-5-5-5-5-5-5-7-9-9-9-9-9-|-4-4-4-5-5-5-5-5-9---7---5-5-5---|
D| |-0-0-4-5-5-5-5-5-5-5-7-9-9-9-9-9-|-4-4-4-5-5-5-5-5-9---7---5-5-5---|
     I don't blame you, for being you  But you can't   Hating it       |
                                       blame me for                    |
                                                                       |
Guitar 2                                                               |
e| |10--10--10--10--10--10--10--10---|10--10--10--10--10--10--10--10---|
B| |--10--10--10--10--10--10--10--10-|--10--10--10--10--10--10--10--10-|
G| |---------------------------------|---------------------------------|
D| |---------------------------------|---------------------------------|
A| |---------------------------------|---------------------------------|
D| |---------------------------------|---------------------------------|

Guitar 1
e| |---------------------------------|---------------------------------|
B| |---------------------------------|---------------------------------|
G| |---------------------------------|---------------------------------|
D| |-0-0-4-5-5-5-5-5-5-5-7-9-9-9-9-9-|-4-4-4-5-5-5-5-5-5---------------|
A| |-0-0-4-5-5-5-5-5-5-5-7-9-9-9-9-9-|-4-4-4-5-5-5-5-5-5---------------|
D| |-0-0-4-5-5-5-5-5-5-5-7-9-9-9-9-9-|-4-4-4-5-5-5-5-5-5---------------|
     So say, what are  Kiss her,       I set my clocks Know I'm always |
     you waiting for?  kiss her        early 'cause I  late            |
                                                                       |
Guitar 2                                                               |
e| |10--10--10--10--10--10--10--10---|10--10--10--10--10---------------|
B| |--10--10--10--10--10--10--10--10-|--10--10--10--10-----------------|
G| |---------------------------------|---------------------------------|
D| |---------------------------------|---------------------------------|
A| |---------------------------------|---------------------------------|
D| |---------------------------------|---------------------------------|

 _____________________
|Interlude (0:58-1:05)|
|_____________________|

Guitar 1
e| |---------------------------------|---------------------------------|
B| |o--------------------------------|--------------------------------o|
G| |-7-011-9---9-9-9-7-011-9---9-9-9-|-7-011-9---9-9-912--11---9-\-7---|
D| |-x(0)x-x---x-x-x-x(0)x-x---x-x-x-|-x(0)x-x---x-x-x-x---x---x---x---|
A| |o5-0-9-7---7-7-7-5-0-9-7---7-7-7-|-5-0-9-7---7-7-710---9---7-\-5--o|
D| |--(0)-------------(0)------------|--(0)----------------------------|
                                                           Write me up |
                                                                       |
Guitar 2                                                               |
e| |---------------------------------|---------------------------------|
B| |---------------------------------|---------------------------------|
G| |---------------------------------|---------------------------------|
D| |-0-0-4-5-5-5-5-5-5-5-7-9-9-9-9-9-|-4-4-4-5-5-5-5-5-5---5---5-5-5---|
A| |-0-0-4-5-5-5-5-5-5-5-7-9-9-9-9-9-|-4-4-4-5-5-5-5-5-5---5---5-5-5---|
D| |-0-0-4-5-5-5-5-5-5-5-7-9-9-9-9-9-|-4-4-4-5-5-5-5-5-5---5---5-5-5---|

 _________________
|Verse (1:05-1:27)|
|_________________|

Guitar 1
e| |---------------------------------|---------------------------------|
B| |o--------------------------------|--------------------------------o|
G| |-7-7-7-7-7-7-7-7-9-9-9-9-9-9-9-9-|---------------------------------|
D| |-7-7-7-7-7-7-7-7-9-9-9-9-9-9-9-9-|-9-9-9-9-9-9-9-9-5-5-5-5-5-5-5-5-|
A| |o5-5-5-5-5-5-5-5-7-7-7-7-7-7-7-7-|-9-9-9-9-9-9-9-9-5-5-5-5-5-5-5-5o|
D| |---------------------------------|-9-9-9-9-9-9-9-9-5-5-5-5-5-5-5-5-|
     * * * * * * * * * * * * * * * *   * * * * * * * * * * * * * * * * |
  1. Give up on me   'Cause darling    You expect         I'm just off |
                     what do                                           |
  2. A long cause,   A long shot       Take this bet           You can |
                     don't even                                        |
                                                                       |
Guitar 2                                                               |
e| |---------------------------------|---------------------------------|
B| |o--------------------------------|--------------------------------o|
G| |---------------------------------|---------------------------7---7-|
D| |---------------------------------|---------------------------x---x-|
A| |o--------------------------------|---------------------------5---5o|
D| |---------------------------------|---------------------------------|

Guitar 1
e| |---------------------------------|---------------------------------|
B| |---------------------------------|---------------------------------|
G| |---------------------------------|---------------------------------|
D| |-0-0---0-0-0---0-2-2---2-2-2---2-|-4-4---4-4-4---4-5-5---5-5-5-5-5-|
A| |-0-0---0-0-0---0-2-2---2-2-2---2-|-4-4---4-4-4---4-5-5---5-5-5-5-5-|
D| |-0-0---0-0-0---0-2-2---2-2-2---2-|-4-4---4-4-4---4-5-5---5-5-5-5-5-|
     Make all the    You can aim all   Get all the sighs and           |
     moves,          the spotlights    the moans just right            |
                                                                       |
Guitar 2                                                               |
e| |---------------------------------|---------------------------------|
B| |---------------------------------|---------------------------------|
G| |-7-7---7-7-7---7-7-7---7-7-7---7-|-7-7---7-7-7---7-7-7---7-7-7-7-7-|
D| |-x-x---x-x-x---x-x-x---x-x-x---x-|-x-x---x-x-x---x-x-x---x-x-x-x-x-|
A| |-5-5---5-5-5---5-5-5---5-5-5---5-|-5-5---5-5-5---5-5-5---5-5-5-5-5-|
D| |---------------------------------|---------------------------------|

 ______________________
|Pre-Chorus (1:27-1:34)|
|______________________|

Guitar 1
e| |---------------------------------|---------------------------------|
B| |---------------------------------|---------------------------------|
G| |---------------------------------|-------------------------------\-|
D| |-5-5-5-5-5-5-5-5-9-9-9-9-9-9-9-9-|-5-5-5-5-5-5-5-5-5------------(\)|
A| |-5-5-5-5-5-5-5-5-9-9-9-9-9-9-9-9-|-5-5-5-5-5-5-5-5-5-------------\-|
D| |-5-5-5-5-5-5-5-5-9-9-9-9-9-9-9-9-|-5-5-5-5-5-5-5-5-5------------(\)|
     I'm sleeping on Porch again,      She said, she said, she said,
     your folk's     dreaming          "Why don't you just drop dead"


 __________________
|Chorus (1:34-1:48)|
|__________________|

Guitar 1
e| |---------------------------------|---------------------------------|
B| |---------------------------------|---------------------------------|
G| |---------------------------------|---------------------------------|
D| |-0-0-4-5-5-5-5-5-5-5-7-9-9-9-9-9-|-4-4-4-5-5-5-5-5-9---7---5-5-5---|
A| |-0-0-4-5-5-5-5-5-5-5-7-9-9-9-9-9-|-4-4-4-5-5-5-5-5-9---7---5-5-5---|
D| |-0-0-4-5-5-5-5-5-5-5-7-9-9-9-9-9-|-4-4-4-5-5-5-5-5-9---7---5-5-5---|
     I don't blame you, for being you  But you can't   Hating it       |
                                       blame me for                    |
                                                                       |
Guitar 2                                                               |
e| |10--10--10--10--10--10--10--10---|10--10--10--10--10--10--10--10---|
B| |--10--10--10--10--10--10--10--10-|--10--10--10--10--10--10--10--10-|
G| |---------------------------------|---------------------------------|
D| |---------------------------------|---------------------------------|
A| |---------------------------------|---------------------------------|
D| |---------------------------------|---------------------------------|

Guitar 1
e| |---------------------------------|---------------------------------|
B| |---------------------------------|---------------------------------|
G| |---------------------------------|---------------------------------|
D| |-0-0-4-5-5-5-5-5-5-5-7-9-9-9-9-9-|-4-4-4-5-5-5-5-5-9---7---5-5-5---|
A| |-0-0-4-5-5-5-5-5-5-5-7-9-9-9-9-9-|-4-4-4-5-5-5-5-5-9---7---5-5-5---|
D| |-0-0-4-5-5-5-5-5-5-5-7-9-9-9-9-9-|-4-4-4-5-5-5-5-5-9---7---5-5-5---|
     So say, what are  Kiss her,       I set my clocks Know I'm always |
     you waiting for?  kiss her        early 'cause I  late            |
                                                                       |
Guitar 2                                                               |
e| |10--10--10--10--10--10--10--10---|10--10--10--10--10--10--10--10---|
B| |--10--10--10--10--10--10--10--10-|--10--10--10--10--10--10--10--10-|
G| |---------------------------------|---------------------------------|
D| |---------------------------------|---------------------------------|
A| |---------------------------------|---------------------------------|
D| |---------------------------------|---------------------------------|

 __________________
|Bridge (1:48-2:10)|
|__________________|

Guitar 1
e| |---------------------------------|---------------------------------|
B| |---------------------------------|---------------------2h3-----2h3-|
G| |-----2---------------------------|-----2---------------------------|
D| |-0-0---0-2-0-4-0-2-0-2-4-5-4-2-0-|-0-0---0-2-0-4-0-----------------|
A| |---------------------------------|---------------------------------|
D| |---------------------------------|---------------------------------|
     Always... Always on...            You said you'd keep me honest   |
                                                                       |
Guitar 2                                                               |
e| |---------------------------------|---------------------------------|
B| |---------------------------------|---------------------------------|
G| |---------------------------------|---------------------------------|
D| |-4-4-4-----------5-5-5---0~------|-2-2-2-----2-2---7-7-7---5-5-5---|
A| |-4-4-4-----------5-5-5---0~------|-2-2-2-----2-2---7-7-7---5-5-5---|
D| |-4-4-4-----------5-5-5---0~------|-2-2-2-----2-2---7-7-7---5-5-5---|
     * * *           * * *             * * *     * *   * *     * *

Guitar 1
e| |---------------------------------|---------------------------------|
B| |---------------------------------|---------------------2h3-----2h3-|
G| |-----2---------------------------|-----2---------------------------|
D| |-0-0---0-2-0-4-0-2-0-2-4-5-4-2-0-|-0-0---0-2-0-4-0-----------------|
A| |---------------------------------|---------------------------------|
D| |---------------------------------|---------------------------------|
     Always... Always on...            But I won't call you on it      |
                                                                       |
Guitar 2                                                               |




e| |---------------------------------|---------------------------------|
B| |---------------------------------|---------------------------------|
G| |---------------------------------|---------------------------------|
D| |-4-4-4-----4-4---5-5-5-----5-5-\-|-2-2-2-----2-2---7-7-7---5-5-5---|
A| |-4-4-4-----4-4---5-5-5-----5-5-\-|-2-2-2-----2-2---7-7-7---5-5-5---|
D| |-4-4-4-----4-4---5-5-5-----5-5-\-|-2-2-2-----2-2---7-7-7---5-5-5---|
     * * *     * *   * * *     *       * * *     * *   * *     * *

Guitar 1
e| |---------------------------------|---------------------------------|
B| |---------------------------------|---------------------------------|
G| |-----2---------------------------|---------------------------------|
D| |-0-0---0-2-0-4-0-2-0-2-4-5-4-2-0-|-5~------------------------------|
A| |---------------------------------|-5~------------------------------|
D| |---------------------------------|-5~------------------------------|
     Always... Always on...                                            |
                                                                       |
Guitar 2                                                               |
e| |---------------------------------|---------------------------------|
B| |---------------------------------|---------------------------------|
G| |---------------------------------|---------------------------------|
D| |-4-4-4-----4-4---5-5-5-----5-5-5-|-5~------------------------------|
A| |-4-4-4-----4-4---5-5-5-----5-5-5-|-5~------------------------------|
D| |-4-4-4-----4-4---5-5-5-----5-5-5-|-5~------------------------------|
     * * *     * *   * * *     * * *

 __________________
|Chorus (2:10-2:24)|
|__________________|

Guitar 1
e| |---------------------------------|---------------------------------|
B| |---------------------------------|---------------------------------|
G| |---------------------------------|---------------------------------|
D| |-0-0-4-5-5-5-5-5-5-5-7-9-9-9-9-9-|-4-4-4-5-5-5-5-5-9---7---5-5-5---|
A| |-0-0-4-5-5-5-5-5-5-5-7-9-9-9-9-9-|-4-4-4-5-5-5-5-5-9---7---5-5-5---|
D| |-0-0-4-5-5-5-5-5-5-5-7-9-9-9-9-9-|-4-4-4-5-5-5-5-5-9---7---5-5-5---|
     I don't blame you, for being you  But you can't   Hating it       |
                                       blame me for                    |
                                                                       |
Guitar 2                                                               |
e| |10--10--10--10--10--10--10--10---|10--10--10--10--10--10--10--10---|
B| |--10--10--10--10--10--10--10--10-|--10--10--10--10--10--10--10--10-|
G| |---------------------------------|---------------------------------|
D| |---------------------------------|---------------------------------|
A| |---------------------------------|---------------------------------|
D| |---------------------------------|---------------------------------|

Guitar 1
e| |---------------------------------|---------------------------------|
B| |---------------------------------|---------------------------------|
G| |---------------------------------|---------------------------------|
D| |-0-0-4-5-5-5-5-5-5-5-7-9-9-9-9-9-|-4-4-4-5-5-5-5-5-9---7---5-5-5---|
A| |-0-0-4-5-5-5-5-5-5-5-7-9-9-9-9-9-|-4-4-4-5-5-5-5-5-9---7---5-5-5---|
D| |-0-0-4-5-5-5-5-5-5-5-7-9-9-9-9-9-|-4-4-4-5-5-5-5-5-9---7---5-5-5---|
     So say, what are  Kiss her,       I set my clocks Know I'm always |
     you waiting for?  kiss her        early 'cause I                  |
                                                                       |
Guitar 2                                                               |
e| |10--10--10--10--10--10--10--10---|10--10--10--10--10--10--10--10---|
B| |--10--10--10--10--10--10--10--10-|--10--10--10--10--10--10--10--10-|
G| |---------------------------------|---------------------------------|
D| |---------------------------------|---------------------------------|
A| |---------------------------------|---------------------------------|
D| |---------------------------------|---------------------------------|

 _________________
|Outro (2:25-2:49)|
|_________________|

Guitar 1





e| |---------------------------------|---------------------------------|
B| |o--------------------------------|--------------------------------o|
G| |-7-011-9---9-9-9-7-011-9---------|-7-011-9---9-9-912--11---9-\-7---|
D| |-x(0)x-x---x-x-x-x(0)x-x---------|-x(0)x-x---x-x-x-x---x---x---x---|
A| |o5-0-9-7---7-7-7-5-0-9-7---------|-5-0-9-7---7-7-710---9---7-\-5--o|
D| |--(0)-------------(0)------------|--(0)----------------------------|
     Late...                                                           |
                                                                       |
Guitar 2                                                               |
e| |---------------------------------|---------------------------------|
B| |---------------------------------|---------------------------------|
G| |---------------------------------|---------------------------------|
D| |-0-0-4-5-5-5-5-5-5-5-7-9-9-9-9-9-|-4-4-4-5-5-5-5-5-5---5---5-5-5---|
A| |-0-0-4-5-5-5-5-5-5-5-7-9-9-9-9-9-|-4-4-4-5-5-5-5-5-5---5---5-5-5---|
D| |-0-0-4-5-5-5-5-5-5-5-7-9-9-9-9-9-|-4-4-4-5-5-5-5-5-5---5---5-5-5---|

Guitar 1
e| |---------------------------------|---------------------------------|
B| |---------------------------------|---------------------------------|
G| |-7-011-9---9-9-9-7-011-9---9-9-9-|-7-011-9---9-9-919---------------|
D| |-x(0)x-x---x-x-x-x(0)x-x---x-x-x-|-x(0)x-x---x-x-x-x---------------|
A| |-5-0-9-7---7-7-7-5-0-9-7---7-7-7-|-5-0-9-7---7-7-717---------------|
D| |--(0)-------------(0)------------|--(0)----------------------------|
                                       I set my clocks Know I'm always |
                                       early 'cause I                  |
                                                                       |
Guitar 2                                                               |
e| |---------------------------------|---------------------------------|
B| |---------------------------------|---------------------------------|
G| |---------------------------------|---------------------------------|
D| |-0-0-4-5-5-5-5-5-5-5-7-9-9-9-9-9-|-4-4-4-5-5-5-5-5-5---------------|
A| |-0-0-4-5-5-5-5-5-5-5-7-9-9-9-9-9-|-4-4-4-5-5-5-5-5-5---------------|
D| |-0-0-4-5-5-5-5-5-5-5-7-9-9-9-9-9-|-4-4-4-5-5-5-5-5-5---------------|

Guitar 1 & 2
e| |---------------------------------|---------------------------------|
B| |---------------------------------|---------------------------------|
G| |-7~~~----------------------------|---------------------------------|
D| |-7~~~----------------------------|---------------------------------|
A| |-5~~~----------------------------|---------------------------------|
D| |---------------------------------|---------------------------------|
     Late...

 ________
| Legend |
|________|

h   - Hammer on
~   - Sustain
\   - Slide down
x   - Mute
(0) - Slightly played


7. THIS AIN'T A SCENE, IT'S AN ARMS RACE
------------------------------------------------

tuning: standard


Intro/ verse 1
Guitar 1 
|----------|-----------------------------------------------|
|----------|-----------------------------------------------|
|----------|-----------------------------------------------|
|-feedback-|-10-12-14-12--10/12-14---10-12-14-12--10/12-14-|
|----------|-12-14-15-14--12/14-15---12-14-15-14--12/14-15-|
|----------|-----------------------------------------------|

|-----------------------------------------------|x4
|-----------------------------------------------|
|-----------------------------------------------|
|-9--10-12-10--9-/10/12---9--10-12-10--9-/10/12-|
|-11-12-14-12--11/12/14---11-12-14-12--11/12/14-|
|-----------------------------------------------|

|-------|
|-------|
|-------|
|-xx-xx-|
|-xx-xx-|
|-xx-xx-|

guitar 2 plays

|-----|     |-----|
|-----|     |-----|
|-5/7-|     |-4/7-|
|-x/x-| and |-x/x-|
|-3/5-|     |-2/5-|
|-----|     |-----|

everytime the riff "changes"(the pattern changes of what guitar 1 plays)

Chorus
both guitars
|---------------------------------------------------------------------|x2
|---------------------------------------------------------------------|
|-2222222222222222------------------5555555555555555------------------|
|-2222222222222222-3333333333333333-5555555555555555-6666666666666666-|
|-0000000000000000-3333333333333333-3333333333333333-6666666666666666-|
|------------------1111111111111111------------------4444444444444444-|



in between thing
|-----------------------|
|-----------------------|
|-----------------------|
|-10-12-14-12--10/12-14-|
|-12-14-15-14--12/14-15-|
|-----------------------|



Play verse again without feedback and both guitars play it 
and then
|--------|
|--------|
|--------|
|-6~--4~-|
|-6~--2~-|
|-4~-----|

play chorus



Bridge
guitar 1
|-----------------------------------------------------------------------|
|-14-14-14-14-14-14-14-14-14-14-14-14-14-14-14-14-----------------------|
|-x--x--x--x--x--x--x--x--x--x--x--x--x--x--x--x------------------------|
|-11-11-11-11-11-11-11-11-11-11-11-11-11-11-11-11-10-12-14-12--10/12-14-|
|-------------------------------------------------12-14-15-14--12/14-15-|
|-----------------------------------------------------------------------|

|-----------------------------------------------------------------------|
|-----------------------------------------------------------------------|
|-13-13-13-13-13-13-13-13-13-13-13-13-13-13-13-13-----------------------|
|-x--x--x--x--x--x--x--x--x--x--x--x--x--x--x--x--10-12-14-12--10/12-14-|
|-11-11-11-11-11-11-11-11-11-11-11-11-11-11-11-11-12-14-15-14--12/14-15-|
|-----------------------------------------------------------------------|

|--------------------------------------------------------------------|
|-14141414-13131313--------------------------------------------------|
|-x-x-x-x--x-x-x-x--14141414-13131313--------------------------------|
|-11111111-10101010-x-x-x-x--x-x-x-x---------------------------------|
|-------------------12121212-11111111-10-12-14-12--10/12-14~-----14~-|
|-------------------------------------12-14-15-14--12/14-15~-----15~-|


guitar 2
|---------------------------------------|
|---------------------------------------|
|-5555555555555555----------------------|
|-3333333333333333-22222222222222222222-|
|------------------00000000000000000000-|
|---------------------------------------|

|---------------------------------|
|---------------------------------|
|-44444444444444------------------|
|-22222222222222-2222222222222222-|
|----------------0000000000000000-|
|---------------------------------|

|---------------------------------------------|
|---------------------------------------------|
|-5555555555555555-----------------7~--8~--9~-|
|-3333333333333333-222222222222222-5~--6~--7~-|
|------------------000000000000000------------|
|---------------------------------------------|

interlude
guitar 1 plays intro 3 times
guitar 2 plays on the last 2


Play Chorus


End on
both guitars
|---------------------| 
|---------------------|
|------------------2~-|
|-2222222222222222-2~-|
|-2222222222222222-0~-|
|-0000000000000000----|


thats it. Pretty easy. PM me if you have questions or corrections.

KEY:
/: slide up
~: let ring
x: scratch


8. THNKS FR TH MMRS
-------------------------------------------

Guitar I (D A D G B E) - 'Lead'
Guitar II (D A D G B E) - 'Rhythm'
Guitar III (D A D G B E) - 'Lead Acoustic'
Guitar IV (D A D G B E) - 'Rhythm Acoustic'



This song is actually played in Drop D. I've watched Patrick like a hawk on as 
many videos as I could.







 Intro & Verse:


 
   Guitar I:

|---------------------------|------------------|
|o-------------------------o|------------------|
|---------------------------|-------------5----|
|--15-15-16-16-15-15-13-13--|-15-15-16-16-5----|
|o-------------------------o|-------------3----|
|---------------------------|------------------|



   Chorus:

   Guitars I & II:

|--------------------------|-----------------|
|o-------------------------|-----------------|
|--10-10-10-10-10-10-10-10-|-6-6-6-6-6-6-6-6-|
|---8--8--8--8--8--8--8--8-|-4-4-4-4-4-4-4-4-|
|o--8--8--8--8--8--8--8--8-|-4-4-4-4-4-4-4-4-|
|---8--8--8--8--8--8--8--8-|-4-4-4-4-4-4-4-4-|


  
|-----------------|------------------|
|-----------------|------------------|
|-3-3-3-3-3-3-3-3-|-6-6-6-6----------|
|-1-1-1-1-1-1-1-1-|-4-4-4-4-7-7-7-7--|
|-1-1-1-1-1-1-1-1-|-4-4-4-4-8-8-8-8--|
|-1-1-1-1-1-1-1-1-|-4-4-4-4-7-7-7-7--|


   
|-------------------------|-----------------|
|-------------------------|-----------------|
|-10-10-10-10-10-10-10-10-|-6-6-6-6-6-6-6-6-|
|--8--8--8--8--8--8--8--8-|-4-4-4-4-4-4-4-4-|
|--8--8--8--8--8--8--8--8-|-4-4-4-4-4-4-4-4-|
|--8--8--8--8--8--8--8--8-|-4-4-4-4-4-4-4-4-|


  
|-----------------|------------------|
|-----------------|-----------------o|
|-8-8-8-8-8-8-8-8-|-8-8-8-8-8-8-8-8--|
|-6-6-6-6-6-6-6-6-|-6-6-6-6-6-6-6-6--|
|-6-6-6-6-6-6-6-6-|-6-6-6-6-6-6-6-6-o|
|-6-6-6-6-6-6-6-6-|-6-6-6-6-6-6-6-6--|


 Pre Verse:
     PM--------------------------------|    PM----------------------|
|----------------|-----------------|----------------|-----------------|
|----------------|-----------------|----------------|-----------------|
|-3--------------|-----------------|-----3----------|-----------------|
|-3--------------|-----------------|-----3----------|-----------------|
|-1--1-1-1-1-1-1-|-1-1-1-1-1-1-1-1-|-1-1-1--1-1-1-1-|-1-1-1-1-1-1-1-1-|
|----------------|-----------------|----------------|-----------------|


    Guitars I & II:
       PM--------------------------|      PM------------------------|
|----------------|-----------------|----------------|----------------|
|----------------|-----------------|----------------|----------------|
|-3--------------|-----------------|----------------|----------------|
|-3--------------|-----------------|-7--------------|----------------|
|-1--1-1-1-1-1-1-|-1-1-1-1-1-1-1-1-|-8--------------|----------------|
|----------------|-----------------|-7--7-7-7-7-7-7-|-3-3-3-3-3-3-3-3|


     PM--------|      PM--------|      PM--------------------------|
|----------------|----------------|----------------|-----------------|
|----------------|----------------|----------------|-----------------|
|-8--------------|-6--------------|----------------|-----------------|
|-8--------------|-6--------------|-7--------------|-----------------| x2
|-6--6-6-6-6-6-6-|-4--4-4-4-4-4-4-|-8--------------|-----------------|
|----------------|----------------|-7--7-7-7-7-7-7-|-7-7-7-7-7-7-7-7-|


   Chorus:

|--------------------------|-----------------|
|o-------------------------|-----------------|
|--10-10-10-10-10-10-10-10-|-6-6-6-6-6-6-6-6-|
|---8--8--8--8--8--8--8--8-|-4-4-4-4-4-4-4-4-|
|o--8--8--8--8--8--8--8--8-|-4-4-4-4-4-4-4-4-|
|---8--8--8--8--8--8--8--8-|-4-4-4-4-4-4-4-4-|


 
|-----------------|------------------|
|-----------------|------------------|
|-3-3-3-3-3-3-3-3-|-6-6-6-6----------|
|-1-1-1-1-1-1-1-1-|-4-4-4-4-7-7-7-7--|
|-1-1-1-1-1-1-1-1-|-4-4-4-4-8-8-8-8--|
|-1-1-1-1-1-1-1-1-|-4-4-4-4-7-7-7-7--|


  
|-------------------------|------------------|
|-------------------------|------------------|
|-10-10-10-10-10-10-10-10-|-6-6-6-6-6-6-6-6-o|
|--8--8--8--8--8--8--8--8-|-4-4-4-4-4-4-4-4--|
|--8--8--8--8--8--8--8--8-|-4-4-4-4-4-4-4-4-o|
|--8--8--8--8--8--8--8--8-|-4-4-4-4-4-4-4-4--|



|-----------------|-----------------|
|-----------------|-----------------|
|-8-8-8-8-8-8-8-8-|-8-8-8-8-8-8-8-8-|
|-6-6-6-6-6-6-6-6-|-6-6-6-6-6-6-6-6-|
|-6-6-6-6-6-6-6-6-|-6-6-6-6-6-6-6-6-|
|-6-6-6-6-6-6-6-6-|-6-6-6-6-6-6-6-6-|


 Bridge:
  Guitar IV:
|---------------------------|---------------------------|
|-2-(2)-2-(2)-(2)-2-(2)-(2)-|-1-(1)-1-(1)-(1)-1-(1)-(1)-|
|-3-(3)-3-(3)-(3)-3-(3)-(3)-|-2-(2)-2-(2)-(2)-2-(2)-(2)-|
|-3-(3)-3-(3)-(3)-3-(3)-(3)-|-3-(3)-3-(3)-(3)-3-(3)-(3)-|
|-1-(1)-1-(1)-(1)-1-(1)-(1)-|-3-(3)-3-(3)-(3)-3-(3)-(3)-|
|---------------------------|---------------------------|


 Guitar III:
|---------------------------|---------------------------|
|-2-(2)-2-(2)-(2)-2-(2)-(2)-|-1-(1)-1-(1)-(1)-1-(1)-(1)-|
|-3-(3)-3-(3)-(3)-3-(3)-(3)-|-2-(2)-2-(2)-(2)-2-(2)-(2)-|
|-3-(3)-3-(3)-(3)-3-(3)-(3)-|-3-(3)-3-(3)-(3)-3-(3)-(3)-|
|-1-(1)-1-(1)-(1)-1-(1)-(1)-|-3-(3)-3-(3)-(3)-3-(3)-(3)-|
|---------------------------|---------------------------|



|---------------------------|-------------------------|
|-7-(7)-7-(7)-(7)-7-(7)-(7)-|-2-(2)-2-(2)-1-(1)-1-(1)-|
|-8-(8)-8-(8)-(8)-8-(8)-(8)-|-3-(3)-3-(3)-2-(2)-2-(2)-|
|-8-(8)-8-(8)-(8)-8-(8)-(8)-|-4-(4)-4-(4)-3-(3)-3-(3)-|
|-6-(6)-6-(6)-(6)-6-(6)-(6)-|-4-(4)-4-(4)-3-(3)-3-(3)-|
|---------------------------|-------------------------|


|---------------------------|-------------------------|
|-7-(7)-7-(7)-(7)-7-(7)-(7)-|-2-(2)-2-(2)-1-(1)-1-(1)-|
|-8-(8)-8-(8)-(8)-8-(8)-(8)-|-3-(3)-3-(3)-2-(2)-2-(2)-|
|-8-(8)-8-(8)-(8)-8-(8)-(8)-|-4-(4)-4-(4)-3-(3)-3-(3)-|
|-6-(6)-6-(6)-(6)-6-(6)-(6)-|-4-(4)-4-(4)-3-(3)-3-(3)-|
|---------------------------|-------------------------|


 
|----------------------------|----------------------------|
|--2-(2)-2-(2)-(2)-2-(2)-(2)-|--1-(1)-1-(1)-(1)-1-(1)-(1)-|
|--3-(3)-3-(3)-(3)-3-(3)-(3)-|--2-(2)-2-(2)-(2)-2-(2)-(2)-|
|--3-(3)-3-(3)-(3)-3-(3)-(3)-|--3-(3)-3-(3)-(3)-3-(3)-(3)-|
|--1-(1)-1-(1)-(1)-1-(1)-(1)-|--3-(3)-3-(3)-(3)-3-(3)-(3)-|
|----------------------------|----------------------------|


|-13-------------------------|-11-------------------------|
|----------------------------|----------------------------|
|----------------------------|----------------------------|
|----------------------------|----------------------------|
|----------------------------|----------------------------|
|----------------------------|----------------------------|



|---------------------------|-------------------------|
|-7-(7)-7-(7)-(7)-7-(7)-(7)-|-2-(2)-2-(2)-1-(1)-1-(1)-|
|-8-(8)-8-(8)-(8)-8-(8)-(8)-|-3-(3)-3-(3)-2-(2)-2-(2)-|
|-8-(8)-8-(8)-(8)-8-(8)-(8)-|-4-(4)-4-(4)-3-(3)-3-(3)-|
|-6-(6)-6-(6)-(6)-6-(6)-(6)-|-4-(4)-4-(4)-3-(3)-3-(3)-|
|---------------------------|-------------------------|



|-9-------------------------|-8-----------------------|
|---------------------------|-------------------------|
|---------------------------|-------------------------|
|---------------------------|-------------------------|
|---------------------------|-------------------------|
|---------------------------|-------------------------|


 
|---------------------------|-----------------------------|
|-2-(2)-2-(2)-(2)-2-(2)-(2)-|-1-(1)--1-(1)-(1)--1-(1)-(1)-|
|-3-(3)-3-(3)-(3)-3-(3)-(3)-|-2-(2)--2-(2)-(2)--2-(2)-(2)-|
|-3-(3)-3-(3)-(3)-3-(3)-(3)-|-3-(3)--3-(3)-(3)--3-(3)-(3)-|
|-1-(1)-1-(1)-(1)-1-(1)-(1)-|-3-(3)--3-(3)-(3)--3-(3)-(3)-|
|---------------------------|-----------------------------|







|-6--6--6--6---8--8--8---9--|-9--9--11-11--11--11-13--13--|
|---------------------------|-----------------------------|
|---------------------------|-----------------------------|
|---------------------------|-----------------------------|
|---------------------------|-----------------------------|
|---------------------------|-----------------------------|


                        Guitar II:
                           PM--------|
|---------------------|----------------|-----------------|
|--7------------------|----------------|-----------------|
|--8------------------|----------------|-----------------|
|--8------------------|-3--------------|-----------------|
|--6------------------|-3--------------|-----------------|
|---------------------|-3--3-3-3-3-3-3-|-----------------|



                        Guitar I:
                           PM--------------------------|
|-13-13----(13)--(13)-|----------------|-----------------|
|---------------------|----------------|-----------------|
|---------------------|----------------|-----------------|
|---------------------|-3--------------|-----------------|
|---------------------|-3--------------|-----------------|
|---------------------|-3--3-3-3-3-3-3-|-3-3-3-3-3-3-3-3-|


   "Guitar-less" Chorus:

|--------------------------|--------------------------|
|o-------------------------|-------------------------o|
|--------------------------|--------------------------|
|--8--(8)\-----------------|-8--(8)\------------------|
|o-8--(8)\-----------------|-8--(8)\-----------------o|
|--8--(8)\-----------------|-8--(8)\------------------|




|-----------------|--------------------|
|-----------------|--------------------|
|-----------------|--------------------|
|-6-6-6-6-6-6-6-6-|-6-6-6-6-6-6-6-6----|
|-6-6-6-6-6-6-6-6-|-6-6-6-6-6-6-6-6----|
|-6-6-6-6-6-6-6-6-|-6-6-6-6-6-6-6-6----|


     
|--------------------------|-----------------|
|o-------------------------|-----------------|
|--10-10-10-10-10-10-10-10-|-6-6-6-6-6-6-6-6-|
|---8--8--8--8--8--8--8--8-|-4-4-4-4-4-4-4-4-|
|o--8--8--8--8--8--8--8--8-|-4-4-4-4-4-4-4-4-|
|---8--8--8--8--8--8--8--8-|-4-4-4-4-4-4-4-4-|


  
|-----------------|------------------|
|-----------------|------------------|
|-3-3-3-3-3-3-3-3-|-6-6-6-6----------|
|-1-1-1-1-1-1-1-1-|-4-4-4-4-7-7-7-7--|
|-1-1-1-1-1-1-1-1-|-4-4-4-4-8-8-8-8--|
|-1-1-1-1-1-1-1-1-|-4-4-4-4-7-7-7-7--|


   
|-------------------------|-----------------|
|-------------------------|-----------------|
|-10-10-10-10-10-10-10-10-|-6-6-6-6-6-6-6-6-|
|--8--8--8--8--8--8--8--8-|-4-4-4-4-4-4-4-4-|
|--8--8--8--8--8--8--8--8-|-4-4-4-4-4-4-4-4-|
|--8--8--8--8--8--8--8--8-|-4-4-4-4-4-4-4-4-|


                                        
|-----------------|------------------|
|-----------------|-----------------o|
|-8-8-8-8-8-8-8-8-|-8-8-8-8-8-8-8-8--|
|-6-6-6-6-6-6-6-6-|-6-6-6-6-6-6-6-6--|
|-6-6-6-6-6-6-6-6-|-6-6-6-6-6-6-6-6-o|
|-6-6-6-6-6-6-6-6-|-6-6-6-6-6-6-6-6--|


  
|------|
|------|
|------|
|-8----|
|-8----|
|-8----|






||o - repeat start
|o| - repeat end
| PM palm mute note
| /  slide up
| \  slide down
| h  hammer-on
| p  pull-off
| ~  vibrato
| +  harmonic
| x  Mute note


9. THE TAKE OVER, THE BREAKS OVER
-------------------------------------------

Gtr.Legends:
b  - bend
/\ - slide
h  - hammer-on
.  - palm muting
x  - scratching
~  - let it ring
+  - pinch harmonics
*  - artificial harmonics
p  - pull-off
^  - pedal-on(wah-wah)

Gtr.Tuning:Standard(Normal)

Intro and Verse:
Gtr.1 Only(For Patrick):
e|-------------------------------------------------------|
B|-------------------------------------------------------|
G|---4-----4----4-----4----------4----4---4-----4--------| 8x
D|-------------------------5-------------------------5---|
A|-4-----4---4-------------5-----------------22--22--3---|
E|-----------------44---44-3--2----2----2----------------|
   . .   . . .  .  .. . ..    .  . .  . . .  .. ...  .

Gtr.2 Enters:Don't pretend...
e|--------------------------------|
B|--------------------------------|
G|-66666---------------444444-----|
D|-66666-66666-5-44444-444444-5---|
A|-44444-66666-5-44444-222222-3---|
E|-------44444-3-22222------------|

Chorus:Would you rather be...
e|------------------------------------------------------------|
B|------------------------------------------------------------|
G|-22222-44444---------6666-444---22222-4444---------666-44---|
D|-22222-44444-7-66666-6666-444---22222-4444-7-66666-666-44---|
A|-00000-22222-7-66666-4444-222---00000-2222-7-66666-444-22---|
E|-------------5-44444-----------------------5-44444----------|

Verse 2:They said your head....
Gtr.1:Repeat Verse 1

Gtr.2
e|---------------------------|
B|---------------------------|
G|-9-9-9--13--11-11-11---8---| Repeat many times...
D|-x-x-x--xx---x--x--x---x---|
A|-7-7-7--11---9--9--9---6---|
E|---------------------------|
   . . .   .   .  . .    .

Repeat Pre-Chorus:

Repeat Chorus:

Bridge prt.1:We do it in the dark...

e|-----------------------------------------------------------------------------------------|
B|-----------------------------------------------------------------------------------------|
G|-----------------------------------------------------------------------------------------|
D|-9-99-xxxx--4-44-xxxx-9-6--7-77-xxxx--6-xxxx-4-xxxx---99999-44444-9-6-777777-6666-4444---|
A|-7-77-xxxx--2-22-xxxx-9-6--7-77-xxxx--4-xxxx-2-xxxx---77777-22222-9-6-777777-4444-2222---|
E|----------------------7-4--5-55-xxxx------------------------------7-4-555555-------------|
   . ..       . ..           . ..

Bridge prt.2:Repeat Verse w/Gtr.2:Don't pretend it...

Bridge prt.3:(Gtr.Adlib)
Gtr.1
e|-------------------------|
B|-------------------------|
G|-2222-4444---------------|
D|-2222-4444-6666-6~--4~---|
A|-0000-2222-6666-4~--2~---|
E|-----------4444----------|

Gtr.2:
e|------------------------------------------------------------------------------------|
B|------------------------------------------------------------------------------------|
G|------------------------------------------------------------------------------------|
D|--------4-7-6-4-6--7/9-7-6-----------------4-7+-6-4-6--7/9-7-6------------11b-9b----|
A|-4-6-7---------------------6-7-------4-6-7----------------------7b-9b-11b-----------|
E|-------------------------------9-7--------------------------------------------------|
   ^ ^ ^  ^ ^ ^ ^ ^


---7----7----7----------7-12*---------------------7---7---7---------------------------------|
-----------7---6-8b-6-----------------------------------7----6-8b--6------------------------|
-9----9---------------6-------9--11-12/14-12b---9---9------------------6h7-9h10-12p11--9b---|
--------------------------------------------------------------------------------------------|
--------------------------------------------------------------------------------------------|
--------------------------------------------------------------------------------------------|


After Adlib:We do it in the dark...
e|--------------------------------------|
B|--------------------------------------| Repeat Until the songs fades out.Listen to the song
G|--------------------------------------| for timing...
D|-9999999-4444444-77777777-6666-4444---|
A|-7777777-2222222-77777777-4444-2222---|
E|-----------------55555555-------------|


10. I'M LIKE A LAWYER WITH THE WAY I'M ALWAYS TRYING TO GET YOU OFF (ME & YOU)
---------------------------------------------------------


Verse-
1.
Guitar1
|-1-1--x-x---|  -x-x-x-x--------|
|-2-2--1-1---|  -2-2-2-2--------|
|-3-3--2-2---|  -3-3-3-3--------|
|-3-3--3-3---|3x-4-4-4-4--------|
|-1-1--3-3---|  -4-4-4-4--------|
|------1-1---|  -2-2-2-2--------|



  2.

 Guitar1
|-1-1--x-x---|  -x-x-x-x--------|
|-2-2--1-1---|  -2-2-2-2--------|
|-3-3--2-2---|  -3-3-3-3--------|
|-3-3--3-3---|3x-4-4-4-4--------|
|-1-1--3-3---|  -4-4-4-4--------|
|------1-1---|  -2-2-2-2--------|



  Guitar2

|-xx-666-xx-6x---xx-666-xx-6x---xx-666-xx-6x-xxxx-x-6---|
|-xx-666-xx-66---xx-666-xx-66---xx-666-xx-66-6666-x-6---|
|-xx-666-xx-66---xx-666-xx-66---xx-666-xx-66-6666-x-6---|
|-------------------------------------------------------|
|-------------------------------------------------------|
|-------------------------------------------------------|





  Refrain-
Guitar1
|-x-x--1-1---|  -x-x-x-x--x-x-x-x---|
|-1-1--2-2---|  -4-4-4-4--6-6-6-6---|
|-2-2--3-3---|  -5-5-5-5--6-6-6-6---|
|-3-3--3-3---|2x-6-6-6-6--6-6-6-6---|
|-3-3--1-1---|  -6-6-6-6--4-4-4-4---|
|-1-1--------|  -4-4-4-4------------|



Guitar2
|----|-xx-666-66-6xx-x-x----|
|----|-xx-666-66-666-x-x----|
|----|-xx-666-96-666-x-x----|
|----|----------------------|
|----|----------------------|
|----|----------------------|



pre chorus-

Guitar1





|--------------------------------------------|
|--------------------------------------------|
|--------------------------------------------|
|-4-4-4-4-4-4-4-4--3-3-3-3-6-6-6-6-----------|
|-4-4-4-4-4-4-4-4--3-3-3-3-6-6-6-6-----------|
|-2-2-2-2-2-2-2-2--1-1-1-1-4-4-4-4-----------|
    * * * * * * *  * * * *            
                            

  Guitar2
|--------------------------------------------|
|--------------------------------------------|
|--------------------------------------------|
|--------------------------------------------|
|---4-4-4-4-4-4-4--3-3-3-3-6-6-6-6-----------|
|---2-2-2-2-2-2-2--1-1-1-1-4-4-4-4-----------|
    * * * * * * *  * * * *     

  

Chorus-
Guitar1 
|------------------------------------|--------------------------------|
|------------------------------------|--------------------------------|
|-66666666---------------------------|-3333333-66666666---------------|
|-66666666-88888888-4444444-4444444---|-3333333-66666666-4444444--6~--|
|-44444444-88888888-4444444-4444444--|-1111111-44444444--4444444--6~--|
|----------66666666-2222222-2222222--|-------------------2222222--4~--|

  

Guitar2
|------------------------------------|-----------------------------------------------|
|------------------------------------|-----------------14^-13-11---------------------|
|------------------------------------|---------------------------13-11-10----10--10~-|
|-66666666---------------------------|-3333333-66666666-------------------13---------|
|-44444444-88888888-4444444-4444444--|-1111111-44444444------------------------------|
|----------66666666-2222222-2222222--|-----------------------------------------------|


Repeat Verse.refrain

  

Chorus-

Guitar1
|------------------------------------|------------------------------------|
|------------------------------------|------------------------------------|
|-66666666---------------------------|-3333333-66666666-------------------|
|-66666666-88888888-4444444----------|-3333333-66666666--4444444444444----|
|-44444444-88888888-4444444-4444444--|-1111111-44444444--4444444444444----|
|----------66666666-2222222-2222222--|-------------------2222222222222----|

  


|------------------------------------|-----------------------------------------------|
|------------------------------------|-----------------14^-13-11---------------------|
|------------------------------------|---------------------------13-11-10----10--10~-|
|-66666666---------------------------|-3333333-66666666-------------------13---------|
|-44444444-88888888-4444444-4444444--|-1111111-44444444------------------------------|
|----------66666666-2222222-2222222--|-----------------------------------------------|


Bridge-
Guitar1
|----------------------------------|-----------------------------------|
|----------------------------------|-----------------------------------|
|-3333333----------6666666---------|-----------------------------------|
|-3333333-4444444--6666666-3333333-|-8888888-44444444--6666666-6666666-|
|-1111111-4444444--4444444-3333333-|-8888888-44444444--6666666-6666666-|
|---------2222222-------- --1111111-|-6666666-22222222--4444444-4444444-|



Guitar2
|------4-----4-----4------4-----4--|-----4-----4-----4------4-----4----|
|----6-----6-----6------6-----6----|---6-----6-----6------6-----6------|
|--6-----6-----6------6-----6------|-6-----6-----6------6-----6--------|
|----------------------------------|-----------------------------------|
|----------------------------------|-----------------------------------|

|----------------------------------|-----------------------------------|

  

Chorus3/outro-

  Guitar1
me and you...       if i...
|------------------------------------|------------------------------------|
|------------------------------------|------------------------------------|
|-6~---------------------------------|-3333333-66666666-------------------|
|-6~----------------4444444-4444444--|-3333333-66666666--4444444444444----|
|-4~----------------4444444-4444444--|-1111111-44444444--4444444444444----|
|-------------------2222222-2222222--|-------------------2222222222222----|
  

|------------------------------------|------------------------------------|
|------------------------------------|------------------------------------|
|-66666666---------------------------|-3333333-66666666-------------------|
|-66666666-88888888-4444444-4444444--|-3333333-66666666--4444444~---------|
|-44444444-88888888-4444444-4444444--|-1111111-44444444--4444444~---------|
|----------66666666-2222222-2222222--|-------------------2222222~---------|

  

Guitar2
                       if i.....
|------------------------------------|
|------------------------------------|
|------------------------------------|
|------------------------------------|
|-------------------4444444-4444444--|
|-------------------2222222-2222222--|

-----------------------------------------------|
-----------------14^-13-11---------------------|
---------------------------13-11-10----10--10~-|
-3333333-66666666-------------------13---------|
-1111111-44444444------------------------------|
-----------------------------------------------|


|------------------------------------|
|------------------------------------|
|------------------------------------|
|-66666666---------------------------|
|-44444444-88888888-4444444-4444444--|
|----------66666666-2222222-2222222--|


-----------------------------------------------|
-----------------14^-13-11---------------------|
---------------------------13-11-10----10--10~-|
-3333333-66666666-------------------13---------|
-1111111-44444444------------------------------|
-----------------------------------------------|

11. BEAT IT (FEAT. JOHN MAYER)
--------------------------------------------------

^v^ = bend up and down etc
! = pinched harmonic (Squealie)
~ = vibrato
* = Palm muted
x = Scratch
p = pull off
h = hammer on

===== Intro =====

Guitar 1
e--0-----------------------x-x-x-x-x-x-x-----------Bend a few notes in this main riff,---------|
B--0------DRUMS------------x-x-x-x-x-x-x------------------------sounds cool!-------------------|
G--0------------START------x-x-x-x-x-x-x-------------------------------------------------------|
D--0-----------------------x-x-x-x-x-x-x----------------3-----------------------3--------------|
A--0-----------------------x-x-x-x-x-x-x--------------0---5-5---/7-5-3-3------0---5-5--/7-5-3--|
D--0-----------------------x-x-x-x-x-x-x----/12\--0-3---------------------0-3------------------|


e-----------------------------------------------------------------|
B-----------------------------------------------------------------|
G--5--5--------------------------------------------------5--5--5--|
D--5--5--------3-----------------------3-----------------5--5--5--|
A--3--3------0---5-5---/7-5-3-3------0---5-5---/7-5-3----3--3--3--|
D--------0-3---------------------0-3------------------------------|

===== Verse =====


Guitar 1 - On the second through this chord progression, don’t palm mute.

e--------------------------------------------------------------------------|
B-------------------------------------------------------------------x-x-x--| X 2
G----------5-5-5-----------5-5-5---3-3-3---5-5-5------------------5-x-x-x--|
D--0-0-0---5-5-5---0-0-0---5-5-5---3-3-3---5-5-5---3-3-3---0-0-0--5-x-x-x--|
A--0-0-0---3-3-3---0-0-0---3-3-3---1-1-1---3-3-3---3-3-3---0-0-0--3-x-x-x--|
D--0-0-0-----------0-0-0---------------------------3-3-3---0-0-0----x-x-x--|
   * * *   * * *   * * *   * * *   * * *   * * *   * * *   * * *

Guitar 2 - Start playing the second time over Guitar 1’s chord progression.

e-------------------|
B-------------------| X A lot, listen to the song to know how many times.
G--7--10--7------7--|
D------------10-----|
A-------------------|
D-------------------|

===== Chorus =====

Guitar 1

e--------------------------|           e------------|
B--------------------------|           B------------|
G--------------------------| X 6 Then: G--5--5--5\--|
D--------3-----------------|           D--5--5--5\--|
A------0---5-5---/7-5-3-3--|           A--3--3--3\--|
D--0-3---------------------|           D------------|


Guitar 2 - They play this bit live but you can’t here it very well on the recording.

This only takes as long as the main riff played once, play it as many times as the main riff.

e----------------------------------------------------------|           e------------|
B----------------------------------------------------------|           B------------|
G--14-14-14-14-14-14-14-14-14-15--12-12-12-12-12-12-12-12--| X 6 Then: G--5--5--5\--|
D--x--x--x--x--x--x--x--x--x--x---x--x--x--x--x--x--x--x---|           D--5--5--5\--|
A--12-12-12-12-12-12-12-12-12-13--10-10-10-10-10-10-10-10--|           A--3--3--3\--|
D----------------------------------------------------------|           D------------|


===== Verse =====


Guitar 1 - On the second through this chord progression, don’t palm mute.

e--------------------------------------------------------------------------|
B-------------------------------------------------------------------x-x-x--| X 2
G----------5-5-5-----------5-5-5---3-3-3---5-5-5------------------5-x-x-x--|
D--0-0-0---5-5-5---0-0-0---5-5-5---3-3-3---5-5-5---3-3-3---0-0-0--5-x-x-x--|
A--0-0-0---3-3-3---0-0-0---3-3-3---1-1-1---3-3-3---3-3-3---0-0-0--3-x-x-x--|
D--0-0-0-----------0-0-0---------------------------3-3-3---0-0-0----x-x-x--|
   * * *   * * *   * * *   * * *   * * *   * * *   * * *   * * *

Guitar 2 - Start playing the second time over Guitar 1’s chord progression.

e-------------------|
B-------------------| X A lot, listen to the song to know how many times.
G--7--10--7------7--|
D------------10-----|
A-------------------|
D-------------------|


===== Chorus =====

Guitar 1

e--------------------------|           e------------|
B--------------------------|           B------------|
G--------------------------| X 6 Then: G--5--5--5\--|
D--------3-----------------|           D--5--5--5\--|
A------0---5-5---/7-5-3-3--|           A--3--3--3\--|
D--0-3---------------------|           D------------|


Guitar 2 - They play this bit live but you can’t here it very well on the recording.

This only takes as long as the main riff played once, play it as many times as the main riff.

e----------------------------------------------------------|           e------------|
B----------------------------------------------------------|           B------------|
G--14-14-14-14-14-14-14-14-14-15--12-12-12-12-12-12-12-12--| X 6 Then: G--5--5--5\--|
D--x--x--x--x--x--x--x--x--x--x---x--x--x--x--x--x--x--x---|           D--5--5--5\--|
A--12-12-12-12-12-12-12-12-12-13--10-10-10-10-10-10-10-10--|           A--3--3--3\--|
D----------------------------------------------------------|           D------------|

===== Break Down =====


Guitar 1

e---------------------------------------------------------------------------|
B---------------------------------------------------------------------------|
G---------------------------------------------------------------------------|
D--0-0-0--0-0-0------0-0-0--0-0-0---------0-0-0--0-0-0--------0-0-0--0-0-0--|
A--0-0-0--0-0-0------0-0-0--0-0-0---------0-0-0--0-0-0--------0-0-0--0-0-0--|
D--0-0-0--0-0-0------0-0-0--0-0-0---------0-0-0--0-0-0--------0-0-0--0-0-0--|

Guitar 2

e---------------------------------------------------------------------------|
B---------------------------------------------------------------------------|
G---------------------------------------------------------------------------|
D--0-0-0--0-0-0------0-0-0--0-0-0---------0-0-0--0-0-0---7!---0-0-0--0-0-0--|
A--0-0-0--0-0-0------0-0-0--0-0-0--3~-5---0-0-0--0-0-0--------0-0-0--0-0-0--|
D--0-0-0--0-0-0------0-0-0--0-0-0---------0-0-0--0-0-0--------0-0-0--0-0-0--|

Guitar 1






e--------10-10------10-10------10-10------10-10------10-10------10-10--------------------------|
B--------10-10------10-10------10-10------10-10------10-10------10-10--------------------------|
G--------10-10------10-10------10-10------10-10------10-10------10-10--------------------------|
D--------------12~--------12~--------12~--------12~--------12~--------12~--0-0-0--0-0-0--------|
A--------------------------------------------------------------------------0-0-0--0-0-0--------|
D--------------------------------------------------------------------------0-0-0--0-0-0--------|


Guitar 2

e----------------------------------------------------------------------------------------------|
B----------------------------------------------------------------------------------------------|
G----------------------------------------------------------------------------------------------|
D--------0-0-0------0-0-0------0-0-0------0-0-0------0-0-0------0-0-0------0-0-0--0-0-0--------|
A--3~-5--0-0-0------0-0-0------0-0-0------0-0-0-3~-5-0-0-0------0-0-0------0-0-0--0-0-0--------|
D--------0-0-0------0-0-0------0-0-0------0-0-0------0-0-0------0-0-0------0-0-0--0-0-0--------|


===== Solo =====

John Mayer plays the solo in this song; I was surprised because it’s not really his 
of music, but he is such a good guitarist and has made it hard for me to tab it out.


e-----------------------------------------------------------------------------------------|
B------------------------------------13p10------------------------------------------------|
G-----------------------12^14--12^14-------12^14-10-12^14v12p10---------------------------|
D-----------10h12-12/15-------------------------------------------------------------------|
A--12--10~--------------------------------------------------------------------------------|
D-----------------------------------------------------------------------------------------|

That's all i'm up to, i'm certain that all of the above is correct.


12. I DON'T CARE
---------------------------------

Tuning: Standard

Intro/Verses
e|----------------------------------------------|
B|----------------------------------------------|
G|----------------------------------------------|
D|---4--4---4-4-4-4-4------4--4---4-4-4-4-4-----|
A|----------0-2-0-2-0-------------0-2-0-2-0-----|
E|-2------------------2--2------------------2---|

Small riff in verse
e|----------------------------|
B|----------------------------|
G|----------------------------|
D|----------------------------|
A|-555555444444222222---------|
E|-------------------222222---|

Chorus
e|--------------------------------------------------------------------|
B|--------------------------------------------------------------------|
G|-----------------7-7-7-7-4-4-4-4-7-7-7-7-4-4-4-4--------------------|
D|-4-4-4-4-7-7-7-7-7-7-7-7-4-4-4-4-7-7-7-7-4-4-4-4---4--4--4-4-4-4-4--|
A|-4-4-4-4-7-7-7-7-5-5-5-5-2-2-2-2-5-5-5-5-2-2-2-2---------0-2-0-2-0--|
E|-2-2-2-2-5-5-5-5---------------------------------2------------------|x2

End 2nd and 3rd Chorus' with..
e|-----|
B|-----|
G|-----|
D|-4~--|
A|-4~--|
E|-2~--|




| /  slide up
| \  slide down
| h  hammer-on
| p  pull-off
| ~  vibrato
| +  harmonic
| x  Mute note


13. AMERICA'S SUITEHEARTS
----------------------------------------------

Gtr.Legends:
/ - slide
p - pull-off
h - hammer-on
. - palm muting
~ - let it ring

Gtr.Tuning:(Alternative)Drop D

Intro:
e|--------------------------------|
B|--------------------------------|
G|-666666--77777--99999--101010---|
D|-777777--77777--77777--777777---|
A|-777777--77777--77777--777777---|
D|--------------------------------|

Verse 1:You could have...
Gtr.1:
e|---2-xx-2-xx-2-xx-2---2-xx-2-xx-2-xx-2---2-xx-2-xx-2-xx-2---2-xx-2-xx-2-xx-2---|
B|---3-xx-3-xx-3-xx-3---2-xx-2-xx-2-xx-2---3-xx-3-xx-3-xx-3---2-xx-2-xx-2-xx-2---|
G|---2-xx-2-xx-2-xx-2---2-xx-2-xx-2-xx-2---4-xx-4-xx-4-xx-4---2-xx-2-xx-2-xx-2---|
D|-----------------------------------------4-xx-4-xx-4-xx-4----------------------|
A|-0-----------------------------------------------------------------------------|
D|-0-----------------------------------------------------------------------------|
   .

Gtr.2:
e|------------------------------------------------------------------------------------|
B|------------55--77------77-----77--77---------------55--77-------77------77--77-----|
G|--------------------------------------------------------------------------------7---|
D|---44-7777---------7-------77---------7----44-7777----------7-------77--------------|
A|-0----------------------------------------------------------------------------------|
D|-0----------------------------------------------------------------------------------|
   .

e|----------------------------------------------------------------------------------|
B|----------55--77------77-----77--77---------------55--77-------77------77--77-----|
G|------------------------------------------------------------------------------7---|
D|-44-7777---------7-------77---------7----44-7777----------7-------77--------------|
A|----------------------------------------------------------------------------------|
D|----------------------------------------------------------------------------------|

Pre-Chorus:But I don't know much...
Gtr.1 Enters
e|---------------------------------------------------------------  ------------|
B|---------------------------------------------------------------  ------------|
G|-----------------44-444-44-444-------------------44-444-44-444-  ------------|
D|-22-222-22-222---44-444-44-444---22-222-22-222---44-444-22-444-  -5-----5~---|
A|-22-222-22-222---22-222-22-222---22-222-22-222---22-222-22-222-  -5-55--5~---|
D|-22-222-22-222-------------------22-222-22-222-----------------  -5-55--5~---|
   .. ... .. ...   .. ... .. ...   .. ... .. ...   .. ... .. ...      ..

Gtr.2
e|-----------------------------------------5-----------5-5---      -----------------|
B|-5-3-5-7---5-3-5-7-5-3---------5-3----------5-3------------      -3-5-7-7/10-7~---|
G|------------------------4-2---------4-2---------4---------- 2x   -----------------|
D|----------------------------------------------------------- Then -----------------|
A|-----------------------------------------------------------      -----------------|
D|-----------------------------------------------------------      -----------------|

Chorus:Lets hear it for America's suithearts...
e|------------------------------------------------------|
B|------------------------------------------------------|
G|----7-----7-----7-----7-----7----7--------------------|
D|-00-x--00-x--99-x--99-x--55-x-55-x---9~--7~--5~--7~---|
A|-00-5--00-5--99-5--99-5--55-5-55-5---9~--7~--5~--7~---|
D|-00----00----99----99----55---55-----9~--7~--5~--7~---|

--------------------------------------------------------|
--------------------------------------------------------|
----7-----7-----7-----7/9-----7----7--------------------|
-00-x--00-x--99-x--99-x-x--55-x-55-x---9~--7~--5~--7~---|
-00-5--00-5--99-5--99-5/7--55-5-55-5---9~--7~--5~--7~---|
-00----00----99----99------55---55-----9~--7~--5~--7~---|

Verse 2:You can bow and pretend...
Gtr.1:
e|----2-xx-2-xx-2-xx-2---2-xx-2-xx-2-xx-2--------2-xx-2-xx-2-xx-2---|
B|----3-xx-3-xx-3-xx-3---2-xx-2-xx-2-xx-2--------2-xx-2-xx-2-xx-2---|
G|----2-xx-2-xx-2-xx-2---2-xx-2-xx-2-xx-2--------2-xx-2-xx-2-xx-2---|
D|------------------------------------------------------------------|
A|-0----------------------------------------------------------------|
D|-0--------------------------------------Pause---------------------|

-2-xx-2-xx-2-xx-2---2-xx-2-xx-2-xx-2---2-xx-2-xx-2-xx-2---2-xx-2-xx-2-xx-2---|
-3-xx-3-xx-3-xx-3---2-xx-2-xx-2-xx-2---3-xx-3-xx-3-xx-3---2-xx-2-xx-2-xx-2---|
-2-xx-2-xx-2-xx-2---2-xx-2-xx-2-xx-2---4-xx-4-xx-4-xx-4---2-xx-2-xx-2-xx-2---|
---------------------------------------4-xx-4-xx-4-xx-4----------------------|
-----------------------------------------------------------------------------|
-----------------------------------------------------------------------------|

Gtr.2:Play Verse 1

Repeat Pre-Chorus:

Repeat Chorus:

Bridge:You could have knocked...
Gtr.1
e|----------------------|
B|----------------------|
G|----------------------|
D|-77-77--7---77-77-7---|
A|-77-77--7---77-77-7---|
D|-77-77--7---77-77-7---|
   .. ..  .   .. .. .

Gtr.2                             You could have...
e|---------------------------------------------------------|
B|---------------------------------------------------------|
G|-666666--77777--66666--777777---9999-101010--6666-7777---|
D|-777777--77777--77777--777777---7777-777777--7777-7777---|
A|-777777--77777--77777--777777---7777-777777--7777-7777---|
D|---------------------------------------------------------|

Repeat Chorus:

e|------------------------------------------------------------------|
B|------------------------------------------------------------------|
G|----7-----7-----7-----7h9-----7----7------------------------------|
D|-00-x--00-x--99-x--99-x-x--55-x-55-x---9~--7~--5~--7~--000-0000---|
A|-00-5--00-5--99-5--99-5h7--55-5-55-5---9~--7~--5~--7~--000-0000---|
D|-00----00----99----99------55---55-----9~--7~--5~--7~--000-0000---|
                                                         ... ....

Gtr.2 Enters:
e|----------------------------------------------------------------------------------------------|
B|-3h5-3h5-3~---3h5-3~--3h5-3h5-3--3h5-3h5--------3h5-3h5-3--3h5-3h5-3-----7p5-7p5-7p5\3/5-3~---|
G|------------------------------------------7/9-------------------------------------------------|
D|------------------------------------------x-x-------------------------------------------------|
A|------------------------------------------5/7-------------------------------------------------|
D|----------------------------------------------------------------------------------------------|


14. WHAT A CATCH, DONNIE
------------------------------------------------

Standard Tuning.

Legend:

T=Play E string with thumb
x=Dead note
/or\=Slide
g=Grace note (quick slide or hammer-on)

------------------------------------------------------------------
Intro

Piano tabbed for guitar
    
   "I've got troubled thoughts..."                               
e|-----------------------0~--0----------------------------------|
B|--2~-2---0~-0---2~-2---0~--0---7~--7---5~-5---2~-2---0-0-0-0--|
G|--2~-2---1~-1---2~-2---1~--1---7~--7---6~-6---2~-2---1-1-1-1--|
D|--2~-2---2~-2---2~-2---2~--2---7~--7---7~-7---2~-2---2-2-2-2--|
A|--0~---0-0~---0-x------2~--2---5~----5-4~---4-x------0-0-0-0--|
E|----------------2~---2-0~----0----------------2~---2----------|
                  T    T                        T    T
-----------------------------------------------------------------
Interlude

Guitar 1 Distortion

e|-----------------|
B|--5/10-10-10-10--|
G|--x--x--x--x--x--| Play as much as needed.
D|--2/-7--7--7--7--|
A|-----------------|
E|-----------------|
------------------------------------------------------------------

Verse
 
"You'll never catch us..."
e|--------------------------------------------------|
B|--14~-\12~-\10~-1010-12-14------------------------|
G|---x----x----x---x-x--x--x-9-9g11~--9~--11--13~\--|
D|--11~-\-9~-\-7~--7-7--9-11-x-x--x---x----x---x----|
A|---------------------------7-7g-9~--7~---9--11~\--|
E|--------------------------------------------------|

-------------------------------------------------------------------

Pre-Chorus

"...back. Yeah..."         "mrs. Flack..."
e|------------------------|-------------------------|
B|------------------------|-------------------------|
G|--------------------9~--|--9g11~--9~~~\-----------|
D|-------------9-9g11-----|-------------------------|
A|--9-11-11g13------------|-------------------------|
E|------------------------|----------------5-4-3-2--|

-------------------------------------------------------------------

Chorus

Guitar 1
   "I've Got Troubled..."
e|------------------------------------|
B|----------------------1-------------|
G|--------7--5-------3--2-----5-------|
D|--3--2--7--5----5--3--3--5--5---3---|   x2
A|--3--3--5--3--35-0-1--0--5--3-35-0--|
E|--1--0--5--3-------------3--3-------|


Guitar 2 Distortion
  "What a Catch"
e|--------------|
B|--------------|
G|--------------|
D|----33-3577~--|
A|--35----------|
E|--------------|

Guitar 3 Distortion

e|--------------|
B|---------03~--|
G|-------02-----|
D|--------------|
A|--------------|
E|--------------|

--------------------------------------------------------------

Interlude

Guitar 1
"You.....whoa..."
e|------|
B|------|
G|--2~--|
D|--2~--|
A|--0~--|
E|------|

---------------------------------------------------------------

Verse

Guitar 1

"They say the captain..."
e|-------------------------------------|
B|--14~--14\10\7~-------------9h10h9~--|
G|---x-------------9~--9g11~-----------|
D|--12~--------------------------------|
A|-------------------------------------|
E|-------------------------------------|

---------------------------------------------------------------

Pre-Chorus

"...back. Yeah..."         "mrs. Flack..."
e|------------------------|-------------------------|
B|------------------------|-------------------------|
G|--------------------9~--|--9g11~--9~~~\-----------|
D|-------------9-9g11-----|-------------------------|
A|--9-11-11g13------------|-------------------------|
E|------------------------|----------------5-4-3-2--|


Repeat Chorus.

-------------------------------------------------------

Bridge

Gtr 1
     "Na,na..."  "What a catch, what a catch..."
e|----------------------|-----------------------|
B|----------------------|-----------------------|
G|----------------------|-----7-----------------|
D|--7--5-----3--2--3-4--|--7--7--2--4--5--4--3--|
A|--7--5--5--3--3--3-4--|--4--5--3--4--5--4--3--|
E|--5--3--2--1--0--1-2--|--------0--2--3--2--1--|

-------------------------------------------------------

Interlude
  "I will never end up like him..."
e|------|
B|------|
G|--2~--|
D|--2~--|
A|--0~--|
E|------|

Chorus until the end and play this final chord

---------------------------------------------------
Outro
"I've got troubled thoughts..."
e|-----|
B|-----|
G|-----|
D|--3--|
A|--3--|
E|--1--|

15. ALPHA DOG
-----------------------------------

Tuning: DADGBE

Intro Riff: 

Guitar 1: (Tremolo Picked)
							First Time Only
e|--------------------------------------------------------------|-------------------|
B|------------------10//----------------10//---------------10//-|11-10-11-10--------|
G|--------10//-12//-----------10//-12//----------10//-12//------|------------12-10--|
D|---12//----------------10//----------------8//----------------|-------------------|
A|--------------------------------------------------------------|-------------------|
D|--------------------------------------------------------------|-------------------| x2

Guitar 3: (Eight-note strumming)
						  Last Note
e|------------------------------|-------------|
B|------------------------------|-------------|
G|------------------------------|-------------|
D|--12----10----8----7----------|--7~---------|
A|--12----10----8----7----------|--7~---------|
D|--12----10----8----7----------|--7~---------| x2

Verse: "Clap until your hands hurt, standing ovations or 'boos'".

Guitar 1:

e|----------------------------------------------------------------------|
B|--------------------13--11-10--------------------10~------------------|
G|-10-------10-10-9-------------12-10-------10-12-------10p7h10p7-------|
D|----10h12---------------------------10h12-----------------------------|
A|----------------------------------------------------------------------|
D|----------------------------------------------------------------------| x4

Guitar 2:

e|----------------------------------------------------------------------|
B|----------------------------------------------------------------------|
G|-10-------10-10-9---12-10-9---------------10-12-----------------------|
D|----10h12-------------------10--12-10-12---------12p10h12p10----------|
A|----------------------------------------------------------------------|
D|----------------------------------------------------------------------| x4

Guitar 3: (Eighth-note strumming)

e|------------------------------|
B|------------------------------|
G|------------------------------|
D|--12----10----8----7----------|
A|--12----10----8----7----------|
D|--12----10----8----7----------| x4

Pre-Chorus: "forever..."

Guitar 3: (Acoustic)
			   First Ending   Second Ending
e|---5----x-------|----5---------|---xxxx---|
B|---5----x-------|----6---------|---xxxx---|
G|---5----5-------|----7---------|---xxxx---|
D|---7----5-------|----7---------|---xxxx---|
A|---7----5-------|----5---------|---xxxx---|
D|---7----5-------|----x---------|---xxxx---| x2

Chorus: "Alpha Dog and Oh-Oh-Omegalomaniac..."

Guitar 3: 
				  First and Third Ending
e|--------------------|--------------------|
B|--------------------|--------------------|
G|--------------------|--------------------|
D|--0--10--7--8-------|---8-7-5-3----------|
A|--0--10--7--8-------|---8-7-5-3----------|
D|--0--10--7--8-------|---8-7-5-3----------| x4

Intro Riff: 

Guitar 1: (Tremolo Picked)
								First Time Only
e|--------------------------------------------------------------|-------------------|
B|------------------10//----------------10//---------------10//-|11-10-11-10--------|
G|--------10//-12//-----------10//-12//----------10//-12//------|------------12-10--|
D|---12//----------------10//----------------8//----------------|-------------------|
A|--------------------------------------------------------------|-------------------|
D|--------------------------------------------------------------|-------------------| x2

Guitar 3: (Eight-note strumming)
						  Last Note
e|------------------------------|-------------|
B|------------------------------|-------------|
G|------------------------------|-------------|
D|--12----10----8----7----------|--7~---------|
A|--12----10----8----7----------|--7~---------|
D|--12----10----8----7----------|--7~---------|

Verse: "We must have the best coast, tell the best jokes..."

Guitar 1:

e|----------------------------------------------------------------------|
B|--------------------13--11-10--------------------10~------------------|
G|-10-------10-10-9-------------12-10-------10-12-------10p7h10p7-------|
D|----10h12---------------------------10h12-----------------------------|
A|----------------------------------------------------------------------|
D|----------------------------------------------------------------------| x2

Guitar 2:

e|----------------------------------------------------------------------|
B|----------------------------------------------------------------------|
G|-10-------10-10-9---12-10-9---------------10-12-----------------------|
D|----10h12-------------------10--12-10-12---------12p10h12p10----------|
A|----------------------------------------------------------------------|
D|----------------------------------------------------------------------| x2

Guitar 3: (Eighth-note strumming)

e|------------------------------|
B|------------------------------|
G|------------------------------|
D|--12----10----8----7----------|
A|--12----10----8----7----------|
D|--12----10----8----7----------| x2

Pre-Chorus: "Forever..."

Guitar 3: (Acoustic)
			   First Ending   Second Ending
e|---5----x-------|----5---------|---xxxx---|
B|---5----x-------|----6---------|---xxxx---|
G|---5----5-------|----7---------|---xxxx---|
D|---7----5-------|----7---------|---xxxx---|
A|---7----5-------|----5---------|---xxxx---|
D|---7----5-------|----x---------|---xxxx---| x2

Chorus: "Alpha Dog and Oh, Oh, Omegalomaniac"

Guitar 3: 
				  First and Third Ending
e|--------------------|--------------------|
B|--------------------|--------------------|
G|--------------------|--------------------|
D|--0--10--7--8-------|---8-7-5-3----------|
A|--0--10--7--8-------|---8-7-5-3----------|
D|--0--10--7--8-------|---8-7-5-3----------| x4

Bridge: "You're not the first, or the last..."

Guitar 3: (Acoustic)

e|---5--x--7--x--8---x--7-7--x--7-7--x--5-5--x--5-5--x--5-5--x--5-5--x------|
B|---6--x--8--x--10--x--8-8--x--8-8--x--6-6--x--6-6--x--6-6--x--6-6--x------|
G|---7--x--9--x--10--x--9-9--x--9-9--x--7-7--x--7-7--x--7-7--x--7-7--x------|
D|---7--x--9--x--10--x--9-9--x--9-9--x--7-7--x--7-7--x--7-7--x--7-7--x------|
A|---5--x--7--x--8---x--7-7--x--7-7--x--5-5--x--5-5--x--5-5--x--5-5--x------|
D|------x-----x------x-------x-------x-------x-------x-------x-------x------|

e|---5--x--3--x--1---x--1-1--x--1-1--x--1-1--x--1-1--x--1-1--x--3-3--x------|
B|---6--x--5--x--3---x--3-3--x--3-3--x--3-3--x--3-3--x--3-3--x--5-5--x------|
G|---7--x--5--x--3---x--3-3--x--3-3--x--3-3--x--3-3--x--3-3--x--5-5--x------|
D|---7--x--5--x--3---x--3-3--x--3-3--x--3-3--x--3-3--x--3-3--x--5-5--x------|
A|---5--x--3--x--1---x--1-1--x--1-1--x--1-1--x--1-1--x--1-1--x--3-3--x------|
D|------x-----x------x-------x-------x-------x-------x-------x-------x------|

e|---5--x--3--x--1---x--1-1--x--3-3--x--3-3--x--1-1--x--1-1--x--3-3--x------|
B|---6--x--5--x--3---x--3-3--x--5-5--x--5-5--x--3-3--x--3-3--x--5-5--x------|
G|---7--x--5--x--3---x--3-3--x--5-5--x--5-5--x--3-3--x--3-3--x--5-5--x------|
D|---7--x--5--x--3---x--3-3--x--5-5--x--5-5--x--3-3--x--3-3--x--5-5--x------|
A|---5--x--3--x--1---x--1-1--x--3-3--x--3-3--x--1-1--x--1-1--x--3-3--x------|
D|------x-----x------x-------x-------x-------x-------x-------x-------x------|

e|---5--x--3--x--1---x--1-1--x--1-1--x--1-1--x--1-1--x--1-1--x--3-3--x------|
B|---6--x--5--x--3---x--3-3--x--3-3--x--3-3--x--3-3--x--3-3--x--5-5--x------|
G|---7--x--5--x--3---x--3-3--x--3-3--x--3-3--x--3-3--x--3-3--x--5-5--x------|
D|---7--x--5--x--3---x--3-3--x--3-3--x--3-3--x--3-3--x--3-3--x--5-5--x------|
A|---5--x--3--x--1---x--1-1--x--1-1--x--1-1--x--1-1--x--1-1--x--3-3--x------|
D|------x-----x------x-------x-------x-------x-------x-------x-------x------|

Chorus:

Guitar 3: 
				  First and Third Ending
e|--------------------|--------------------|
B|--------------------|--------------------|
G|--------------------|--------------------|
D|--0--10--7--8-------|---8-7-5-3----------|
A|--0--10--7--8-------|---8-7-5-3----------|
D|--0--10--7--8-------|---8-7-5-3----------| x4

Intro Riff: 

Guitar 1: (Tremolo Picked)
									First Time Only
e|--------------------------------------------------------------|-------------------|
B|------------------10//----------------10//---------------10//-|11-10-11-10--------|
G|--------10//-12//-----------10//-12//----------10//-12//------|------------12-10--|
D|---12//----------------10//----------------8//----------------|-------------------|
A|--------------------------------------------------------------|-------------------|
D|--------------------------------------------------------------|-------------------| x2

Guitar 3: (Eight-note strumming)
						  Last Note
e|------------------------------|-------------|
B|------------------------------|-------------|
G|------------------------------|-------------|
D|--12----10----8----7----------|--7~---------|
A|--12----10----8----7----------|--7~---------|
D|--12----10----8----7----------|--7~---------|


16. FROM NOW ON WE ARE ENEMIES
----------------------------------------

D Em C
D Em C

Em                                  G
'I just want to be better than your, your head's only medicine'
Em                                  G
'I just want to be better than your, your head's only medicine'
Em
  A downward spiral just a pirouette
G
  Getting worse til there's n-n-nothing left
Em                                   G
What good comes of something when I'm just the ghost of nothing, nothing?


G                        G/f#
'I'm just the man on the balcony singing':
C
"Nobody will ever remember me,"
Em       D           C
Rejoice, rejoice and fall to your knees

N.C.
(for A)
D                     Em
Lunatic of a god or a god of a lunatic?
C                   D
Oh, their faces are dancing
        Em
They're dancing til
C  
  Til they can't stand it
D                    Em
A composer but never composed
C
Singing the symphonies of the overdosed
D                    Em
A composer but never composed
Em
'Singing':
C                 Am
"I only want what I can't have"
C                 Am
"I only want what I can't have"



Em
Heralded as a king before I had a birthday
G
 With double (double) digits (digits)
Em                       G
Fit the crown to my head but I was only a kid
G
Yeah I was only a kid.



G                        G/f#
'I'm just the man on the balcony singing':
C
"Nobody will ever remember me,"
Em       D           C
Rejoice, rejoice and fall to your knees


D                     Em
Lunatic of a god or a god of a lunatic?
C                   D
Oh, their faces are dancing
        Em
They're dancing til
C  

  Til they can't stand it
D                    Em
A composer but never composed
C
Singing the symphonies of the overdosed
D                    Em
A composer but never composed
Em
'Singing':
C                 Am
"I only want what I can't have"
C                 Am
"I only want what I can't have"
C                 Am
"I only want what I can't have"
C                 Am
"I only want what I can't I can't have"


Em                                  G
  Just want to be better than your, your head's only medicine'
Em                                  G
'I just want to be better than your, your head's only medicine'


G                        G/f#
'I'm just the man on the balcony singing':
C
"Nobody will ever remember me,"
Em       D           C
Rejoice, rejoice and fall to your knees
G                        G/f#
'I'm just the man on the balcony singing':
C
"Nobody will ever remember me,"
Em       D           C
Rejoice, rejoice and fall to your knees




D                     Em
Lunatic of a god or a god of a lunatic?
C                   D
Oh, their faces are dancing
        Em
They're dancing til
C  
  Til they can't stand it
D                    Em
A composer but never composed
C
Singing the symphonies of the overdosed
D                    Em
A composer but never composed
Em
'Singing':
C                 Am
"I only want what I can't have"
C                 Am
"I only want what I can't have"
C                 Am
"I only want what I can't have"
C                 Am              N.C.
"I only want what I can't I can't have"


17. YULE SHOOT YOUR EYE OUT
--------------------------------------------

intro (jingle bells)
e--------------------------------------------------------------
B-----4--2--0----5--4--0---------------------------------------
G--------------------------------------------------------------
D---4----------4-----------xhowever-many-times-i think its 8---
A--------------------------------------------------------------
E--------------------------------------------------------------

intro (guitar 2) fade in with first chords
e--0--0--0--0--------------------------------------------------
B--0--0--0--0--------------------------------------------------
G--4--6--x--1--------------------------------------------------
D--4--6--6--2--------------------------------------------------
A--2--4--6--2--------------------------------------------------
E--------4--0--------------------------------------------------

verse is same as intro and then

prechorus
...one awkward silience
e-----0--0-----0------0------------0~--0~----------------------
B-----0--0-----0------0------------0~--0~----------------------
G-----x--1-----x------1------------1~--0~----------------------
D--5--6--2--5--6--9/--2--x2--then--2~--2~----------------------
A--6--6--2--6--6--9/--2------------2~--2~----------------------
E--3--4--0--3--4--7/--0------------0~--0~----------------------

chorus
...dont come home for christmas
e--0-----0---------0-----0--0~--0~-----------------------------
B--0-----0---------0-----0--0~--0~-----------------------------
G--4--3--1---------4--3--1--1~--0~-----------------------------
D--4--4--2--4--x2--4--4--2--2~--2~-----------------------------
A--2--1--2--4------2--1--2--2~--2~-----------------------------
E--------0--2------------0--0~--0~-----------------------------

during chorus guitar 1 plays intro riff...

bridge (guitar 2) palm mute most of it
e--------------------------------------------------------------
B--------------------------------------------------------------
G------------------------------------------x3------------------
D------44---------44------44---11----22------------------------
A-2222----22-2222----------------------------------------------
E--------------------0000----0----00----00---------------------

e--------------------------------------------------------------
B--------------------------------------------------------------
G--------------------------------------------------------------
D------44---------44---------2------2------1-----1-------------
A-2222----22-2222----22----------------------------------------
E-----------------------3333---3333---3333---3333--3333--------

e--------------------------------------------------------------
B--------------------------------------------------------------
G--------------------------------------------------------------
D----------------------------5\--------------------------------
A------4------4------4-------4\--------------------------------
E-3333---3333---3333---3333--3\--------------------------------

guitar 1
e--------------------------------------------------------------
B-----2--------------------------------------------------------
G--4-----------------------------------------------------------
D--------play-that-however-many-time---------------------------
A--------------------------------------------------------------
E--------------------------------------------------------------

final chorus key change (guitar 2)
e------------------------1---1~--------------------------------
B------------------------1---1~--------------------------------
G--5--4------------5--4--2---1~--------------------------------
D--5--5--3--5-x2---5--5--3---3~-----repeat chorus--------------
A--3--2--3--5------3--2--3---3~--------------------------------
E--------1--3------------1---1~--------------------------------

key change guitar 1
e--------------------------------------------------------------
B-----5-----------6-5------------------------------------------
G--------7--5---------5----------------------------------------
D---5----------5-----------during final chorus and last few bars of song
A--------------------------------------------------------------
E--------------------------------------------------------------

last chord
e--------------------------------------------------------------
B--1~----------------------------------------------------------
G--0~----------------------------------------------------------
D--2~----------------------------------------------------------
A--3~--3\------------------------------------------------------
E--------------------------------------------------------------


18. GROWING UP
-----------------------------------------------------

Tuning: EADGBE

Intro (0:05)
Guitar 1
e|-----------------------------|
B|-----------------------------|
G|-----------------------------|
D|---7-7-7-7---5-5-5-5---5-5---|
A|---7-7-7-7---5-5-5-5---5-5---|
E|---5-5-5-5---3-3-3-3---3-3---|

Intro (0:07)
Guitar 1
e|------------------------------------------------|----------------------------|
B|------------------------------------------------|----------------------------|
G|-5~--------------9~-------------10~-------------|----------------------------|
D|-5~--------------9~-------------10~-------------|-7-7-7-7---5-5-5-5---5-5----|
A|-3~--------------7~--------------8~-------------|-7-7-7-7---5-5-5-5---5-5----|
E|------------------------------------------------|-5-5-5-5---3-3-3-3---3-3----|

Intro (0:07)
Guitar 2
e|------------------------------------------------|
B|------------------------------------------------|
G|----5-5--4--0~------5-5--4--0~------5-5--4--0~--|
D|------------------------------------------------|
A|------------------------------------------------|
E|------------------------------------------------|

Intro (0:14)
Guitar 1
e|------------------------------------------------|---------------------------------|
B|------------------------------------------------|---------------------------------|
G|-5~--------------9~-------------10~-------------|---------------------------------|
D|-5~--------------9~-------------10~-------------|-7-7-7-7---5-5-5-5---5-5-----3~--|
A|-3~--------------7~--------------8~-------------|-7-7-7-7---5-5-5-5---5-5-----3~--|
E|------------------------------------------------|-5-5-5-5---3-3-3-3---3-3-----1~--|

Intro (0:14)
Guitar 2
e|------------------------------------------------|
B|------------------------------------------------|
G|----5-5--4--0~------5-5--4--0~------5-5--4--0~--|
D|------------------------------------------------|
A|------------------------------------------------|
E|------------------------------------------------|

Verse 1 (0:22)
Guitar 1 & 2 
e|---------------------------------------------------------------------------------------|
B|---------------------------------------------------------------------------------------|
G|----5-5-5-5-5-5-5-5-5-5---------------------------------------------5-5-5-5-5-5-5-5----|
D|----5-5-5-5-5-5-5-3-5-5-3-3-3-3-3-3-3-3-3-3-3-3-7-7-7-7-7-5-5-5-5-5-5-5-5-5-5-5-5-5----| X4
A|----3-3-3-3-3-3-3-3-3-3-3-3-3-3-3-3-3-3-3-3-3-3-7-7-7-7-7-5-5-5-5-5-3-3-3-3-3-3-3-3----|
E|--------------------------1-1-1-1-1-1-1-1-1-1-1-5-5-5-5-5-3-3-3-3-3--------------------|
 pm     . . . . . . .         . . . . . . . .       . . . .   . . . .
 
Chorus (0:49)
Guitar 1
e|------------------------------------|
B|------------------------------------|
G|--5-5-5-5---------------------------|
D|--5-5-5-5-5-5-5-5-7-7-7-7-3-3-3-3---| X3
A|--3-3-3-3-5-5-5-5-7-7-7-7-3-3-3-3---|
E|----------3-3-3-3-5-5-5-5-1-1-1-1---|

Chorus (0:59)
Guitar 2
e|--------------------------------|
B|--------------------------------|
G|--5-4-0---7-5-4---5-4-0---7-5-4-|
D|--------------------------------| X3
A|--------------------------------|
E|--------------------------------|

Chorus (0:59)
Guitar 1
e|------------------------------------|
B|------------------------------------|
G|--5-5-5-5---------------------------|
D|--5-5-5-5-5-5-5-5-7-7-7-7-3-2-3-2---| X1
A|--3-3-3-3-5-5-5-5-7-7-7-7-3-2-3-2---|
E|----------3-3-3-3-5-5-5-5-1-0-1-0---|

Chorus (0:59)
Guitar 2
e|--------------------------------|
B|--------------------------------|
G|--5-4-0---7-5-4---5-4-0---------|
D|--------------------------------| X1
A|--------------------------------|
E|--------------------------------|

Chorus (1:03)
Guitar 1
e|------------------------------------------------|-----------------------------|
B|------------------------------------------------|-----------------------------|
G|-5~--------------9~-------------10~-------------|-----------------------------|
D|-5~--------------9~-------------10~-------------|-7-7-7-7---5-5-5-5---5-5-----| X2
A|-3~--------------7~--------------8~-------------|-7-7-7-7---5-5-5-5---5-5-----|
E|------------------------------------------------|-5-5-5-5---3-3-3-3---3-3-----|

Chorus (1:03)
Guitar 2
e|------------------------------------------------|
B|------------------------------------------------|
G|----5-5--4--0~------5-5--4--0~------5-5--4--0~--|
D|------------------------------------------------| X2
A|------------------------------------------------|
E|------------------------------------------------|

Verse 2 Starts without guitar. 
Second time through play the same as verse 1, without the mutes between chords
Chorus 2 is the same as Chorus 1

Bridge (1:58)
Guitar 1
e|-------------------------------------------------------------------------|
B|-------------------------------------------------------------------------|
G|---5-5-------------------------------------------------------------------|
D|---5-5-----------3-3------------7-7------------5-5-----------------------| X4
A|---3-5-----------3-3------------7-7------------5-5-----------------------|
E|-----------------1-1------------5-5------------3-3-----------------------|

Bridge (1:58)
Guitar 2
e|---------------------------------------------------------------------------|
B|---------------------------------------------------------------------------|
G|-------5-5-4-0--------5-5-4-0--------5-5-4-0--------5-5-4-0----------------|
D|---------------------------------------------------------------------------| X4
A|---------------------------------------------------------------------------|
E|---------------------------------------------------------------------------|

Outro (2:20)
Guitar 1
e|----------------------------------|
B|----------------------------------|
G|----5--5--------------------------|
D|----5--5--3--3-/-7-7-/-5-5--------| X4
A|----3--3--3--3-/-7-7-/-5-5--------|
E|----------1--1-/-5-5-/-3-3--------|

End on
e|----------|
B|----------|
G|----5~----|
D|----5~----| 
A|----3~----|
E|----------|

| /  slide up
| \  slide down
| h  hammer-on
| p  pull-off
| ~  vibrato
| +  harmonic
| x  Mute note
comments
print report bad tab
I want to post or [tab]
guest
You may want to rate the tab now too:
select rating
Please do not post tabs as comments. Select "correction" instead!