Oops, an error
Loading. Please wait.

Fall Out Boys Evening Out With Your Girl Tab

7,816 views 4 this week
2 commentsread comments
1 2 3 4 5
worth learning
x 4
add to favorites launch autoscroll
font size
0
reset
Autoscroll
+/-
esc
set tempo
stop
Contributor
Difficulty
intermediate
WARNING: You are trying to view
                                    content from Ultimate-Guitar.com
                                    in an unauthorized application,
                                    which is prohibited.

                                    Please use an official Ultimate
                                    Guitar Tabs application for iPhone,
                                    iPad or Android to access legitimate
                                    chords, guitar, bass, and drum tabs
                                    from Ultimate-Guitar.com database.

                                    Type "ultimate guitar tabs" in Apple
                                    App Store's or Android Market's
                                    search to find the application.
Here is Fall Out Boy's Evening Out With Your Girl album. I didn't write these, just 
them into an album so it's easier to read. I included the authors of the actual tab. Here we 
Kunal P. (freedoggy77@gmail.com)

Album Songs-
1. Honorable Mention
2. Calm Before the Storm
3. Switchblades and Infidelity
4. Pretty in Punk
5. Growing Up
6. The World's Not Waiting (For Five Tired Boys In A Broken Down Van)
7. Short, Fast and Loud
8. Moving Pictures
9. Parker Lewis Can't Lose (But I'm Gunna Give It My Best Shot)
________________________________________________________________________
1. HONORABLE MENTION

tabber: John Cukras
Email: riffreaper@yahoo.com

tuning: normal

Riff 1:                                            Other guitar.
E------------------------------------------|----------------------------------|
B------------------------------------------|----------------------------------|
G------------------------------------------|----------------------------------|
D-2222222---------77777777-----------------|----55-33-22-33-55-33-22-33-55555-|
A-2222222-5555555-55555555--5555555--------|----------------------------------|
E-0000000-3333333-----------3333333 x's 2--|----------------------------------|

Riff 2:                                                           Other guitar.
E------------------------------------------------------------|-----------------------|
B------------------------------------------------------------|-----------------------|
G------------------------------------------------------------|-----------------------|
D-------------5-4--------------------------------------------|-3333-2222-3333-555555-|
A-33--55--77---------------------333333-555555-777777--------|-----------------------|
E-11--33--55--------x's 2 then --111111-333333-555555 x's 2 -|-----------------------|

Riff 3:                                                           Other guitar.
E--------------------------------------------------------------|------------------------|
B--------------------------------------------------------------|------------------------|
G--------------------------------------------------------------|------------------------|
D----4-----4--77777777--------------4-----4--33-3-33-3-33-33-2-|--5-333-222-333-5-3-2-3-|
A-4--2--4--2--55555555-33333333--4--2--4--2--11-1-11-1-11-11-2-|------------------------|
E-2-----2--------------11111111--2-----2---------------------0-|------------------------|

Riff 4:                             Other guitar.
E--------------------------------|-------------------------------------|
B--------------------------------|-------------------------------------|
G--------------------------------|-------------------------------------|
D----------77777-55555---------4-|--55-33-55-3333-222-5555-333-22-3333-|
A-33-55-77-55555-33333---------2-|-------------------------------------|
E-11-33-55--------------x's 3----|-------------------------------------|

Riff 1

Riff 2

Riff 3

Riff 4

Riff 5:
E--------------------------------|
B--------------------------------|
G--------------------------------|
D-------------------3333-33-3-33-|
A-2222-3333--------------11-1-11-|
E-----------x's 14---------------|
pm.... ....

Riff 4

Riff 6:
E-----------------------------------------------------|
B-----------------------------------------------------|
G-----------------------------------------------------|
D-------------------222222--------55555-777-555-------|
A-33-33-33-33--3----222222-555555-33333-555-333-------|
E-11-11-11-11--1----000000-333333-------------- x's 3-|
__________________________________________________________________

2. CALM BEFORE THE STORM

Guitar 1 (Standard Tuning)

intro

E|--------------------------------------------------------------|
B|--------------------------------------------------------------|
G|--------------------------------------------------------------|
D|----------------------------------------7~----7~----7~----7~--|
A|--0-0-4h5--0-0-4h5------4-------2----55----44-----------------| (x3)
E|--------------------2-2---2-0-0---0--------------77----77-----|
    . .      . .      . . . . . . . .

E|-----------------------------------|
B|-----------------------------------|
G|---------------------xx-7~---7-----|
D|---------------------xx-7~---7-----|
A|--0-0-4h5--0-0-4h5---xx-5~---5-----| (x1)
E|-----------------------------------|
    . .      . .

verse (fast transition from intro)

E|------------------------------------------|
B|------------------------------------------|
G|--2-222222--------------------------------|
D|--2-222222--2-222222--4-444444--2-222222--|
A|--0-000000--2-222222--4-444444--2-222222--| (x1)
E|------------0-000000--2-222222--0-000000--|
      ......    ......    ......    ......

E|------------------------------------------|
B|------------------------------------------|
G|--2-222222-------------------4444/666666--|
D|--2-222222--7-777777--4-4444-xxxx/xxxxxx--|
A|--0-000000--7-777777--4-4444-2222/444444--| (x1)
E|------------4-444444--2-2222--------------|
      ......    ......    ....

E|------------------------------------------|
B|------------------------------------------|
G|--2-222222--------------------------------|
D|--2-222222--2-222222--4-444444--2-222222--|
A|--0-000000--2-222222--4-444444--2-222222--| (x1)
E|------------0-000000--2-222222--0-000000--|
      ......    ......    ......    ......

E|-----------------------------------------|
B|-----------------------------------------|
G|--2-222222--------------66666-4-44-66-7--|
D|--2-222222--7-777777--4-xxxxx-x-xx-xx-x--|
A|--0-000000--7-777777--4-44444-2-22-44-5--| (x1)
E|------------4-444444--2------------------|
      ......    ......

pre-chorus (hard to hear, listen to the song for timing)

E|---------------------------------------|
B|---------------------------------------|
G|--77777777-77777777-66666666-44444444--|
D|--xxxxxxxx-xxxxxxxx-xxxxxxxx-xxxxxxxx--|
A|--55555555-55555555-44444444-22222222--| (x4)
E|---------------------------------------|

chorus

E|---------------------------------------------------------|
B|---------------------------------------------------------|
G|--22-22--------------------------xx-2-2-2-2--------------|
D|--22-22--22-22-x-x-x-xxxx-44-44--xx-2-2-2-2--2-2-2-2-----|
A|--00-00--22-22-x-x-x-xxxx-44-44--xx-0-0-0-0--2-2-2-2-----| (x2)
E|---------00-00-x-x-x-xxxx-22-22---------------0-0-0-0----|

verse

E|--------------------------------------------------------------|
B|--------------------------------------------------------------|
G|--------------------------------------------------------------|
D|----------------------------------------7~----7~----7~----7~--|
A|--0-0-4h5--0-0-4h5------4-------2----55----44-----------------| (x3)
E|--------------------2-2---2-0-0---0--------------77----77-----|
    . .      . .      . . . . . . . .

E|--------------------------------------------------|
B|--------------------------------------------------|
G|-------------------------------------7~--7-7-7-7--|
D|-------------------------------------7~--7-7-7-7--|
A|--0-0-4h5--0-0-4h5------4-------2----5~--5-5-5-5--| (x1)
E|--------------------2-2---2-0-0---0---------------|
    . .      . .      . . . . . . . .

E|------------------------------------------|
B|------------------------------------------|
G|--2-222222--------------------------------|
D|--2-222222--2-222222--4-444444--2-222222--|
A|--0-000000--2-222222--4-444444--2-222222--| (x1)
E|------------0-000000--2-222222--0-000000--|
      ......    ......    ......    ......

E|--------------------------------------------|
B|--------------------------------------------|
G|--2-222222-------------------9999777777-----|
D|--2-222222--7-777777--4-4444-xxxxxxxxxx-----|
A|--0-000000--7-777777--4-4444-7777555555-----| (x1)
E|------------4-444444--2-2222----------------|
      ......    ......    ....

E|------------------------------------------|
B|------------------------------------------|
G|--2-222222--------------------------------|
D|--2-222222--2-222222--4-444444--2-222222--|
A|--0-000000--2-222222--4-444444--2-222222--| (x1)
E|------------0-000000--2-222222--0-000000--|
      ......    ......    ......    ......

E|-----------------------------------------|
B|-----------------------------------------|
G|--2-222222--------------66666-4-44-66-7--|
D|--2-222222--7-777777--4-xxxxx-x-xx-xx-x--|
A|--0-000000--7-777777--4-44444-2-22-44-5--| (x1)
E|------------4-444444--2------------------|
      ......    ......

pre-chorus (hard to hear, listen to the song for timing)

E|---------------------------------------|
B|---------------------------------------|
G|--77777777-77777777-66666666-44444444--|
D|--xxxxxxxx-xxxxxxxx-xxxxxxxx-xxxxxxxx--|
A|--55555555-55555555-44444444-22222222--| (x4)
E|---------------------------------------|

chorus (different, listen for timing)

E|------------------------------------|
B|------------------------------------|
G|----22--22--44--44--22--22--44--44--|
D|------------------------------------|
A|--00--00--00--00--00--00--00--00----| (x1)
E|------------------------------------|
    ..  ..  ..  ..  ..  ..  ..  ..

E|------------------------------------|
B|------------------------------------|
G|----22--22--44--44--22--22--11--11--|
D|------------------------------------|
A|--00--00--00--00--00--00--00--00----| (x1)
E|------------------------------------|
    ..  ..  ..  ..  ..  ..  ..  ..

E|------------------------------------|
B|------------------------------------|
G|----22--22--44--44--22--22--44--44--|
D|------------------------------------|
A|--00--00--00--00--00--00--00--00----| (x1)
E|------------------------------------|
    ..  ..  ..  ..  ..  ..  ..  ..

E|------------------------------------|
B|------------------------------------|
G|----22--22--44--44--22--22--11--11--|
D|------------------------------------|
A|--00--00--00--00--00--00--00--00----| (x1)
E|------------------------------------|
    ..  ..  ..  ..  ..  ..  ..  ..

bridge

E|-------------------------------------------------------------------|
B|-------------------------------------------------------------------|
G|-------------------------------------------------------------------|
D|-------------------------------------------------------------------|
A|--0-0-4h5-0-7-0-5-0-0-4h5-0-7-0-5-0-0-4h5-0-7-0-5-0-0-4h5-0-7-0-5--| (x4)
E|-------------------------------------------------------------------|
    . .     . . . . . .     . . . . . .     . . . . . .     . . . .

E|---------------------------------------------------|
B|---------------------------------------------------|
G|-----------------------------------777777-666-777--|
D|-----------------------------------xxxxxx-xxx-xxx--|
A|--0-0-4h5-0-7-0-5-0-0-4h5-0-7-0-5--555555-444-555--| (x1)
E|---------------------------------------------------|
    . .

E|--------------------------------|
B|--------------------------------|
G|--777777-666-777-999999-999999--|
D|--xxxxxx-xxx-xxx-xxxxxx-xxxxxx--|
A|--555555-444-555-777777-777777--| (x4)
E|--------------------------------|

E|---------------------------------------------------|
B|---------------------------------------------------|
G|--2~-----------------------------------------------|
D|--2~---(rest then use feedback for ringing noise)--|
A|--0~-----------------------------------------------| (x1)
E|---------------------------------------------------|

outro

E|------------------------------------------------|
B|------------------------------------------------|
G|--------------------------22222222--------------|
D|--xx--44444444-44444444--22222222--22222222-----|
A|--xx--44444444-44444444--00000000--22222222-----| (x1)
E|--xx--22222222-22222222------------00000000-----|

E|----------------------------------------|
B|----------------------------------------|
G|--22222222-22222222---------------------|
D|--22222222-22222222--22222222-22222222--|
A|--00000000-00000000--22222222-22222222--| (x1)
E|---------------------00000000-00000000--|

E|-----------------------------------------|
B|-----------------------------------------|
G|---------------------22222222------------|
D|--44444444-44444444--22222222--22222222--|
A|--44444444-44444444--00000000--22222222--| (x1)
E|--22222222-22222222------------00000000--|

E|----------------------------------------|
B|----------------------------------------|
G|--22222222-22222222---------------------|
D|--22222222-22222222--22222222-22222222--|
A|--00000000-00000000--22222222-22222222--| (x1)
E|---------------------00000000-00000000--|

E|-----------------------------------|
B|-----------------------------------|
G|---------------------7~--6--7--2~--|
D|--44444444-44444444--x---x--x--2~--|
A|--44444444-44444444--5---4--5--0~--| (x1)
E|--22222222-22222222----------------|

----------------------------------------------------------------------------
Guitar 2 (Drop D Tuning)

intro

E|----------------|
B|----------------|
G|-----------7----|
D|--xx-0~---7-----|
A|--xx-0~---5-----| (x1)
D|--xx-0~---0-----|

verse

E|------------------------------------------|
B|------------------------------------------|
G|------------------------------------------|
D|--7-777777--2-222222--4-444444--2-222222--|
A|--7-777777--2-222222--4-444444--2-222222--| (x1)
D|--7-777777--2-222222--4-444444--2-222222--|
      ......    ......    ......    ......

E|------------------------------------------|
B|------------------------------------------|
G|------------------------------------------|
D|--7-777777--7-777777--4-444444--2-222222--|
A|--7-777777--7-777777--4-444444--2-222222--| (x1)
D|--7-777777--6-666666--4-444444--2-222222--|
      ......    ......    ......    ......

E|------------------------------------------|
B|------------------------------------------|
G|------------------------------------------|
D|--7-777777--2-222222--4-444444--2-222222--|
A|--7-777777--2-222222--4-444444--2-222222--| (x1)
D|--7-777777--2-222222--4-444444--2-222222--|
      ......    ......    ......    ......

E|------------------------------------------|
B|------------------------------------------|
G|------------------------------------------|
D|--7-777777--7-777777--4-444444--2-222222--|
A|--7-777777--7-777777--4-444444--2-222222--| (x1)
D|--7-777777--6-666666--4-444444--2-222222--|
      ......    ......

pre-chorus

E|---------------------------------------|
B|---------------------------------------|
G|---------------------------------------|
D|--00000000-00000000-44444444-22222222--|
A|--00000000-00000000-44444444-22222222--| (x4)
D|--00000000-00000000-44444444-22222222--|

chorus

E|---------------------------------------------------------|
B|---------------------------------------------------------|
G|---------------------------------------------------------|
D|--77-77--22-22-x-x-x-xxxx-44-44--xx-7-7-7-7--2-2-2-2-----|
A|--77-77--22-22-x-x-x-xxxx-44-44--xx-7-7-7-7--2-2-2-2-----| (x2)
D|--77-77--22-22-x-x-x-xxxx-44-44--xx-7-7-7-7--2-2-2-2-----|

verse (none at the beginning)

E|------------------------------------------|
B|------------------------------------------|
G|------------------------------------------|
D|--7-777777--2-222222--4-444444--2-222222--|
A|--7-777777--2-222222--4-444444--2-222222--| (x1)
D|--7-777777--2-222222--4-444444--2-222222--|
      ......    ......    ......    ......

E|------------------------------------------|
B|------------------------------------------|
G|------------------------------------------|
D|--7-777777--7-777777--4-444444--2-222222--|
A|--7-777777--7-777777--4-444444--2-222222--| (x1)
D|--7-777777--6-666666--4-444444--2-222222--|
      ......    ......    ......    ......

E|------------------------------------------|
B|------------------------------------------|
G|------------------------------------------|
D|--7-777777--2-222222--4-444444--2-222222--|
A|--7-777777--2-222222--4-444444--2-222222--| (x1)
D|--7-777777--2-222222--4-444444--2-222222--|
      ......    ......    ......    ......

E|------------------------------------------|
B|------------------------------------------|
G|------------------------------------------|
D|--7-777777--7-777777--4-444444--2-222222--|
A|--7-777777--7-777777--4-444444--2-222222--| (x1)
D|--7-777777--6-666666--4-444444--2-222222--|
      ......    ......

pre-chorus

E|---------------------------------------|
B|---------------------------------------|
G|---------------------------------------|
D|--00000000-00000000-44444444-22222222--|
A|--00000000-00000000-44444444-22222222--| (x4)
D|--00000000-00000000-44444444-22222222--|

chorus

E|---------------------------------------------------------|
B|---------------------------------------------------------|
G|---------------------------------------------------------|
D|--77-77--22-22-x-x-x-xxxx-44-44--xx-7-7-7-7--2-2-2-2-----|
A|--77-77--22-22-x-x-x-xxxx-44-44--xx-7-7-7-7--2-2-2-2-----| (x2)
D|--77-77--22-22-x-x-x-xxxx-44-44--xx-7-7-7-7--2-2-2-2-----|

bridge

E|----------------------------------------------|
B|----------------------------------------------|
G|--7------7--7-7--7777-------------------------|
D|--7------7--7-7--7777-------4----4--------22--|
A|--5------5--5-5--5555-------4----4--------22--| (x1)
D|-----0000-00-0-00------4444-4-44-4-222222-22--|
       .... .. . ..      ....   ..   ......

E|-------------------------------------------|
B|-------------------------------------------|
G|------7--7-7--7777-------------------------|
D|------7--7-7--7777-------4----4--------22--|
A|------5--5-5--5555-------4----4--------22--| (x2)
D|--0000-00-0-00------4444-4-44-4-222222-22--|
    .... .. . ..      ....   ..   ......

E|-----------------------|
B|-----------------------|
G|------7777-77777777-7--|
D|------7777-77777777-7--|
A|------5555-55555555-5--| (x1)
D|--00000000-00000000-0--|

E|-------------------------------------|
B|-------------------------------------|
G|-------------------------------------|
D|--xx-000000-000000-444444-222222-----|
A|--xx-000000-000000-444444-222222-----| (x1)
D|--xx-000000-000000-444444-222222-----|

E|-------------------------------|
B|-------------------------------|
G|-------------------------------|
D|--000000-000000-444444-222222--|
A|--000000-000000-444444-222222--| (x3)
D|--000000-000000-444444-222222--|

E|---------------------------------------------------|
B|---------------------------------------------------|
G|---------------------------------------------------|
D|--7~---(rest then use feedback for ringing noise)--|
A|--7~-----------------------------------------------| (x1)
D|--7~-----------------------------------------------|

outro

E|------------------------------------------------|
B|------------------------------------------------|
G|------------------------------------------------|
D|--xx--44444444-44444444--77777777--22222222-----|
A|--xx--44444444-44444444--77777777--22222222-----| (x1)
D|--xx--44444444-44444444--77777777--22222222-----|

E|----------------------------------------|
B|----------------------------------------|
G|----------------------------------------|
D|--77777777-77777777--22222222-22222222--|
A|--77777777-77777777--22222222-22222222--| (x1)
D|--77777777-77777777--22222222-22222222--|

E|-----------------------------------------|
B|-----------------------------------------|
G|-----------------------------------------|
D|--44444444-44444444--77777777--22222222--|
A|--44444444-44444444--77777777--22222222--| (x1)
D|--44444444-44444444--77777777--22222222--|

E|----------------------------------------|
B|----------------------------------------|
G|----------------------------------------|
D|--77777777-77777777--22222222-22222222--|
A|--77777777-77777777--22222222-22222222--| (x1)
D|--77777777-77777777--22222222-22222222--|

E|---------------------------------|
B|---------------------------------|
G|---------------------------------|
D|--44444444-44444444--7~--2~--7~--|
A|--44444444-44444444--7~--2~--7~--| (x1)
D|--44444444-44444444--7~--2~--7~--|


and thats it. if you have any comments or questions you can e-mail me at
killinginthename247@yahoo.com. enjoy!
__________________________________________________________________________

3. SWITCHBLADES AND INFIDELITY

tabber: John Cukras
email: riffreaper@yahoo.com

tuning: normal

riff 1:
E--------------------------------------7-9-7-5-7-5-4 x's 8-|
B----------------------------------------------------------|
G----------------------------------------------------------|
D---------44444444-----------------4-----------------------|
A-666-444-22222222---------666-444-2-----------------------|
E-444-222-----------x's 3--444-222-------------------------|

Riff 2: Part A                               Part B
E---------------------------------------|--------------------------------------|
B---------------------------------------|--------------------------------------|
G---------------------------------------|--------------------------------------|
D-6-------4-------4-6-------6-4-------2-|--------6---------4--------6--6-4-4-2-|
A-4-------2-------2-4-------4-2-------2-|--------4---------2--------4--4-2-2-2-|
E---00000---00000-----00000-----00000-0-|-00000-----000000---000000----------0-|
pm  .....   .....     .....     .....     .....     ......   ......

Riff 3:
E---------------------------------------|
B---------------------------------------|
G---------------------------------------|
D-88-88-8-44-44-4-22-22-2---------------|
A-66-66-6-22-22-2-22-22-2-44-44-4-------|
E-----------------00-00-0-22-22-2 x's 4-|

Riff 2: Part A x's 2 , Part A + Part B

Riff 3

Riff 4:
E----55----77--------3-2-1-4-3-2-1-4-3-2-1-4-5 x's 6-8-| (couldn't tell exactly)
B-33----55--- x's 8------------------------------------|
G------------------------------------------------------|
D------------------------------------------------------|
A------------------------------------------------------|
E------------------------------------------------------|
No fall out boy song is complete without muffled together notes. =D

Riff 3: Till End.
______________________________________________________________________

4. PRETTY IN PUNK

Tabber: John Cukras
Aim: embryocrusher

Tuning: normal

Riff 1:
E------------------------------------------------------------------|
B------------------------------------------------------------------|
G------------------------------------------------------------------|
D-----------7----6-4----8-6----------------------------------------|
A----5-4------4------6--------------777777-6-5-555555-4-3--------7-|
E-33-----5----------------- x's 2---555555-4-3-333333-2-1 x's 4--5-|

Part A
Riff 2:
Sounds like riff 1 is played under
E--------------------------------------------------------------------------------------------|
---------------------------------------------------------------------------------------------|
B--------------------------------------------------------------------------------------------|
---------------------------------------------------------------------------------------------|
G--------------------------------------------------------------------------------------------|
---------------------------------------------------------------------------------------------|
D-----------444--777------------444--777777--------------------------------------------------|
---------------------------------------------------------------------------------------------|
A-777--444--222--555--777--444--222--555555---99999999-1212121212-7777777-5555555-999999-12--|
-77777-55555-99999-111111--------------------------------------------------------------------|
E-555--222------------555--222----------------77777777-1010101010-5555555-3333333-777777-10--|
-55555-33333-77777-99999- x's 4--------------------------------------------------------------|

Riff 3:
E---------------------------------|
B---------------------------------|
G-7-6------7-6-7-9--------7-6-----|
D-----7-6---------------------7-6-|
A----------------- x's 3----------|
E---------------------------------|

Riff 2

Riff 4:
E---------------------------------------------------------------------------------------------|
B---------------------------------------------------------------------------------------------|
G---------------------------------------------------------------------------------------------|
D----7----7----7----7----7----7----7----7----------14141414-16161616-19191919-17171717--------|
A-55---55---44---44---33---33---22---22-- x's 4----12121212-14141414-17171717-15151515 x's 2--|
E---------------------------------------------------------------------------------------------|
pm..   ..   ..   ..   ..   ..   ..   ..

Riff 5:
E---------------------------------------------------------------------------------------------------|
B---------------------------------------------------------------------------------------------------|
G---------------------------------------------------------------------------------------------------|
D------9999-1111-9999-1111-9-------9999-1111-9999-1111-9------9999-1111-9999-1111-9-----------------|
A-7777-----------------------5555------------------------4444------------------------77-9999--------|
E-5555-----------------------3333------------------------2222------------------------55-7777 x's 2--|

Riff 2: Part A x's 8

Riff 6:
E-------------------------------------|
B-------------------------------------|
G-------------------------------------|
D-66666-444444-888888-999999--------6-|
A-44444-222222-666666-777777 x's 4--4-|
E-------------------------------------|
__________________________________________________________________

5. THE WORLD'S NOT WAITING

Tabber: John Cukras
Email: riffreaper@yahoo.com

Tuning: normal

Riff 1:
E----------------------------------------------------------------|
B----------------------------------------------------------------|
G----------------------------------------------------------------|
D-------22222-555555---------------------------------------------|
A-55555-22222-333333-55555--4--------5-------4-----------------5-|
E-33333-00000--------33333--2-222222-3-33333-2-22222  x's 2 ---3-|
pm                            ......   .....   .....

Riff 2:         Part A                                   Part B
E------------------------------------------------|------------------------------------------------|
B------------------------------------------------|------------------------------------------------|
G------------------------------------------------|------------------------------------------------|
D------------------------------------------------|--------777777----------------------------------|
A----5----5----4----4----7----7----6----6--------|--9--4--555555-777777---------------------------|
E-00-3-00-3-00-2-00-2-00-5-00-5-00-4-00-4  x's 4-|--7--2---------555555 x's 2  Then Part A x's 4--|
pm..   ..   ..   ..   ..   ..   ..   ..

Riff 3:
E----------------------|
B----------------------|
G----------------------|
D-------2--------------|
A-7--4--2--4---------7-|
E-5--2--0--2 x's 4 --5-|

Riff 4: Pm's begin while lead is still playing, then they combine.
E------------------------------------------------|
B------------------------------------------------|
G------------------------------------------------|
D------------------------------------------------|
A-5/4/7-5-4--------5/4/7--5555555555555555555--5-|
E-----------x's 5---------3333333333333333333--3-|
pm                        ...................

Outro:
E-------------------------------|
B-------------------------------|
G-------------------------------|
D------2222-5555----------------|
A-5555-2222-3333-5555---------5-|
E-3333-0000------3333 x's 8---3-|
_______________________________________________________________

7. SHORT, FAST AND LOUD

Tabber: John Cukras
Email: riffreaper@yahoo.com

Tuning: Normal

Intro:
E------------------------|
B------------------------|
G------------------------|
D----------------------2-|
A-4-2-3-4-5-4-3-4-5-6--2-|
E-2---------2----------0-|

Riff 1: 2 guitars. 0pm's throughout.  A                 B
E---------------------------------------------|-------------------------------------------------------|
B---------------------------------------------|-------------------------------------------------------|
G---------------------------------------------|-------------------------------------------------------|
D-3-2-3-2-3-2-3-5-3-2-3 x's 3--5-7-9-10-9-7-5-|-3-2-3-2-3-2-3-5-3-2-3-x's 2--22----22----22----22-----|
A------------------------------3-5-7-8--7-5-3-|------------------------------22-55-22-55-22-55-22-55--|
E---------------------------------------------|------------------------------00-33-00-33-00-33-00-33--|

Riff 1: A , B

Riff 2:  Guitar 1                                    Guitar 2
E-----------------------------------------------|-----------------|
B-----------------------------------------------|-----------------|
G-----------22-22-------------------------------|-----------------|
D-55-55-----22-22-22----------------------------|-3-5-3-2h3 x's 8-|
A-33-33-55--00-00-22--55-55/33--77-77/55--------|-----------------|
E-------33--------00--33-33/11--55-55/33 x's 2--|-----------------|

Riff 1: A , B

Riff 1: A , B

Riff 3:
E------------------------------------------------------|
B------------------------------------------------------|
G------------------------------------------------------|
D----9----99-----7----77-----5----55-----7----77-------|
A-77---77-----55---55-----33---33-----55---55--- x's 4-|
E------------------------------------------------------|

Riff 2 x's 2
___________________________________________________________________

8. MOVING PICTURES

tabber: John Cukras
Email: riffreaper@yahoo.com

Tuning: normal

Vote Libertarian:
Http://www.lp.org

Riff 1:   Guitar 1                     Guitar 2 (used throughout song)
E--------------------------------|---------|
B--------------------------------|---------|
G--------------------------------|--12-9-8-| (rapidly)
D----2-----2-----2-----2---------|---------|
A-6--2--6--2--8--2--8--2-4-6-8---|---------|
E-4--0--4--0--6--0--6--0-2-4-6---|---------|

Riff 2:
E--------------------------------------------|
B--------------------------------------------|
G--------------------------------------------|
D------------2-----------------------------2-|
A-9----------2------------------9----------2-|
E-7-77777777-0-000000000 x's 3--7-77777777-0-|
pm  ........   .........          ........

Riff 3:    Part A                                        Part B
E---------------------------------------------|----------------------------------------------|
B---------------------------------------------|----------------------------------------------|
G---------------------------------------------|----------------------------------------------|
D---------222-222-222-------------2-----------|---------2222222---------2222222--------------|
A-666-444-222-222-222-44--666-444-2--4-6-8-9--|-6666666-2222222-4444444-2222222--------4444--|
E-444-222-000-000-000-22--444-222-0--2-4-6-7--|-4444444-0000000-2222222-0000000 x's 2--2222--|

Riff 3

Riff 3: Part A

Riff 4:
E----------------------------------------------------------------------------------------------|
B----------------------------------------------------------------------------------------------|
G----------------------------------------------------------------------------------------------|
D----------------------------------------------------------------------------------------------|
A-66-666-6/8/9-99-999-9/11/8-88-888-88-888-888-888--------66-666-6/8/9-99-999-9/11-8--4-6-8-9--|
E-44-444-4/6/7-77-777-7/9/-6-66-666-66-666-666-666 x's 3--44-444-4/6/7-77-777-7/9--6--2-4-6-7--|

Riff 3: Part B

Really light strumming, semi-inaudible

Riff 3: Part B x's 4
_______________________________________________________________________

9. PARKER LEWIS CAN'T LOSE

tabber: John Cukras
email: riffreaper@yahoo.com

Tuning: Normal

Riff 1:
E------------------------------------------------------------------------------------------------|
B------------------------------------------------------------------------------------------------|
G-----5-4-------5-4------------7------------------7------------------5------------5-4-------5-4--|
D------------------------------------------------------------------------------------------------|
A-333------333---------55-5-55--- x's 4---77-7-77--- x's 4---55-5-55-- x's 2--333------333-------|
E------------------------------------------------------------------------------------------------|
pm                     ..   ..            ..   ..            ..   ..

Riff 2:    Guitar 1                                                  Guitar 2
E---------------------------------------------------------------|-------------------|
B---------------------------------------------------------------|-------------------|
G---------------------------------------------------------------|--4-4-4-4h5 x's 10-|
D---------------------------------------------------------------|-------------------|
A---------------------------------------------------------------|-------------------|
E-0000000-333-44444444-666-777777777-4444444444 x's 2--4444444--|-------------------|
pm....... ... ........ ... ......... ..........        .......

Riff 3:
E------------------------------------------------------------------|
B------------------------------------------------------------------|
G------------------------------------------------------------------|
D---------------------------------------------------------9-7-9-10-|
A-6666666-888-999999999-888---------6666666-888-999999999-7-5-7-8--|
E-4444444-666-777777777-666 x's 2---4444444-666-777777777----------|

Riff 4:
E---------------------------------------|
B---------------------------------------|
G---------------------------------------|
D---------------99--9-7-77-7/9--------9-|
A-55-6-6/8-8--8-77--7-5-55-5/7--------7-|
E-33-4-4/6-6--6--------------- x's 3----|

Riff 5:
E--------------------------------------------------------|
B--------------------------------------------------------|
G----------7----------------5----------------------------|
D--------------------------------------------------------|
A-55-5-55--- x's 4--55-5-55-- x's 4----------------------|
E----------------------------          Whole thing x's 2-|
pm..   ..           ..   ..

Riff 2

Riff 3

Riff 4

Riff 6:
E---------------------------------------------------------------------------------------|
B---------------------------------------------------------------------------------------|
G---------------------------------------------------------------------------------------|
D-9-7-9-10---------------9999--7777-------------------------9999999-7777777-------------|
A-7-5-7-8----6666--9999--7777--5555---------6666666-9999999-7777777-5555555--------6666-|
E------------4444--7777------------- x's 4--4444444-7777777---------------- x's 2--4444-|
_________________________________________________________________________

and there you have it! A BIG THANKS TO JOHN CUKRAS, FOR WITHOUT HIM MOST OF THESE TABS WOULD NOT EXIST!!
comments
print report bad tab
2 comments total.
0 reply
mattb91 wrote on March 30 2007, 09:09 am

the tab for Honorable mention is way wrong. the tab on this site that starts on an F power chord is correct.

0 reply
linghoejohnson9 wrote on December 1 2008, 04:32 pm

Number 6 is missing..

I want to post or [tab]
guest
You may want to rate the tab now too:
select rating
Please do not post tabs as comments. Select "correction" instead!