Oops, an error
Loading. Please wait.

From Under The Cork Tree Bass Tab

13,587 views 39 this week
3 commentsread comments
1 2 3 4 5
accurate
x 8
add to favorites launch autoscroll
font size
0
reset
Autoscroll
+/-
esc
set tempo
stop
Contributor
WARNING: You are trying to view
                                    content from Ultimate-Guitar.com
                                    in an unauthorized application,
                                    which is prohibited.

                                    Please use an official Ultimate
                                    Guitar Tabs application for iPhone,
                                    iPad or Android to access legitimate
                                    chords, guitar, bass, and drum tabs
                                    from Ultimate-Guitar.com database.

                                    Type "ultimate guitar tabs" in Apple
                                    App Store's or Android Market's
                                    search to find the application.
Aritst:  FALL OUT BOY
Album: From Under the Cork Tree

Please rate

1. Our Lawyer Made Us Change The Name Of This Song So We Wouldn't Get Sued 
2. Of All The Gin Joints In All The World 
3. Dance, Dance 
4. Sugar We're Going Down 
5. Nobody Puts Baby In The Corner 
6. I've Got A Dark Alley And A Bad Idea That Says You Should Shut Your Mouth 
7. 7 Minutes In Heaven  
8. Sophomore Slump Or Comeback Of The Year 
9. Champagne For My Real Friends, Real Pain For My Sham Friends 
10. I Slept With Someone In Fall Out Boy And All I Got Was This Stupid Song Written About Me 
11. A Little Less Sixteen Candles, A Little More "Touch Me" 
12. Get Busy Living Or Get Busy Dying 
13. XO 
============================================================================

I hope that you enjoy all these tabs I put together I didnt do them but these people did 
and they are great bassists/tabbists

I would like to thank them for their tabs:
boyan89
Sammy Rhyno
Bass Bum
WaitinForMyRuca
Dave Hoppus 
scig
ctigers92
and peguinbass/Matt
  
please rate it 

----------------------------------------------------------------------------
1.Our Lawyer Made Us Change The Name Of This Song So We Would'nt Get Sued - Fall Out Boy
-------------------------------------------------------------------------------

Tabbed By : Matt 
e-mail: snwbrd5830@aol.com

Tuning: D,A,D,G

Intro X2
G|---------------------------------|
D|---------------------------------|
A|-----------11111111--------------|
D|-000000000------------55555555---|

Verse 
G|---------------------------------|
D|---------------------------------|
A|----0011--00---0011--33--11111---|
D|-00---------55-------------------|

G|----------------------------------------|
D|----------------------------------------|
A|-3333333---------1111111--33333333------|
D|---------5555555---------------------5--|

Chorus
G|--------------------------------------------------------|
D|--------------------------------------------------------|
A|--------------111111------------------------------------|
D|--333-33222-22--------333-33222-2211111110000000000000--|

G|--------------------------------------|
D|--------------------------------------|
A|--------3333333-----------------------|
D|-000000---------5555555--3333322222---|

Post Chorus X2
G|-----------------------------------------------|
D|-----------------------------------------------|
A|-----------------------1-1111-1111-------------|
D|-0-0000-0000-0000-0000------------5-5555-5555--|
followed by
G|---------------------------------|
D|---------------------------------|
A|---------------------------------|
D|-0-0-0-0-0-0-0-0-0-0-0-0---------|

Verse
G|---------------------------------|
D|---------------------------------|
A|----0011--00---0011--33--11111---|
D|-00---------55-------------------|

G|------------------------------------------|
D|------------------------------------------|
A|-3333333---------1111111--33333333--------|
D|---------5555555---------------------5-5--|

Chorus
G|--------------------------------------------------------|
D|--------------------------------------------------------|
A|--------------111111---------------------11111111111----|
D|--333-33222-22--------333-33222-221111111---------------|

G|--------------------------------------|
D|--------------------------------------|
A|--------3333333-----------------------|
D|-000000---------5555555--3333322222---|

Bridge X2
G|---------------------------------|
D|---------------------------------|
A|-------------------------0-1-3---|
D|-0-0-0-0-0-0-0-0-0-0-0-5---------|

Chorus
G|-----------------------------------------------------------|
D|-----------------------------------------------------------|
A|--------------111111111------------------------------------|
D|--333333222222-----------3333332222211111110000000000000---|

G|------------------------------------|
D|------------------------------------|
A|--------3333333-----------------1~--|
D|-000000---------5555555--3~ 2~------|

lyrics

Brothers and sisters put this record down
Take my advice ('cause we are bad news)
We will leave you high and dry
It's not worth the hearing you'll lose

It's just past 8 and I'm feeling young and reckless
The ribbon on my wrist says, "Do not open before Christmas."

We're only liars, but we're the best (we're the best)
We're only good for the latest trend
We're only good cause you can have almost famous friends
Besides, we've got such good fashion sense

Brothers and sisters, yeah, put these words down
Into your notebook (spit lines like these)
We're friends when you're on your knees
Make them dance like we were shooting their feet

It's just past 8 and I'm feeling young and reckless
The ribbon on my wrist says, "Do not open before Christmas."

We're only liars, but we're the best (we're the best)
We're only good for the latest trend
We're only good cause you can have almost famous friends
Besides, we've got such good fashion sense

We're only liars, but we're the best
We're only good for the latest trend

We're only liars, but we're the best
We're only good for the latest trend
We're only good cause you can have almost famous friends
Besides, we've got such good fashion sense
---------------------------------------------------
Of all the gin joints in all the world- bass tab
---------------------------------------------------
SammyRhyno
Drop D

/ = Slide up
\ = Slide down
H = Hammer on
P = Pull off

Bass comes in after one bar of the guitar line


Intro
G|---------------------------------------------------|
D|---------------------------------------------------| X2
A|--------------0-0-0-0-3-3---------------0-0-0-0-5P3|
D|3-3-3-5-5-5-5-------------3-3-3-5-5-5-5------------|

Verse 1
"You only heard..."
G|-----------------------------------------------------------------------|
D|-----------------------------------------------------------------------|
A|------------------------0----------------------------------------------|
D|2-2-3-3-2-2-3-3-2-2-3-3---5-2-2-2-2-2-2-2-2-3-3-3-3-3-3-3-3-3-3-3-3-3-3|
"Were making out..."
G|-----------------------------------------------------------------------|
D|-----------------------------------------------------------------------|
A|------------------------0----------------------------------------------|
D|2-2-3-3-2-2-3-3-2-2-3-3---5-2-2-2-2-2-2-2-2-3-3-3-3-3-3-3-3-3-3-3-3-3-3|

Chorus
"Turn off the..."
G|---------------------------------------|
D|---------------------------------------|
A|3-3-----0-0-0-0-0-0-0-0-0-0-0-0-0-0-0--|
D|----5-5-------------------------------5|

"Cause all of..."
G|---------------------------------------|
D|---------------------------------------|
A|3-3------------------------------------|
D|----5-5-3-3-3-3-3-3-3-3-3-3-3-3-3-3-3-3|

"And oh, the..."
G|-----------------------------------------------------------|
D|-----------------------------------------------------------|
A|3-3-3-3-3-3-3---------------0-0-0-0-0-0-0-0-0-0-0-0-0-0-0--|
D|--------------5-5-5-5-5-5-5-------------------------------5|

"Like i'll never..."
G|-----------------------------|
D|-----------------------------|
A|3-3-3-3-3-3-3----------------|
D|--------------5-5-5-5-5-5-5-5|

Verse 2
G|---------------------------------------------------|
D|---------------------------------------------------| X2
A|--------------0-0-0-0-3-3---------------0-0-0-0-5P3|
D|3-3-3-5-5-5-5-------------3-3-3-5-5-5-5------------|

"You only hold..."
G|----------------------------------------------------------------------------|
D|----------------------------------------------------------------------------|
A|------------------------0-------0-------------------------------------------|
D|2-2-3-3-2-2-3-3-2-2-3-3---5-2-3---5-2-3-3-3-3-3-3-3-3-3-3-3-3-3-3-3-3--3-2-1|

Chorus
"Turn off the..."
G|---------------------------------------|
D|---------------------------------------|
A|3-3-----0-0-0-0-0-0-0-0-0-0-0-0-0-0-0--|
D|----5-5-------------------------------5|

"Cause all of..."
G|---------------------------------------|
D|---------------------------------------|
A|3-3------------------------------------|
D|----5-5-3-3-3-3-3-3-3-3-3-3-3-3-3-3-3-3|

"And oh, the..."
G|-----------------------------------------------------------|
D|-----------------------------------------------------------|
A|3-3-3-3-3-3-3---------------0-0-0-0-0-0-0-0-0-0-0-0-0-0-0--|
D|--------------5-5-5-5-5-5-5-------------------------------5|

"Like i'll never..."
G|-----------------------------|
D|-----------------------------|
A|3-3-3-3-3-3-3----------------|
D|--------------5-5-5-5-5-5-5-5|

Bridge
G|---------------|
D|---------------| x3
A|0-0-----3-3----|
D|----3-3-----5-5|

G|---------------------------------------------------------------|
D|---------------------------------------------------------------|
A|---------------------------------------------------------------|
D|3-3-3-3-3-3-3-3-3-3-3-3-3-3-3-3-3-3-3-3-3-3-3-3-3-3-3-3-3-3-3-3|

"I'm not trying!"
G|-------------------------------------------------|
D|-------------------------------------------------|
A|7-7-7-7-7-7-7-7-8-8-8-8-8-8-8-8-8-8-8-8-8-8-8-8-8|
D|-------------------------------------------------|

Outro
"Turn off the..."
G|---------------------------------------|
D|---------------------------------------|
A|3-3-----0-0-0-0-0-0-0-0-0-0-0-0-0-0-0--|
D|--------------------------------------5|

"Cause all of..."
G|---------------------------------------|
D|---------------------------------------|
A|3-3------------------------------------|
D|----5-5-3-3-3-3-3-3-3-3-3-3-3-3-3-3-3-3|

"And oh, the..."
G|---------------------------------------|
D|---------------------------------------|
A|3-3-----0-0-0-0-0-0-0-0-0-0-0-0-0-0-0--|
D|--------------------------------------5|

"Like ill never..."
G|-----------------------------|
D|-----------------------------|
A|3-3-3-3-3-3-3----------------|
D|--------------5-5-5-5-5-5-5-5|

G|---------------|
D|---------------| x3
A|0-0-----3-3----|
D|----3-3-----5-5|

G|---------------------------------------------------------------------|
D|---------------------------------------------------------------------|
A|------------------------------------------------------------------3--|
D|3-3-3-3-3-3-3-3-3-3-3-3-3-3-3-3-3-3-3-3-3-3-3-3-3-3-3-3-3-3-3-3-3---5|

Lyrics

You only hold me up like this
Cause you don't know who I really am
Sometimes I just want to know what it's like to be you
We're making out inside crashed cars
We're sleeping through all our memories
I used to waste my time dreaming of being alive 
(now I only waste it dreaming of you)

Turn off the lights and turn off the shyness
Cause all of our moves make up for the silence
And oh, the way your makeup stains my pillowcase
Like I'll never be the same

You only hold me up like this
Cause you don't know who I really am
I used to waste my time on
Waste my time on
Waste my time dreaming of being alive 
(now I only waste it dreaming of you)

Turn off the lights and turn off the shyness
Cause all of our moves make up for the silence
And oh, the way your makeup stains my pillowcase
Like I'll never be the same

I've got headaches and bad luck but they couldn't touch you, no
I've got headaches and bad luck but they couldn't touch you, no
I'm not trying
You only hold me up like this

Turn off the lights and turn off the shyness
Cause all of our moves make up for the silence
And oh, the way your makeup stains
Like I'll never be the same


-------------------------------------------------
Dance Dance
------------------------------------------------

tabbed by:  Bass Bum

Standard Tuning

0:04 Intro - 6x
G|---------------------------------|
D|---------------------------------|
A|--2--2-5~-5---------5~-5---------|
E|-----------55--3--3-----55-------|

Pre Chorus - 2x
G|---------------------------------|
D|---------------------------------|
A|--2222-55--------55--------------|
E|---------55-3333---55------------|

Chorus - 4x
G|---------------------------------|
D|---------------------------------|
A|--2222-5555--------00------------|
E|------------3333-22--------------|

Intro - 2x
 |pause|
then..
G|--------------------------------------|
D|--------------------------------------|
A|------5~-5---2--2-5~-5--------5~-5----|
E|-3--3-----55----------55-3--3-----55--|

Pre Chorus - 2x

G|---------------------------------|
D|---------------------------------|
A|--2222-5~-5---------5~-5---------|
E|-----------55--3333-----55-------| 
 
|rest|

Chorus - 4x

Bridge - 3x
G|-------------------------------------|
D|-------------------------------------|
A|-22222222-00000000-------------------|
E|-------------------22222222-33333333-|

G|---------------------------------|
D|---------------------------------|
A|-9999999999999999----------------|
E|---------------------------------|

Chorus - 6x
Intro - 4x


lyrics:

She says she's no good with words but I'm worse
Barely stuttered out
"A joke of a romantic" or stuck to my tongue
Weighed down with words too over-dramatic
Tonight it's "it can't get much worse" 
Vs. "no one should ever feel like.."

I'm two quarters and a heart down
And I don't want to forget how your voice sounds
These words are all I have so I'll write them
So you need them just to get by

[Whispered:] We're going into D-Minor

Dance, Dance
We're falling apart to half time
Dance, Dance
And these are the lives you'd love to lead
Dance, this is the way they'd love
If they knew how misery loved me

You always fold just before you're found out
Drink up its last call
Last resort
But only the first mistake and I...

I'm two quarters and a heart down
And I don't want to forget how your voice sounds
These words are all I have so I'll write them
So you need them just to get by

Why don't you show me the little bit of spine
You've been saving for his mattress, love

Dance, Dance
We're falling apart to half time
Dance, Dance
And these are the lives you'd love to lead
Dance, this is the way they'd love
If they knew how misery loved me

Why don't you show me the little bit of spine
You've been saving for his mattress (mattress, mattress)
I only want sympathy in the form of you crawling into bed with me

Dance, Dance
We're falling apart to half time
Dance, Dance
And these are the lives you'd love to lead

Dance this is the way they'd love (way they'd love)
Dance this is the way they'd love (way they'd love)
Dance this is the way they'd love
If they knew how misery loved me

Dance, Dance
Dance, Dance
Dance, Dance
Dance, Dance

-------------------------------------------
Sugar We're going down
-------------------------------------------

tabbed by:  WaitinForMyRuca

This is the correct way to play it if you dont want to tune down to dropped D.

(Intro) x2 Play the last G only once the second time.
G----------------------------------------------------------------------------|
D-0000000000000000-----------------------------------------------------------|
A----------------------------------2222222222222222--------------------------|
E------------------3333333333333333----------------3333333333333333----------|

(Verse) x4
G-----------------------------------------|
D-----------------------------------------|
A-5-5-5-5------------2-2-2-2--------------|
E------------3-3-3-3------------3-3-3-3---|

(Pre-Chorus)
G----------------------------------------------------------------------------|
D-00000000-------------------------------------------------------------------|
A----------------------------------------------------------------------------|
E---------33333333/5555/77777777/8888/77777777/3333333333333333--------------|

(Chorus)
G-------------------------------------------------------------------------|
D-0000000000000000--------------------------------------------------------|
A---------------------------------2222222222222222------------------------|
E-----------------3333333333333333-----------------3333333333333333-------|

G------------------------------------------------------------------------|
D-00000-00000------------------------------------------------------------|
A--------------------------22222-22222-----------------------------------|
E--------------33333-33333-------------33333-33333-----------------------|

(After Chorus)
G----------------------------------------------------------------------------|
D-0000-0---------------------------------------------------------------------|
A----------------0000-0-2222-2-2-3333-3-2222-2-2-----------------------------|
E-------3333-3-3---------------------------------3333333333333333------------|

Repeat Verse

Repeat Pre-Chorus

Repeat Chorus

(Bridge) Listen for timing
G--------------------------------------------------------------------------|
D-5-5-3-2-0~ ------------5~ ------------0~ -------------5~ ------55--------|
A--------------------------------------------------------------------------|
E--------------------------------------------------------------------------|
(BridgeContinued)

G---------------------------------------------------------------------|
D-00000-00000---------------------------------------------------------|
A-----------------------------------22222-22222-----------------------|
E------------------33333-33333-------------------33333-33333----------|

(Repeat Chorus)

(End)
G-------------|
D-5-5-3-2-0---|
A-------------|
E-------------|

Lyrics:


Am I more than you bargained for yet
I've been dying to tell you anything you want to hear
Cause that's just who I am this week
Lie in the grass, next to the mausoleum
I'm just a notch in your bedpost
But you're just a line in a song
(A notch in your bedpost, but you're just a line in a song)

Drop a heart, break a name
We're always sleeping in, and sleeping for the wrong team

We're going down, down in an earlier round
And Sugar, we're going down swinging
I'll be your number one with a bullet
A loaded gun complex, cock it and pull it
[x2]

Is this more than you bargained for yet
Oh don't mind me I'm watching you two from the closet
Wishing to be the friction in your jeans
Isn't it messed up how I'm just dying to be him
I'm just a notch in your bedpost
But you're just a line in a song
(Notch in your bedpost, but you're just a line in a song)

Drop a heart, break a name
We're always sleeping in, and sleeping for the wrong team

We're going down, down in an earlier round
And Sugar, we're going down swinging
I'll be your number one with a bullet
A loaded gun complex, cock it and pull it
[x2]

Down, down in an earlier round
And Sugar, we're going down swinging
I'll be your number one with a bullet
A loaded gun complex, cock it and pull it

We're going down, down in an earlier round (Take aim at myself)
And Sugar, we're going down swinging (Take back what you said)
I'll be your number one with a bullet (Take aim at myself)
A loaded gun complex, cock it and pull it

We're going down, down (down, down)
Down, down (down, down)
We're going down, down (down, down)
A loaded gun complex, cock it and pull it

We're going down, down in an earlier round (Take aim at myself)
And Sugar, we're going down swinging (Take back what you said)
I'll be your number one with a bullet (Take aim at myself)
A loaded gun complex, cock it and pull it


----------------------------------------------------
Nobody Puts Baby in the Corner
----------------------------------------------------

tabbed by:  Dave Hoppus

Intro
G I----------------------------------------------------------------------------------I
D I----------------------------------------------------------------------------------I
A I-33333333-----------33333333------------------------------------------------------I
E I----------00000000-----------00000000--1--1-1-1--1-1-1--1-1-1--1--5-555-555-555-5-I

G I------------------------------------------------------------------------------I
D I------------------------------------------------------------------------------I
A I---------------------------------------------------------------------33333333-I
E I-1--1-1-1--1-1-1--1-1-1--1--5-555-555-555-5--33333333--1-1-1-1--3333----------I

Verse
G I----------------------------------------------------------------------------I
D I----------------------------------------------------------------------------I
A I-------------333x-------------333x-------------333x---------------------33x-I
E I-3--555x--3-------3--555x--3-------3--555x--3--------33333333--33333333-----I

Pre Chorus
G I---------------------I
D I---------------------I
A I---------------------I
E I-5555--0000--1-1-1-1-I

Chorus – 3x
G I--------------------------I
D I--------------------------I
A I-3333---------------------I
E I------5555--0000--1-1-1-1-I

PAUSE

Verse Variation
G I--------------------------------------------------------------------------------------
D I--------------------------------------------------------------------------------------
A I-----333333333--------------------33333333---------------------33333333---------------
E I-333-----------333--55555555--333----------3333--55555555--333----------33333333--33333333-

Intro Variation
G I----------------------------------------------------------------------------------I
D I----------------------------------------------------------------------------------I
A I-33333333-----------33333333------------------------------------------------------I
E I----------00000000-----------00000000--1--1-1-1--1-1-1--1-1-1--1--5-555-555-555-5-I

G I-----------------------------------------------------------------------I
D I-----------------------------------------------------------------------I
A I-------------------------------------------------------------------33x-I
E I-1--1-1-1--1-1-1--1-1-1--1-5-555-555-555-5-33333333--1-1-1-1--3333-----I

Pre Chorus 
Chorus – 3x

Bridge
G I----------------------------------------------------------------------------------I
D I----------------------------------------------------------------------------------I
A I---------------------------------------------------------------------/12-12-12-12-I
E I-1x---1~--5~--1-1-1-1-1x--1-1x--55555x--55x--1-1-1-1-1x--1-1x--5555---------------I

Bridge Ending – 4x
G I-----------------------------I
D I-----------------------------I
A I-----------------------------I
E I-1-1-1-1-1-1-1-1--5555--0000-I

Then
G I------I
D I------I
A I------I
E I-1-1x-I

REST
Chorus – 5x

End
G I-----I
D I-----I
A I-----I
E I-55x-I

Lyrics:

Drink down that Gin and Kerosene,
And come spit on bridges with me, 
Just to keep us warm.
Light a match to leave me be.
Light a match to leave me be.

I keep my jealousy close, 
'Cause it's all mine.
And if you say this makes you happy, 
Then I'm not the only one lying.

[Chorus: x2]
Keep quiet,
Nothing comes as easy as you.
Can I lay in your bed all day?
I'll be your best kept secret 
And your biggest mistake.
The hand behind this pen relives a failure every day.

I keep my jealousy close, 
'Cause it's all mine.
And if you say this makes you happy, 
Then I'm not the only one lying.

Drink down that Gin and Kerosene,
And come spit on bridges with me, 
Just to keep us warm (Just to keep us warm)
Light a match to leave me be.
Light a match to leave me...

[Chorus x2]

So wear me like a locket around your throat.
I'll weigh you down. 
I'll watch you choke.
You look so good in blue.
You look so good in blue.
[x3]
[During 3rd repeat:]
(Keep quiet,
Nothing comes as easy as you.
Can I lay in your bed all day?)

[Chorus x3]


-----------------------------------------------------------------------------
Ive Got A Dark Alley And A Bad Idea That Says That You Should Shut Your Mouth (Summer Song)
-----------------------------------------------------------------------------
Tabbed by:boyan89
Email:boyan_rocks@hotmail.com

Intro
G ------------------------|
D -5555--5555--5555--5555-|
A ------------------------|
E ------------------------|

Verse – 2x
G -------------------------------------------------------|
D -------------------------------------------------------|
A -------------------------------------------------------|
E -0000--1-1-1-1--0000--1-1-1-1--0000--1-1-1-1--33333333-|

Pre Chorus – 3x
G ------------|
D ------------|
A ------------|
E -0~--1~--3~-|

Chorus
G ---------------------------------------------------|
D ---------------------------------------------------|
A ---------------333-0-------------------------------|
E -1-1-1-1--5555-------3333--0000--1-1-1-1--33333333-|

G ----------------------------------------------------|
D ----------------------------------------------------|
A ----------------333-0-------------------------------|
E --5555--1-1-1-1-------3333--0000--1-1-1-1--33333333-|


Bridge – 2x
G -------------------------|
D -------------------------|
A -------------------------|
E -0000--1-1-1-1--33333333-|

Verse

Verse Variation
G -----------------------------------------------------------------|
D -----------------------------------------------------------------|
A ----------------------------------------------------/10-10-10-10-|
E -0000--1-1-1-1--0000--1-1-1-1--0000--1-1-1-1--3333---------------|

Pre Chorus – 2x

Chorus Variation
G ------------------------------------------------------------|
D ------------------------------------------------------------|
A ---------------333-0---------------------------/10-10-10-10-|
E -1-1-1-1--5555-------3333--0000--1-1-1-1--3333--------------|

G -----------------------------------------------------------|
D -----------------------------------------------------------|
A ---------------333-0--------------------------/10-10-10-10-|
E -5555--1-1-1-1-------3333-0000--1-1-1-1--3333--------------|

Bridge – 5x

End
G ----
D ----
A -3~-
E ----

Lyrics:

Joke me something awful just like kisses on the necks of "best friends"*
We're the kids who feel like dead ends
And I want to be known for my hits, not just my misses
I took a shot and didn't even come close
At trust and love and hope
And the poets are just kids who didn't make it
And never had it at all

And the record won't stop skipping
And the lies just won't stop slipping
And besides my reputation's on the line
We can fake it for the airwaves
Force our smiles, baby, half dead
From comparing myself to everyone else around me

Please put the doctor on the phone 'cause I'm not making any sense
Blame everyone but me for this mess
And my back has been breaking from this heavy heart
We never seemed so far
I'm hopelessly hopeful, you're just hopeless enough
But we never had it at all

And the record won't stop skipping
And the lies just won't stop slipping
And besides my reputation's on the line
We can fake it for the airwaves
Force our smiles, baby, half dead
From comparing myself to everyone else around me
to everyone else around me
everyone else around me
everyone else around me


-----------------------------------------------------------------------------
                       7 Minutes In Heaven (Atavan Halen-Fall Out Boy
-----------------------------------------------------------------------------

tabed by: boyan89
email: boyan_rocks@hotmail.com

Intro x2
G  -------------------------|
D  -------------------------|
A  2222---------------------|
E  -----2-0000-2-44-2200h2--|

Verse

G  -----------------------------------------------------------------------------|
D  -----------------------------------------------------------------------------|
A  222222222222222-44444444444444444------------------2222222222222222----------|
E  ----------------------------------0000000000000000---------------------------|

G  -----------------------------------------------------------------------------|
D  -----------------------------------------------------------------------------|
A  222222222222222-44444444444444444--------------------------------------------|
E  ----------------------------------0000000000000000-0000000000000000----------|


Pre Chorus

G  -----------------------|
D  -----------------------|
A  22---------------------|
E  ---2-00-2-44-200000002-|

G  -------------------------|
D  -------------------------|
A  2222---------------------|
E  -----2-0000-2-44-2200h2--|

Chorus:  x4

G  --------------------|
D  --------------------|
A  22------------------|
E  ---2-00-2-44-20-0h2-|

Intro x2

Verse

G  -----------------------------------------------------------------------------|
D  -----------------------------------------------------------------------------|
A  222222222222222-44444444444444444------------------2222222222222222----------|
E  ----------------------------------0000000000000000---------------------------|

G  -----------------------------------------------------------------------------|
D  -----------------------------------------------------------------------------|
A  222222222222222-44444444444444444--------------------------------------------|
E  ----------------------------------0000000000000000-0000000000000000----------|

Pre Chorus

G  -----------------------|
D  -----------------------|
A  22---------------------|
E  ---2-00-2-44-200000002-|

G  -------------------------|
D  -------------------------|
A  2222---------------------|
E  -----2-0000-2-44-2200h2--|


G  --------------------|
D  --------------------|
A  22------------------|
E  ---2-00-2-44-20-0h2-|

Bridge

G  --------------------------------------------------------------------|
D  --------------------------------------------------------------------|
A  222222222222222-44444444444444444-7777777777777777-2222222222222222-|
E  --------------------------------------------------------------------|

G  --------------------------------------------------------------------|
D  --------------------------------------------------------------------|
A  222222222222222-44444444444444444-7777777777777777-7777777777777777-|
E  --------------------------------------------------------------------|

Ending

G  --------------------|
D  --------------------|
A  22X-----------------|
E  ----22X-44-00-2222--|

G  ----------------------|
D  ----------------------|
A  22--------------------|
E  ---2-00-2-44-22-00-22-|

Lyrics:

I'm sleeping my way out of this one
With anyone who will lie down
I'll be stuck fixated on one star
When the world is crashing down

I keep telling myself
I keep telling myself
I'm not the desperate type
But you've got me looking in through blinds
I keep telling myself
I keep telling myself
I'm not the desperate type

Sitting out dances on the wall
Trying to forget everything that isn't you
I'm not going home alone
Cause I don't do too well
Sitting out dances on the wall
Trying to forget everything that isn't you
I'm not going home alone
Cause I don't do too well on my own

The only thing worse than not knowing
Is you thinking that I don't know
I'm having another episode
I just need a stronger dose

I keep telling myself
I keep telling myself
I'm not the desperate type
But you've got me looking in through blinds
I keep telling myself
I keep telling myself
I'm not the desperate type

Sitting out dances on the wall
Trying to forget everything that isn't you
I'm not going home alone
Cause I don't do too well
Sitting out dances on the wall
Trying to forget everything that isn't you
I'm not going home alone
Cause I don't do too well on my own

I keep telling myself
I keep telling myself
I'm not the desperate type
But you've got me looking in through blinds
I keep telling myself
I keep telling myself
I'm not the desperate type

Sitting out dances on the wall
Trying to forget everything that isn't you
I'm not going home alone
Cause I don't do too well on my own

-------------------------------------------------------------------------------
			     Sophomore Slump Or Comeback Of The Year - Fall Out Boy
-------------------------------------------------------------------------------

Tabbed By : Dave Hoppus
e-mail: davehoppus@hotmail.com

Tuning: Normal - G D A E 


\"W\'re the therapists...\"
G  :------------------|
D: :------------------|
A  :------------22222-|
E  :-44-2-0-22-2------| x8

Pre Chorus

\"I\'ll keep singing this lie...\"
G  :------------------|-------------------|
D  :------------------|-------------------|
A  :------------------|----------22222222-|
E  :44444444-22222222-|-00000000----------|

G  :------------------|-------------------|
D  :------------------|-------------------|
A  :------------------|-------------------|
E  :44444444-22222222-|-00000000-22222222-|

Chorus

\"Are we growing up..\"
G  :------------------|--------------------|
D  :------------------|--------------------|
A  :22222222-11111111-|--------------------|
E  :------------------|-00000000-4444-2222-|

Chorus

G  :-------------------|--------------------|
D  :-------------------|--------------------|
A  :22222222-11111111X-|--------------------|
E  :-------------------|-00000000-4444-2222-|

Verse
X a bunch

G  :------------------|
D: :------------------|
A  :------------22222-|
E  :-44-2-0-22-2------|

Pre Chorus

\"Cuz I\'ll keep singing...\"
G  :------------------|-------------------|
D  :------------------|-------------------|
A  :------------------|-------------------|
E  :44444444-22222222-|-00000000-22222222-|


Chorus
x4

G  :------------------|--------------------|
D  :------------------|--------------------|
A  :22222222-11111111-|--------------------|
E  :------------------|-00000000-4444-2222-|

G  :-------------------|--------------------|
D  :-------------------|--------------------|
A  :22222222-11111111X-|--------------------|
E  :-------------------|-00000000-4444-2222-|

G  :-------------------|--------------------|
D  :-------------------|--------------------|
A  :22222222-11111111X-|--------------------|
E  :-------------------|-00000000-4444-2222-|

G  :-------------------|--------------------|
D  :-------------------|--------------------|
A  :22222222-11111111X-|--------------------|
E  :-------------------|-00000000-4444-2222-|

G  :-------------------|
D  :-------------------|
A  :-2~----------------|
E  :-------------------|

Bridge:

(strum lightly)
G  :-------------------|
D  :-------------------|
A  :-2-----------------|
E  :-------------------|

\"so give in...\"         \"the best part....\"
G  :-------------------|-------------------|
D  :-------------------|-------------------|
A  :-------------------|-22222222-22222222-|
E  :-00000000-22222222-|-------------------|


G  :-------------------|-------------------|
D  :-------------------|-------------------|
A  :-22222222-22222222-|-------------------|
E  :-------------------|-00000000-22222222-|


Chorus

\"Are we growing up..\"  \"DOWN!!!!!!\"
G  :------------------|--------------------|
D  :------------------|--------------------|
A  :-2~-1~------------|--------------------|
E  :------------------|-00000000-4444-2222-|

Last Chorus:

G  :------------------|--------------------|
D  :------------------|--------------------|
A  :22222222-11111111-|--------------------|
E  :------------------|-00000000-4444-2222-|

G  :-------------------|--------------------|
D  :-------------------|--------------------|
A  :22222222-11111111X-|--------------------|
E  :-------------------|-0~---------------


Lyrics:

Are we growing up or just going down?
It's just a matter of time until we're all found out
Take our tears, put them on ice
Cause I swear I'd burn this city down to show you the light

We're the therapists pumping through your speakers
Delivering just what you need
We're well read and poised 
We're the best boys
We're the chemists who've found the formula
To make your heart swell and burst
No matter what they say, don't believe a word

Cause I'll keep singing this lie if you'll keep believing it
I'll keep singing this lie 
I'll keep singing this lie 

Are we growing up or just going down?
It's just a matter of time until we're all found out
Take our tears, put them on ice
Cause I swear I'd burn this city down to show you the light

We're traveled like gypsies
Only with worse luck and far less gold
We're the kids you used to love
But then we grew old
We're the lifers here till the bitter end
Condemned from the start
Ashamed of the way 
The songs and the words own the beating of our hearts

Cause I'll keep singing this lie
I'll keep singing this lie

Are we growing up or just going down?
It's just a matter of time until we're all found out
take our tears, put them on ice
Cause I swear I'd burn this city down to show you the light
There's a drug in the thermostat to warm the room up
And there's another around to help us bend your trust
I've got a sunset in my veins
And I need to take a pill to make this town feel okay

The best part of "Believe" is the "Lie",
I hope you sing along and you steal a line
I need to keep you like this in my mind
So give in or just give up 
[x2]

Are we growing up or just going down?

Are we growing up or just going down?
It's just a matter of time until we're all found out
Take our tears, put them on ice
Cause I swear I'd burn this city down to show you the light


----------------------------------------------------------------------------- 
Champagne for My Real Friends, Real Pain for My Sham Friends - Fall Out Boy
-----------------------------------------------------------------------------

Tabbed By : Matt  peguinbass
e-mail: snwbrd5830@aol.com

Tuning: D,A,D,G

Intro X4
G|----------------------------------|
D|----------------------------------|
A|---55h7-7-------------------------|
D|----------------------------------|

Verse
G|----------------------------------|
D|----------------------------------|
A|--00000--55555-------00000--------|
D|---------------55555--------------|

G|----------------------------------|
D|----------------------------------|
A|--00000--55555--------333222------|
D|---------------55555--------------|

G|----------------------------------|
D|----------------------------------|
A|--00000--55555-------00000--------|
D|---------------55555--------------|

G|----------------------------------|
D|----------------------------------|
A|--00000--55555--------------------|
D|---------------5/17---------------|

PreChorus
G|----------------------------------|
D|----------------------------------|
A|--0000--5555-------0000-----------|
D|-------------5555-----------------|

G|----------------------------------|
D|----------------------------------|
A|--0000--5555------3322------------|
D|-------------5555-----------------|

G|----------------------------------|
D|----------------------------------|
A|--0000--5555-------0000-----------|
D|-------------5555-----------------|

G|----------------------------------|
D|----------------------------------|
A|--0000--5555--1~------------------|
D|----------------------------------|

Chorus
G|----------------------------------|
D|----------------------------------|
A|--33333333--22222222--------------|
D|---------------------33333333-----|

G|----------------------------------|
D|----------------------------------|
A|--00000000------------------------|
D|------------55555555--33333333----|

G|----------------------------------|
D|----------------------------------|
A|--3-3-3--2-2-2--------------------|
D|---------------3-3-3-3-3-3--------|

G|----------------------------------|
D|----------------------------------|
A|--0-0-0---------------------------|
D|--------5-5-5--333333-------------|

Intro X4
G|----------------------------------|
D|----------------------------------|
A|--55h7-7--------------------------|
D|----------------------------------|

Verse
G|----------------------------------|
D|----------------------------------|
A|--00000--55555-------00000--------|
D|---------------55555--------------|

G|----------------------------------|
D|----------------------------------|
A|--00000--55555--------333222------|
D|---------------55555--------------|

G|----------------------------------|
D|----------------------------------|
A|--00000--55555-------00000--------|
D|---------------55555--------------|

G|----------------------------------|
D|----------------------------------|
A|--00000--55555--------------------|
D|---------------5/17---------------|

PreChorus
G|----------------------------------|
D|----------------------------------|
A|--0000--5555-------0000-----------|
D|-------------5555-----------------|

G|----------------------------------|
D|----------------------------------|
A|--0000--5555------3322------------|
D|-------------5555-----------------|

G|----------------------------------|
D|----------------------------------|
A|--0000--5555-------0000-----------|
D|-------------5555-----------------|

G|----------------------------------|
D|----------------------------------|
A|--0000--5555--1~------------------|
D|----------------------------------|

Chorus 
G|----------------------------------|
D|----------------------------------|
A|--33333333--22222222--------------|
D|---------------------33333333-----|

G|----------------------------------|
D|----------------------------------|
A|--00000000------------------------|
D|------------55555555--33333333----|

G|----------------------------------|
D|----------------------------------|
A|--3-3-3--2-2-2--------------------|
D|---------------3-3-3-3-3-3--------|

G|----------------------------------|
D|----------------------------------|
A|--0-0-0---------------------------|
D|--------5-5-5--333333-------------|

Bridge X2
G|----------------------------------|
D|----------------------------------|
A|--33333333--22222222--------------|
D|---------------------33333333-----|

G|----------------------------------|
D|----------------------------------|
A|--00000000------------------------|
D|------------55555555--33333333----|

Chorus 
G|----------------------------------|
D|----------------------------------|
A|--33333333--22222222--------------|
D|---------------------33333333-----|

G|----------------------------------|
D|----------------------------------|
A|--00000000------------------------|
D|------------55555555--33333333----|

G|----------------------------------|
D|----------------------------------|
A|--3-3-3--2-2-2--------------------|
D|---------------3-3-3-3-3-3--------|

G|-----------------------------------------|
D|-----------------------------------------|
A|--0-0-0----------------------------------|
D|--------5-5-5--3-3-3-3-3---3-3-3-3-3-----|


Lyrics:

You are a getaway car, a rush of blood to the head
But me, I'm just the covers on top of your bed
You steer away in a rear view mirror, you make my head swim
I keep you warm and won't ask you where you've been

With your backless black dress soaked to the skin
When it's said and done they're all scrambling
And we're friends, we're friends
Just because we move units

Strike us like matches, cause everyone deserves the flames
We only do it for the scars and stories, not the fame
At least everyone is trying, everyone is shining
Everyone deserves the flames but it's such a shame
Such a shame

The sounds of this small town make my ears hurt (make my ears hurt)
Oh yeah, you caught me. But I caught you one worse
They say, "You want a war? You've got a war."
But who are you fighting for?
The tides out, the ship's run aground
We drown traitors in shallow water

With your backless black dress soaked to the skin
When it's said and done they're all scrambling
And we're friends, we're friends
Just because we move units

Strike us like matches, cause everyone deserves the flames
We only do it for the scars and stories, not the fame
At least everyone is trying, everyone is shining
Everyone deserves the flames but it's such a shame
Such a shame

Everyone is trying, everyone is shining
Everyone deserves the flames but it's such a shame
Such a shame

Strike us like matches, cause everyone deserves the flames
We only do it for the scars and stories, not the fame
At least everyone is trying, everyone is shining
Everyone deserves the flames but it's such a shame
Such a shame

------------------------------------------------------------------
I slept with someone in fall out boy and all i got was this stupid
 song written about me
------------------------------------------------------------------
Artist: Fall Out Boy
Song: I Slept With Someone In Fall Out Boy And All I Got Was This 
Stupid Song Written Me
Album: From Under The Cork Tree 
Tuning: Drop D (D A D G)

* - hold note
  tabbed by:scig
Hey this is what i could get, i couldn't pick up every note, but
 I tried my best!

Intro
G--------------|
D--------------|
A-------22*----|2x
D-2*-5*--------|

Pause for a bit

Pre-Verse (x2)
G--------------------|-----------------|
D--------------------|-----------------|
A-222----------------|-222-555---------|
D-----000-555-000----|---------555-000-|

Verse (x4)
G-------------------------------------|
D-------------------------------------|
A-22222222----------55555555----------|
D----------00000000----------55555555-|

Pre-Chorus (x1)
G---------|
D---------|
A---------|
D-2*-5*---|

Chorus (x2)
G------------------------------------------|------------------------------|
D------------------------------------------|------------------------------|
A-2-2-2-2-2-----------5-5-5-5--------------|-2-2-2-2-0000-----------------|
D-----------0-0-0-0-0---------2-3-3-3-3-3-3|------------------5xxxx-5xxxx-|

Pre Verse (x2)

Verse (x4)


Verse 2 pt 2 (x4)
G-----------------------|
D-----------------------|
A-2xxx------5xxx--------|
D------0xxx------5xxx---| On the last time let the G (5th fret on the Low D
                          string) ring out until the pre-chorus

Pre-Chorus (x1)

Chorus

Bridge
G--------------------------------|
D--------------------------------|
A---------22x-r-22x-r-22x--------|
D-2*--5*------------------2*--5*-|

Bridge Cont (x3) (Play the ! notes harder, you can hear it in the song)
G------------------|
D-!!---------------|
A-22222222-22222222|
D------------------|

Pre-Chorus (x1)

Then Verse 2 Pt 2 (x4)(Under the screaming and the 'I found the cure for growing older...')

Finally, Chorus x4, but on the very last bit it changes to-
G----------------|
D----------------|
A-2222-----------|
E------5555---5x-|

Lyrics:

I found the cure to growing older
And you're the only place that feels like home
Just so you know, you'll never know
And some secrets weren't meant to be told
But I found the cure to growing older

I'm the first kid to write of hearts, lies, and friends
And I am sorry my conscience called in sick again
And I've got arrogance down to a science
Oh, and I'm the first kid to write of hearts, lies, and friends

[Chorus: x2]
Douse yourself in cheap perfume it's
So fitting, so fitting of the way you are
You can't cover it up
Can't cover it up

Find a safe place, brace yourself, bite your lips
I'm sending your fingernails and empty bottles you've sipped
Back to your family cause I know you will be missed
So you can find a safe place, brace yourself

They call kids like us vicious and carved out of stone
But for what we've become, we just feel more alone
Always weigh what I've got against what I left
So progress report: I am missing you to death

[Chorus: x2]
Douse yourself in cheap perfume it's
So fitting, so fitting of the way you are
You can't cover it up
Can't cover it up

Someone old
No one new
Feeling borrowed
Always blue
Someone old
No one new
Feeling borrowed
Always blue
Someone old
No one new
Feeling borrowed
Always blue
Someone old
No one new
Always borrowed
Always you

I found a cure to growing older
I found a cure to growing older

[Chorus: x2]
Douse yourself in cheap perfume it's
So fitting, so fitting of the way you are
You can't cover it up
Can't cover it up

-------------------------------------------------------
A little Less Sixteen Candles, A Little More "Touch Me"
-------------------------------------------------------

by ctigers92

Artist: Fall Out Boy
Song:	A Little Less Sixteen Candles, A little more “Touch Me”

Intro: 2x
G I---------------------------------------------------I
D I---------------------------------------------------I
A I-55------------------------55----------------------I
E I----2-333333--33-5-777777------2-333333-I-33333333-I

REST

Pre Verse
G I-----I
D I-----I
A I-55x-I
E I-----I

Verse
G I---------------------------------------I
D I---------------------------------------I
A I-55555555--77777777--------------------I
E I---------------------7777777--33333333-I

Pre Chorus
G I----------------------I
D I----------------------I
A I----------------------I
E I-3333--7777--33333333-I

Chorus
G I-------------------------------------------------I
D I-------------------------------------------------I
A I-55------------------------55--------------------I
E I----2-333333--33-5-777777-----2-333333--7-5-3333-I



Ending Chorus
G I---------------------------------------I
D I---------------------------------------I
A I-55-----------------------55-----------I
E I----2-33333--33-5-777777------2-33333x-I

Intro

Verse: 2x

Verse
G I----------------------------------------------------------I
D I----------------------------------------------------------I
A I-55x--555x--5-77x--777x--7-99x--999x--9-10-10x--10-10-10x-I
E I----------------------------------------------------------I

Pre Chorus
G I-------------------I
D I-------------------I
A I-------------------I
E I-333--7777--33333x-I

Chorus: 2x

Bridge
G I---------------------------------------------------------I
D I---------------------------------------------------------I
A I---------------------------------------------------------I
E I-222x--333x--000x--00x--555x--333x--222x--22x--333x--33x-I

G I------------------------------------------------------I
D I------------------------------------------------------I
A I---------------------------------------------------5~-I
E I-000x--00x--555x--333x --222x--22x--333x--33x-5-7-----I

Chorus:  2x
Intro
Chorus Ending


If there is any problems email me at ctigers92@yahoo.com
~zack


Lyrics:

I confess, I{'m just} messed up 
dropping "I'm sorry" like you're still around
And I know you dressed up
{said} "hey kid you'll never live this down"

'Cause you're just the girl all the boys want to dance with
And I'm just the boy who's had too many chances

I'm sleeping on your folk's porch again, dreaming
She said, she said, she said, "Why don't you just drop dead?"

I don't blame you for being you
But you can't blame me for hating it
So say, what are you waiting for?
Kiss her, kiss her
I set my clocks early 'cause I know I'm always late

Write me off, give up on me 
Cause darling, what did you expect
I'm just off a lost cause 
a long shot, don't even take this bet

You can make all the moves, you can aim all the spotlights
Get all the sighs and the moans just right

I'm sleeping on your folk's porch again, dreaming
She said, she said, she said, "Why don't you just drop dead?"

I don't blame you for being you
But you can't blame me for hating it
So say, what are you waiting for?
Kiss her, kiss her
I set my clocks early 'cause I know I'm always late

(always on, always on)
You said you'd keep me honest
(always on, always on)
But I won't call you on it
(always on, always on)

I don't blame you for being you
But you can't blame me for hating it
So say, what are you waiting for?
Kiss her, kiss her
I set my clocks early 'cause I know I'm always late

I set my clocks early 'cause I know I'm always late


[In the {} are lyrics from CD cover that are not actually sung]

------------------------------------------------------------------------------------------------------
Get Busy living Or Get Busy Dying (Do Your Part To Save The Scene And Stop Going To Shows)
------------------------------------------------------------------------------------------------------

I couldn't find it anywhere on the net and I plan on doing it myself 
seeing as how I didn't tab any of these
 
I will get it up as soon as I can but here are the lyrics anyway

Lyrics:


This has been said so many times that I'm not sure if it matters
But we never stood a chance
And I'm not sure if it matters
If you are the shores, I am the waves begging for big moons
I’m mailing letters to addresses in a ghost town
(your secret's out)

I know this hurts, it was meant to (it was meant to)
Your secret's out and the best part is it isn't even a good one
And it's mind over you don't, don't matter

This has been said so many times that I'm not sure if it matters
But it must be said again that all us boys are just screaming
Into microphones for attention 
Because we're just so bored
We never knew that you would pick it apart, oh
I'm falling apart to songs about hips and hearts
(your secret's out)

I know this hurts, it was meant to (it was meant to)
Your secret's out and the best part is it isn't even a good one
And it's mind over you don't, don't matter

I used to obsess over living,
Now I only obsess over you
Tell me you'd like boys like me better
In the dark lying on top of you
This has been said so many times that I'm not sure if it matters [x4]

I know this hurts, it was meant to (it was meant to)
Your secret's out and the best part is it isn't even a good one
And it's mind over you don't, don't, don't, don't matter

[Talking:]
From day one I talked about getting out
But not forgetting about
How my worst fears are letting out
He said why put a new address
On the same old loneliness
When breathing just passes the time
Until we all just get old and die
Now talking's just a waste of breath
And living's just a waste of death
And why put a new address 
On the same old loneliness
And this is you and me
And me and you
Until we've got nothing left
-----------------------------------------------------------------------------
			     Xo - Fall Out Boy
-----------------------------------------------------------------------------
Tabbed by:boyan89
Email:

Chorus x2 (0:18 until 0:33) 
G|---------------------------------------------------------------------------|
D|---------------------------------------------------------------------------|
A|-------------------2-4-5-4-------------------------------------------------|
E|-33333333-00000000---------5555-2222-------------------------------------|

Pre Verse x1 (0:33 until 0:40)
G|---------7-7-7-7-6---------------------------------------------------------|
D|-------7-----------7-------------------------------------------------------|
A|-555-7---------------------------------------------------------------------|
E|---------------------------------------------------------------------------|

Verse x4 (0:40 until 1:09) 
G|---------------------------------------------------------------------------|
D|---------------------------------------------------------------------------|
A|----------55555555---------------------------------------------------------|
E|-77777777----------00000000-77777777---------------------------------------|

Pre Chorus (1:09 until 1:24)  (>> Strum, you'll hear the change)
G|---------------------------------------------------------------------------|
D|---------------------------------------------------------------------------|
A|-2>>-----------2>>-----------2>>-------------------------------------------|
E|-----3333-0000-----3333-0000-----3-----------------------------------------|

Chorus x2 (1:27 until 1:42)
Pre Verse x1 (1:42 until 1:49)
Verse x3 (1:49 until 2:20)

Verse  x1 (2:11 until 2:20)
G|---------------------------------------------------------------------------|
D|---------------------------------------------------------------------------|
A|---------5555555555555555--------------------------------------------------|
E|-7777777------------------55555555-----------------------------------------|

Bridge x1 (2:20 until 3:02)
G|---------------------------------------------------------------------------|
D|---------------------------------------------------------------------------|
A|-REST-----2>>-----------5>>>>----------------------------------------------|
E|------3>>-----0>>-3>>>>-------3>>>>----------------------------------------|

Bridge Continued (3:02 until End)
G|---------------------------------------------------------------------------|
D|---------------------------------------------------------------------------|
A|-2>>-----2>>-----2>>-------------------------------------------------------|
E|-----0>>-----0>>-----0>>-3~------------------------------------------------|

`ring out


Lyrics:  

I comb the crowd and pick you out
My mouth moves too fast for you to figure it out
It starts eyes closed to fingers crossed
"To I swear, I say"
"To I swear, I say"

To hands between legs, to "whatever it takes"
To drinks at the club to the bar
To the keys to your car
To hotel stairs to the emergency exit door

To the love, I left my conscience pressed
Between the pages of the Bible in the drawer
"What did it ever do for me" I say (I say, I say, I say)
It never calls me when I'm down
Love never wanted me
But I took it anyway
Put your ear to the speaker
And choose love or sympathy
But never both
Love never wanted me

"I hoped you choked
And crashed your car"
Hey "tear catcher", that's all that you are
And ever were
From the start
I swear, I say
I swear, I say

To hands between legs, to "whatever it takes"
To drinks at the club to the bar
To the keys to your car
To hotel stairs to the emergency exit door

To the love, I left my conscience pressed
Between the pages of the Bible in the drawer
"What did it ever do for me" I say
It never calls me when I'm down
Love never wanted me
But I took it anyway
Put your ear to the speaker
And choose love or sympathy
But never both, no

To the love I left my conscience pressed
Through the keyhole I watched you dress
Kiss and tell
(Loose lips sink ships)

To the love I left my conscience pressed
Through the keyholes I watched you dress
Kiss and tell
(Loose lips sink ships)
[x2]

To the love I left my conscience pressed [x3]
Between the pages of the Bible in the drawer
"What did it ever do for me" I say



album tab by:
	 gutiar-pro_92


Please please rate it and tell me if you found it useful.  see ya later .  BYE!!!!!!!!!!!!!!!!!!!!



==================================================================================================
3 comments total.
0 reply
LOVECANTSAVEYOU wrote on January 20 2007, 04:37 pm

i play sugar wayyy differently and it sounds perfect to me. i dunno i got it from a diff site then i started getting my tabs here. but thats how i play it not like the tab here.

0 reply
NadiaReed wrote on March 8 2007, 04:09 pm

its a gud tab! but am not 2 sure about the 7minutes in heaven tab, i play it alot different, and tryd ur way doesnt sound rite bt dats jus my opinion isnt it? da rest is gud though!

0 reply
happyman1990 wrote on November 29 2008, 05:18 pm

guy fall out boy plays all in Drop D, but a lot isn't...

I want to post or [tab]
guest
You may want to rate the tab now too:
select rating
Please do not post tabs as comments. Select "correction" instead!