Oops, an error
Loading. Please wait.

From Under The Cork Tree Tab

ver1
ver1

Album

More versions @911Tabs.com
42,521 views 45 this week
14 commentsread comments
1 2 3 4 5
accurate
x 21
Autoscroll
+/-
esc
set tempo
stop
Contributor
Hey! There's an official Ultimate Guitar app which is ideal
for learning songs when you're away from computer. Get the app
WARNING: You are trying to view
                                    content from Ultimate-Guitar.com
                                    in an unauthorized application,
                                    which is prohibited.

                                    Please use an official Ultimate
                                    Guitar Tabs application for iPhone,
                                    iPad or Android to access legitimate
                                    chords, guitar, bass, and drum tabs
                                    from Ultimate-Guitar.com database.

                                    Type "ultimate guitar tabs" in Apple
                                    App Store's or Android Market's
                                    search to find the application.
From Under The Cork Tree

1. Our Lawyer Made Us Change The Name Of This Song So We Wouldn't Get Sued 
2. Of All The Gin Joints In All The World 
3. Dance, Dance 
4. Sugar We're Going Down 
5. Nobody Puts Baby In The Corner 
6. I've Got A Dark Alley And A Bad Idea That Says You Should Shut Your Mouth 
7. 7 Minutes In Heaven  
8. Sophomore Slump Or Comeback Of The Year 
9. Champagne For My Real Friends, Real Pain For My Sham Friends 
10. I Slept With Someone In Fall Out Boy And All I Got Was This Stupid Song Written About Me 
11. A Little Less Sixteen Candles, A Little More "Touch Me" 
12. Get Busy Living Or Get Busy Dying 
13. XO 
============================================================================
Artist: Fall Out Boy
Song: Our Lawyer Made Us Change The Name Of This Song So We Wouldn't Get Sued
Tuning: Drop D

Tabbed By: Stephen Adams 

H: hammer on 
*: palm mute 
/: slide  


Intro Lead
e|------------------------------------------------|
B|------------------------------------------------|
G|-9/10101010101010--9/10101010—-9/10101010-------|
D|-x/x-x-x-x-x-x-x—--x/x-x-x-x---x/x-x-x-x--------|
A|-7/8-8-8-8-8-8-8—--7/8-8-8-8---7/8-8-8-8--------|
D|------------------------------------------------|


Intro Rhythm 
e|------------------------------------------------|
B|------------------------------------------------|
G|------------------------------------------------|
D|-0000000000000000-88888888-55555555-------------|
A|-0000000000000000-88888888-55555555-------------|
D|-0000000000000000-88888888-55555555-------------|


Verse 1 "brothers and sisters..."
e|------------------------------------------------|
B|------------------------------------------------|
G|-2-2-2-2--2-2-2-2--2-2-2-2----------------------|
D|-3-3-3-3--3-3-3-3--3-3-3-3--55-77-88-10-10------|
A|-5-5-5-5--4-4-4-4--3-3-3-3--55-77-88-10-10------|
D|----------------------------55-77-88-10-10------|


Verse 1 Cont. Rhythm  "we will leave you..."
e|------------------------------------------------|
B|------------------------------------------------|
G|------------------------------------------------|
D|-00-77-88-77-55-77-88-10-10---------------------|
A|-00-77-88-77-55-77-88-10-10---------------------|
D|-00-77-88-77-55-77-88-10-10---------------------|


Pre Chorus Rhythm  "it's just past..."
e|------------------------------------------------|
B|------------------------------------------------|
G|-----------55555555-----------------------------|
D|-88888888--55555555--5555555555555555-----------|
A|-88888888--33333333--5555555555555555-----------|
D|-88888888------------5555555555555555-----------|


Pre Chorus Lead  "it's just past..."
e|-------8------8---------------------------------|
B|-5h6-6---6--5---6-5-----------------------------|
G|------------------------------------------------|
D|------------------------------------------------|
A|------------------------------------------------|
D|------------------------------------------------|


Pre Chorus Rhythm Cont. 
e|------------------------------------------------|
B|------------------------------------------------|
G|-----------55555555-----9/1010101010101010------|
D|-88888888--55555555—-5—-x/x-x-x-x-x-x-x-x-------|
A|-88888888--33333333--5—-7/8-8-8-8-8-8-8-8-------|
D|-88888888------------5--------------------------|


Chorus
e|------------------------------------------------|
B|------------------------------------------------|
G|------------------------------------------------|
D|-33-333-22-222-8888888888888888-----------------|
A|-33-333-33-333-8888888888888888-----------------|
D|-33-333-22-222-8888888888888888-----------------|


Chorus Cont.
e|------------------------------------------------|
B|------------------------------------------------|
G|------------------------------------------------|
D|-33-333-22-222-11111111-00000000----------------|
A|-33-333-33-333-11111111-00000000----------------|
D|-33-333-22-222-11111111-00000000----------------|


Chorus Cont.
e|------------------------------------------------|
B|------------------------------------------------|
G|----------55555555---------------------------5--|
D|-33333333-55555555-5555555555555555-33333333-5--|
A|-33333333-33333333-5555555555555555-33333333-3--|
D|-33333333----------5555555555555555-33333333----|


Pre Verse (palm mute)
e|------------------------------------------------|
B|------------------------------------------------|
G|------------------------------------------------|
D|-00-0000-0000-0000-00-88-8888-88-55-5555-55-----|
A|-00-0000-0000-0000-00-88-8888-88-55-5555-55-----|
D|-00-0000-0000-0000-00-88-8888-88-55-5555-55-----|


Verse 2  "brothers and sisters..."
e|------------------------------------------------|
B|------------------------------------------------|
G|------------------------------------------------|
D|-0-0-0-0-0-0-0-0-0-0-0-0--55-77-88-10-10--------|
A|-0-0-0-0-0-0-0-0-0-0-0-0--55-77-88-10-10--------|
D|-0-0-0-0-0-0-0-0-0-0-0-0--55-77-88-10-10--------|


Verse 2 Cont.  "were friends when..."
e|------------------------------------------------|
B|------------------------------------------------|
G|------------------------------------------------|
D|-00-77-88-77-55-77-88-10-10---------------------|
A|-00-77-88-77-55-77-88-10-10---------------------|
D|-00-77-88-77-55-77-88-10-10---------------------|


Pre Chorus Rhythm  "it's just past..."
e|------------------------------------------------|
B|------------------------------------------------|
G|-----------55555555-----------------------------|
D|-88888888--55555555--5555555555555555-----------|
A|-88888888--33333333--5555555555555555-----------|
D|-88888888------------5555555555555555-----------|


Pre Chorus Lead  "it's just past..."
e|-------8------8---------------------------------|
B|-5h6-6---6--5---6-5-----------------------------|
G|------------------------------------------------|
D|------------------------------------------------|
A|------------------------------------------------|
D|------------------------------------------------|


Pre Chorus Rhythm Cont. 
e|------------------------------------------------|
B|------------------------------------------------|
G|-----------55555555-----------------------------|
D|-88888888--55555555—-5—-55-5--------------------|
A|-88888888--33333333--5—-55-5--------------------|
D|-88888888------------5--55-5--------------------|
                          **


Chorus
e|------------------------------------------------|
B|------------------------------------------------|
G|------------------------------------------------|
D|-33-333-22-222-8888888888888888-----------------|
A|-33-333-33-333-8888888888888888-----------------|
D|-33-333-22-222-8888888888888888-----------------|


Chorus Cont.
e|------------------------------------------------|
B|------------------------------------------------|
G|------------------------------------------------|
D|-33-333-22-222-11111111-00000000----------------|
A|-33-333-33-333-11111111-00000000----------------|
D|-33-333-22-222-11111111-00000000----------------|


Chorus Cont.
e|------------------------------------------------|
B|------------------------------------------------|
G|----------55555555---------------------------5--|
D|-33333333-55555555-5555555555555555-33333333-5--|
A|-33333333-33333333-5555555555555555-33333333-3--|
D|-33333333----------5555555555555555-33333333----|


Interlude Rhythm 
e|------------------------------------------------|
B|------------------------------------------------|
G|------------------------------------------------|
D|-0-0-0-0-0-0-0-0-0-0-0-0--55-77-88-10-10--------|
A|-0-0-0-0-0-0-0-0-0-0-0-0--55-77-88-10-10--------|
D|-0-0-0-0-0-0-0-0-0-0-0-0--55-77-88-10-10--------|


Interlude Lead
e|-----8-----8-----8-----8-----8----8-----8-------|
B|-5h6---5h6---5h6---5h6---5h6---5h6—-5h6---5-----|
G|------------------------------------------------|
D|------------------------------------------------|
A|------------------------------------------------|
D|------------------------------------------------|


Interlude End   
e|--------------------------------|
B|--------------------------------|
G|-2-2-2-2-2-2-2-2----------------|
D|-3-3-3-3-3-3-3-3—---------------|
A|-5-5-5-5-5-5-5-5----------------|
D|--------------------------------|


After Interlude  "were only liars..." 
e|----------------------------------------------------------|
B|----------------------------------------------------------|
G|-2-2-2-2--2-2-2-2--2-2-2-2--2-2-2-2---2-2-2-2--2-2-2-2--2-|
D|-3-3-3-3--3-3-3-3—-3-3-3-3--3-3-3-3---3-3-3-3--3-3-3-3--3-|
A|-5-5-5-5--4-4-4-4--3-3-3-3—-2-2-2-2---5-5-5-5--4-4-4-4--3-|
D|----------------------------------------------------------|



Ending  "were only liars..."
e|------------------------------------------------|
B|------------------------------------------------|
G|------------------------------------------------|
D|-33-333-22-222-8888888888888888-----------------|
A|-33-333-33-333-8888888888888888-----------------|
D|-33-333-22-222-8888888888888888-----------------|


Ending Cont.
e|------------------------------------------------|
B|------------------------------------------------|
G|------------------------------------------------|
D|-33-333-22-222-11111111-00000000----------------|
A|-33-333-33-333-11111111-00000000----------------|
D|-33-333-22-222-11111111-00000000----------------|


Ending Cont.
e|------------------------------------------------|
B|------------------------------------------------|
G|----------55555555------------------------------|
D|-33333333-55555555-5555555555555555-------------|
A|-33333333-33333333-5555555555555555-------------|
D|-33333333----------5555555555555555-------------|


End 
e|-------------------|
B|-------------------|
G|-------------------|
D|-3---2---8---------|
A|-3---3---8---------|
D|-3---2---8---------|
____________________________________________________________________________
Artist: Fall Out Boy
Album: From Under The Cork Tree
Song: Of All The Gin Joints In All The World
Track #: 2
Tabbed By: Steve Lanno (Stephen.Lanno@UConn.edu)

Intro:
(0:00)
e|-----------------------------------|
B|-----------------------------------|
G|-----------------------------------|
D|-3-3-3-3--5-5-5-5--7-7-7-7--10-10\-|
A|-3-3-3-3--5-5-5-5--7-7-7-7--10-10\-|
D|-3-3-3-3--5-5-5-5--7-7-7-7--10-10\-|

e|-------------------------------------|
B|-------------------------------------|
G|-------------------------------------|
D|-3-3-3-3--5-5-5-5--7-7-7-7--0-0------|
A|-3-3-3-3--5-5-5-5--7-7-7-7--0-0--5p3-|
D|-3-3-3-3--5-5-5-5--7-7-7-7--0-0------|
PM                            . .


Verse:
Guitar 1:
(0:16)
e|-----------------|-----------------|
B|-----------------|-----------------|
G|-5-5-5-5-5-5-5-5-|-5-5-5-5-5-5-5-5-|
D|-----------------|-----------------|
A|-3-3-3-3-3-3-3-3-|-3-3-3-3-3-3-3-3-|
D|-----------------|-----------------|

Guitar 2:
(0:19)
e|---------|---------|---------|------------------------------|
B|---------|---------|---------|------------------------------|
G|---------|---------|---------|------------------------------|
D|-2-2-3-3-|-2-2-3-3-|-2-2-3-3-|-7-5--2-2-2-2-3-3-3-3-3-3-3-3-| x2
A|-2-2-3-3-|-2-2-3-3-|-2-2-3-3-|-7-5--2-2-2-2-3-3-3-3-3-3-3-3-|
D|-2-2-3-3-|-2-2-3-3-|-2-2-3-3-|-7-5--2-2-2-2-3-3-3-3-3-3-3-3-|


Chorus:
(0:42)
e|--------------------------------------|
B|--------------------------------------|
G|-5-5--5-------------------------------|
D|-5-5--5-5-5--5-7p5-7--7p5-7--7-7-5-5--|
A|-3-3--3-5-5--5-7p5-7--7p5-7--7-7-5-5--|
D|--------5-5--5-7p5-7--7p5-7--7-7-5-5--|

e|--------------------------------------|
B|--------------------------------------|
G|-5-5--5-------------------------------|
D|-5-5--5--5-5--5--3-3--3-3-3-3-3-3-3-3-|
A|-3-3--3--5-5--5--3-3--3-3-3-3-3-3-3-3-|
D|---------5-5--5--3-3--3-3-3-3-3-3-3-3-|
PM                      ...............

e|--------------------------------------------------------|
B|--------------------------------------------------------|
G|-5-5-5-5-5-5-5-5----------------------------------------|
D|-5-5-5-5-5-5-5-5-5-5-5-5-5-5-5-5--7p5-7--7p5-7--7-7-5-5-|
A|-3-3-3-3-3-3-3-3-5-5-5-5-5-5-5-5--7p5-7--7p5-7--7-7-5-5-|
D|-----------------5-5-5-5-5-5-5-5--7p5-7--7p5-7--7-7-5-5-|

e|---------------------------------|
B|---------------------------------|
G|-5-5-5-5-5-5-5-5-----------------|
D|-5-5-5-5-5-5-5-5-5-5-5-5-5-5-5-5-|
A|-3-3-3-3-3-3-3-3-5-5-5-5-5-5-5-5-|
D|-----------------5-5-5-5-5-5-5-5-|


Back to Intro:
(1:02)
e|-----------------------------------|
B|-----------------------------------|
G|-----------------------------------|
D|-3-3-3-3--5-5-5-5--7-7-7-7--10-10\-|
A|-3-3-3-3--5-5-5-5--7-7-7-7--10-10\-|
D|-3-3-3-3--5-5-5-5--7-7-7-7--10-10\-|

e|-------------------------------------|
B|-------------------------------------|
G|-------------------------------------|
D|-3-3-3-3--5-5-5-5--7-7-7-7--0-0------|
A|-3-3-3-3--5-5-5-5--7-7-7-7--0-0--5p3-|
D|-3-3-3-3--5-5-5-5--7-7-7-7--0-0------|
PM                            . .


Verse 2:
Guitar 1:
(1:12)
e|-----------------|-----------------|
B|-----------------|-----------------|
G|-5-5-5-5-5-5-5-5-|-5-5-5-5-5-5-5-5-|
D|-----------------|-----------------|
A|-3-3-3-3-3-3-3-3-|-3-3-3-3-3-3-3-3-|
D|-----------------|-----------------|

Guitar 2:
(1:15)
e|---------|---------|---------|----------|-------------|---------------|
B|---------|---------|---------|----------|-------------|---------------|
G|---------|---------|---------|----------|-------------|---------------|
D|-2-2-3-3-|-2-2-3-3-|-2-2-3-3-|-7-5--2~--|-3--7-5--2~--|-3--7-5--2~--3-|
A|-2-2-3-3-|-2-2-3-3-|-2-2-3-3-|-7-5--2~--|-3--7-5--2~--|-3--7-5--2~--3-|
D|-2-2-3-3-|-2-2-3-3-|-2-2-3-3-|-7-5--2~--|-3--7-5--2~--|-3--7-5--2~--3-|

Guitar 1:
(1:31)
e|-------------------------------------------|-------|
B|-------------------------------------------|-------|
G|-5-5-5-5-7-7-7-7-9-9-9-9-10-10-10-10-------|-------|
D|--------------------------------------10\--|-3-3-3-|
A|-3-3-3-3-5-5-5-5-7-7-7-7-8--8--8--8---10\--|-3-3-3-|
D|--------------------------------------10\--|-3-3-3-|
PM                                             . . .


Chorus:
(1:36)
e|--------------------------------------|
B|--------------------------------------|
G|-5-5--5-------------------------------|
D|-5-5--5-5-5--5-7p5-7--7p5-7--7-7-5-5--|
A|-3-3--3-5-5--5-7p5-7--7p5-7--7-7-5-5--|
D|--------5-5--5-7p5-7--7p5-7--7-7-5-5--|

e|--------------------------------------|
B|--------------------------------------|
G|-5-5--5-------------------------------|
D|-5-5--5--5-5--5--3-3--3-3-3-3-3-3-3-3-|
A|-3-3--3--5-5--5--3-3--3-3-3-3-3-3-3-3-|
D|---------5-5--5--3-3--3-3-3-3-3-3-3-3-|
PM                      ...............

e|--------------------------------------------------------|
B|--------------------------------------------------------|
G|-5-5-5-5-5-5-5-5----------------------------------------|
D|-5-5-5-5-5-5-5-5-5-5-5-5-5-5-5-5--7p5-7--7p5-7--7-7-5-5-|
A|-3-3-3-3-3-3-3-3-5-5-5-5-5-5-5-5--7p5-7--7p5-7--7-7-5-5-|
D|-----------------5-5-5-5-5-5-5-5--7p5-7--7p5-7--7-7-5-5-|

e|---------------------------------|
B|---------------------------------|
G|-5-5-5-5-5-5-5-5-----------------|
D|-5-5-5-5-5-5-5-5-5-5-5-5-5-5-5-5-|
A|-3-3-3-3-3-3-3-3-5-5-5-5-5-5-5-5-|
D|-----------------5-5-5-5-5-5-5-5-|


Bridge:
(1:55)
e|------------|
B|------------|
G|-------5----|
D|-7--3--5--5-| x3
A|-7--3--3--5-|
D|-7--3-----5-|

(2:04)
e|-------------------------------------------|
B|-------------------------------------------|
G|-5-5-5-5-5-5-5-5-5-5-5-5-7-9-9-9-9-9-9-9-9-|
D|-------------------------------------------|
A|-3-3-3-3-3-3-3-3-3-3-3-3-5-7-7-7-7-7-7-7-7-|
D|-------------------------------------------|

(2:10) *Improvise along these lines*
e|-------------------------------------------|
B|-------------------------------------------|
G|-------------------------------------------|
D|---10-----10---10---10---10---10---10---10-|
A|-7------7----7----7----8----8----8----8----|
D|-----10------------------------------------|

e|---------------------------------------------|
B|---------------------------------------------|
G|---------------------------------------------|
D|----10----10----10----10---10---10---10---10-|
A|-------------------------8----8----8-----8---|
D|-10----10----10----10------------------------|

e|-------------------------------------------|
B|-------------------------------------------|
G|-------------------------------------------|
D|---10-----10---10---10---10---10---10---10-|
A|-7------7----7----7----8----8----8----8----|
D|-----10------------------------------------|

e|---------------------------------------------|
B|---------------------------------------------|
G|---------------------------------------------|
D|----10----10----10----10---10---10---10---10-|
A|-------------------------8----8----8-----8---|
D|-10----10----10----10------------------------|

(2:20)
e|-----------------------------------------|
B|-----------------------------------------|
G|-9-9-9-9-9-9-9-9-10-10-10-10-10-10-10-10-|
D|-9-9-9-9-9-9-9-9-10-10-10-10-10-10-10-10-|
A|-7-7-7-7-7-7-7-7-8--8--8--8--8--8--8--8--|
D|-----------------------------------------|


Chorus:
(2:27)
e|-----------------------------------------|
B|-----------------------------------------|
G|-5-5--5----------------------------------|
D|-5-5--5-5-5-5-5-5-7p5-7--7p5-7--7-7-5-5--|
A|-3-3--3-5-5-5-5-5-7p5-7--7p5-7--7-7-5-5--|
D|--------5-5-5-5-5-7p5-7--7p5-7--7-7-5-5--|
PM . .

e|--------------------------------------|
B|--------------------------------------|
G|-5-5--5-------------------------------|
D|-5-5--5--5-5--5--3-3--3-3-3-3-3-3-3-3-|
A|-3-3--3--5-5--5--3-3--3-3-3-3-3-3-3-3-|
D|---------5-5--5--3-3--3-3-3-3-3-3-3-3-|
PM                      ...............

e|--------------------------------------------------------|
B|--------------------------------------------------------|
G|-5-5-5-5-5-5-5-5----------------------------------------|
D|-5-5-5-5-5-5-5-5-5-5-5-5-5-5-5-5--7p5-7--7p5-7--7-7-5-5-|
A|-3-3-3-3-3-3-3-3-5-5-5-5-5-5-5-5--7p5-7--7p5-7--7-7-5-5-|
D|-----------------5-5-5-5-5-5-5-5--7p5-7--7p5-7--7-7-5-5-|

e|---------------------------------|
B|---------------------------------|
G|-5-5-5-5-5-5-5-5-----------------|
D|-5-5-5-5-5-5-5-5-5-5-5-5-5-5-5-5-|
A|-3-3-3-3-3-3-3-3-5-5-5-5-5-5-5-5-|
D|-----------------5-5-5-5-5-5-5-5-|


Outro:
(2:46)
e|------------|
B|------------|
G|-------5----|
D|-7--3--5--5-| x3
A|-7--3--3--5-|
D|-7--3-----5-|

(2:55)
e|-----------------------------------------------------|
B|-----------------------------------------------------|
G|-5-5-5-5-7-7-7-7-9-9-9-9-10-10-10-10-9-9-9-9-9-9-9-9-|
D|-----------------------------------------------------|
A|-3-3-3-3-5-5-5-5-7-7-7-7-8--8--8--8--7-7-7-7-7-7-7-7-|
D|-----------------------------------------------------|

(3:01)
e|-------------|
B|-------------|
G|-5--5-5---5~-|
D|-5--5-5-3-5~-|
A|-3--3-3-3-3~-|
D|--------3----|
____________________________________________________________________________
Artist: Fall Out Boy
Album: From Under the Cork Tree
Track: Dance, Dance (#3)
Tabbed by: Steve Lanno (Stephen.Lanno@UConn.edu)

Intro is played by drums & bass.

Verse:
(0:20)
e|-----------------|  
B|-----------------|
G|-6-4---6-4---7---|
D|-----4-----4---4-|
A|-----------------|
E|-----------------|
PM ...............

 "Weighed down with words too overdramatic.."

PreChorus:
(0:29)
e|-----------------|---------------------|
B|-----------------|---------------------|
G|-----------------|---------------------|
D|-----0-0-4-4-2-4-|---------0-0-4-4-2-4-|
A|-2-4-------------|-2-2-4-4-------------|
E|-----------------|---------------------|

 "I'm two quarters and a heart down..."

(0:37)
e|-----------------|  
B|-----------------|
G|-6-4---6-4---7---|
D|-----4-----4---4-|
A|-----------------|
E|-----------------|
PM .....
        *Release palm mute*

Chorus:
(0:39)
e|-------------|
B|-------------|
G|-4--7--------|
D|-4--7--5--4--|
A|-2--5--5--4--|
E|-------3--2--|

 "Dance, dance..."

Guitar 1:
(0:56)
e|-----------------|  
B|-----------------|
G|-6-4---6-4---7---|
D|-----4-----4---4-|
A|-----------------|
E|-----------------|
PM ...............

Guitar 2:
(0:56)
e|-----------------|
B|-----------------|
G|-------------7---|
D|-----------------|
A|-------------5---|
E|-----------------|
*Hit this A octave every time guitar 1 hits the D note. (7 on G string)*

Second Verse:
(1:05)
e|---|
B|---|
G|-4-|
D|-4-|
A|-2-|
E|---|

 "You always fold just.."

Guitar 1:
(1:07)
e|-----------------|  
B|-----------------|
G|-6-4---6-4---7---|
D|-----4-----4---4-|
A|-----------------|
E|-----------------|
PM ...............

Guitar 2:
e|-----------------|
B|-----------------|
G|-------------7---|
D|-----------------|
A|-------------5---|
E|-----------------|

 "..before you're found out."

PreChorus:
(1:13)
e|-----------------|---------------------|
B|-----------------|---------------------|
G|-----------------|---------------------|
D|-----0-0-4-4-2-4-|---------0-0-4-4-2-4-|
A|-2-4-------------|-2-2-4-4-------------|
E|-----------------|---------------------|

Chorus:
(1:30)
e|-------------|
B|-------------|
G|-4--7--------|
D|-4--7--5--4--|
A|-2--5--5--4--|
E|-------3--2--|

Bridge:
(1:47)
e|-------------------------------------------------|----------|---------|
B|-------------------------------------------------|----------|-11b-11b-|
G|-4-4-4-4-4-4-4-4-6-6-6-6-6-6-6-6-7-7-7-7-7-7-7-7-|-7--9--11-|---------|
D|-4-4-4-4-4-4-4-4-6-6-6-6-6-6-6-6-7-7-7-7-7-7-7-7-|----------|---------|
A|-2-2-2-2-2-2-2-2-4-4-4-4-4-4-4-4-5-5-5-5-5-5-5-5-|-5--7--9--|---------|
E|-------------------------------------------------|----------|---------|

e|-------------------------------------------------|----------|
B|-------------------------------------------------|----------|
G|-4-4-4-4-4-4-4-4-6-6-6-6-6-6-6-6-7-7-7-7-7-7-7-7-|-7--9--11-|
D|-4-4-4-4-4-4-4-4-6-6-6-6-6-6-6-6-7-7-7-7-7-7-7-7-|----------|
A|-2-2-2-2-2-2-2-2-4-4-4-4-4-4-4-4-5-5-5-5-5-5-5-5-|-5--7--9--|
E|-------------------------------------------------|----------|

 "Why don't you show me a little bit of spine.."

e|---------------------------------|-----------------------|--------------------------|
B|---------------------------------|----------12-11-12-14--|--------------------------|
G|-4-4-4-4-4-4-4-4-6-6-6-6-6-6-6-6-|-7--9--11--------------|--11-11-11-11-11-11-11-11-|
D|-4-4-4-4-4-4-4-4-6-6-6-6-6-6-6-6-|----------9--8--9--11--|--------------------------|
A|-2-2-2-2-2-2-2-2-4-4-4-4-4-4-4-4-|-5--7--9---------------|--9--9--9--9--9--9--9--9--|
E|---------------------------------|-----------------------|--------------------------|

 "I only want sympathy in the form of..."

Chorus:
(2:15)
e|----------|-------------|
B|----------|-------------|
G|-xxx-x-xx-|-4--7--------|
D|-xxx-x-xx-|-4--7--5--4--|
A|-xxx-x-xx-|-2--5--5--4--|
E|----------|-------3--2--|

Outro:
(2:50)
e|-----------------|  
B|-----------------|
G|-6-4---6-4---7---|
D|-----4-----4---4-|
A|-----------------|
E|-----------------|
PM ...............

*Play this 4 times, but end on the D note on the last time (7 on G string)*
____________________________________________________________________________
Tabbed by: Stephen Adams	
Email: bigsteve0788@aol.com
Song: Sugar Were Going Down
Tuning: Drop D
*=palm mute
h=hammer on 


Intro Guitar 1
e|------------------------------------------------------------|
B|------------------------------------------------------------|
G|------------------------------------------------------------|
D|-00000000-55555555-99999999-55555555------------------------|x2
A|-00000000-55555555-99999999-55555555------------------------|
D|-00000000-55555555-99999999-55555555------------------------|

Intro Guitar 2
e|------------------------------------------------------------|
B|-777-555-888-555-77-55--------------------------------------|
G|-777-777-777-777-77-77--------------------------------------|
D|------------------------------------------------------------|x2
A|------------------------------------------------------------|
D|------------------------------------------------------------|

Intro Guitar 2 Continued
e|------------------------------------------------------------|
B|-777-555-888-555-77-55-7~-----------------------------------|
G|-777-777-777-777-77-77-7~-----------------------------------|
D|------------------------------------------------------------|
A|------------------------------------------------------------|
D|------------------------------------------------------------|

Verse 1 Guitar 1 "Lie in the grass..."
e|------------------------------------------------------------|
B|------------------------------------------------------------|
G|-7-7-7-7--7-7-7-7-------------------------------------------|
D|-x-x-x-x--x-x-x-x-------------------------------------------|x4
A|-5-5-5-5--7-7-7-7-------------------------------------------|
D|------------------------------------------------------------|

Verse 1 Guitar 2  "Lie in the grass..."
e|------------------------------------------------------------|
B|------------------------------------------------------------|
G|------------------------------------------------------------|
D|-77-7-7h9-7------7h9-7--------------------------------------|
A|-55-5-5---5---7h9-----7-------------------------------------|
D|------------------------------------------------------------|
   ** 

Verse 1 Guitar 2 Continued
e|------------------------------------------------------------|
B|------------------------------------------------------------|
G|------------------------------------------------------------|
D|-7-7-7h9-7------7h9-7---------------------------------------|x3
A|-5-5-5---5---7h9-----7--------------------------------------|
D|------------------------------------------------------------|

Pre Chorus "Drop a heart..." (palm mute)
e|--------------------------------------------------------------------|
B|--------------------------------------------------------------------|
G|--------------------------------------------------------------------|
D|-000000-55555555-777777-99999999-101010101010-99999999-555555555555-|
A|-000000-55555555-777777-99999999-101010101010-99999999-555555555555-|
D|-000000-55555555-777777-99999999-101010101010-99999999-555555555555-|
   
Chorus
e|--------------------------------------------------------------------|
B|--------------------------------------------------------------------|
G|--------------------------------------------------------------------|
D|-0000000000000000-5555555555555555-999999999999999-5555555555555555-|
A|-0000000000000000-5555555555555555-999999999999999-5555555555555555-|
D|-0000000000000000-5555555555555555-999999999999999-5555555555555555-|

Chorus Continued
e|------------------------------------------------------------|
B|------------------------------------------------------------|
G|-----777-----777-----777-----777----------------------------|
D|-000-xxx-000-xxx-555-xxx-555-xxx----------------------------|
A|-000-555-000-555-555-555-555-555----------------------------|
D|-000-----000-----555-----555--------------------------------|

Chorus Continued
e|------------------------------------------------------------|
B|------------------------------------------------------------|
G|-----111111-----111111-----777-----777----------------------|
D|-999-x-x-x--999-x-x-x--555-xxx-555-xxx----------------------|
A|-999-9-9-9--999-9-9-9--555-555-555-555----------------------|
D|-999--------999--------555-----555--------------------------|

Pre Verse
e|------------------------------------------------------------|
B|------------------------------------------------------------|
G|------------------------------------------------------------|
D|-0000-0-00-555-555-55-55-7777-7-999-999-99-99-10101010-10---|
A|-0000-0-00-555-555-55-55-7777-7-999-999-99-99-10101010-10---|
D|-0000-0-00-555-555-55-55-7777-7-999-999-99-99-10101010-10---|
   ****   ** *** *** *  *  ****   *** *** *  *  ********

Pre Verse Continued
e|-------------------------------------------------------------|
B|-------------------------------------------------------------|
G|---------------------7~--------------------------------------|
D|-999-999-99-99---5~--7~--------------------------------------|
A|-999-999-99-99---5~--5~--------------------------------------|
D|-999-999-99-99---5~------------------------------------------|
   *** *** *  *

Verse 2 Guitar 1 "Is this more than..." (palm muted)
e|--------------------------------------------------------------|
B|--------------------------------------------------------------|
G|--------------------------------------------------------------|
D|-00000000-55555555-99999999-55555555--------------------------|x4
A|-00000000-55555555-99999999-55555555--------------------------|
D|-00000000-55555555-99999999-55555555--------------------------|

Verse 2 Guitar 2 "Isn't it messed up"
e|--------------------------------------------------------------|
B|--------------------------------------------------------------|
G|--7777-7-7--7-7-7-7-------------------------------------------|
D|--xxxx-x-x--x-x-x-x-------------------------------------------|x4
A|--5555-5-5--7-7-7-7-------------------------------------------|
E|--------------------------------------------------------------|

Pre Chorus "Drop a heart..." (palm mute)
e|--------------------------------------------------------------------|
B|--------------------------------------------------------------------|
G|--------------------------------------------------------------------|
D|-000000-55555555-777777-99999999-101010101010-99999999-555555555555-|
A|-000000-55555555-777777-99999999-101010101010-99999999-555555555555-|
D|-000000-55555555-777777-99999999-101010101010-99999999-555555555555-|


Chorus
e|--------------------------------------------------------------------|
B|--------------------------------------------------------------------|
G|--------------------------------------------------------------------|
D|-0000000000000000-5555555555555555-999999999999999-5555555555555555-|
A|-0000000000000000-5555555555555555-999999999999999-5555555555555555-|
D|-0000000000000000-5555555555555555-999999999999999-5555555555555555-|

Chorus Continued
e|------------------------------------------------------------|
B|------------------------------------------------------------|
G|-----777-----777-----777-----777----------------------------|
D|-000-xxx-000-xxx-555-xxx-555-xxx----------------------------|
A|-000-555-000-555-555-555-555-555----------------------------|
D|-000-----000-----555-----555--------------------------------|

Chorus Continued
e|------------------------------------------------------------|
B|------------------------------------------------------------|
G|-----111111-----111111-----777-----777----------------------|
D|-999-x-x-x--999-x-x-x--555-xxx-555-xxx----------------------|
A|-999-9-9-9--999-9-9-9--555-555-555-555----------------------|
D|-999--------999--------555-----555--------------------------|

Interlude Guitar 1
e|------------------------------------------------------------|
B|------------------------------------------------------------|
G|------------------------------------------------------------|
D|-5-222-0~-------5~--------0~--------5~-----------55---------|
A|-5-222-0~-------5~--------0~--------5~-----------55---------|
D|-5-222-0~-------5~--------0~--------5~-----------55---------|
* ***
Interlude Guitar 2
e|------------------------------------------------------------|
B|-777-555-888-555-77-55--------------------------------------|
G|-777-777-777-777-77-77--------------------------------------|
D|------------------------------------------------------------|x3
A|------------------------------------------------------------|
D|------------------------------------------------------------|

Interlude Continued Guitar 1 (palm muted)
e|--------------------------------------------------------------|
B|--------------------------------------------------------------|
G|--------------------------------------------------------------|
D|-00000-00000-55555-55555-99999-99999-55555-55555--------------|
A|-00000-00000-55555-55555-99999-99999-55555-55555--------------|
D|-00000-00000-55555-55555-99999-99999-55555-55555--------------|

Interlude Continued Guitar 2 
e|--------------------------------------------------------------|
B|--------------------------------------------------------------|
G|------6h7-6h7-7-----6h7-6h7-7---------------------------------|
D|-----7---7---7-----7---7---7----------------------------------|x4
A|--------------------------------------------------------------|
D|--------------------------------------------------------------|

Interlude Continued Guitar 1
e|--------------------------------------------------------------|
B|--------------------------------------------------------------|
G|--------------------------------------------------------------|
D|-0000000000000000-5555555555555555-9999999999999999-5---------|
A|-0000000000000000-5555555555555555-9999999999999999-5---------|
D|-0000000000000000-5555555555555555-9999999999999999-5---------|

Interlude Continued Guitar 2
e|--------------------------------------------------------------|
B|--------------------------------------------------------------|
G|------6h7-6h7-7-----6h7-6h7-7---------------------------------|
D|-----7---7---7-----7---7---7----------------------------------|x3
A|--------------------------------------------------------------|
D|--------------------------------------------------------------|

Interlude Continued Guitar 3
e|--------------------------------------------------------------|
B|-777-555-888-555-77-55----------------------------------------|
G|-777-777-777-777-77-77----------------------------------------|
D|--------------------------------------------------------------|x3
A|--------------------------------------------------------------|
D|--------------------------------------------------------------|

Outro Guitar 1
e|------------------|
B|------------------|
G|------------------|
D|-5-222-0~---------|
A|-5-222-0~---------|
D|-5-222-0~---------|


Outro Guitar 2 (fades out)
e|--------------------------------------------------------------|
B|-777-555-888-555-77-55----------------------------------------|
G|-777-777-777-777-77-77----------------------------------------|
D|--------------------------------------------------------------|x2
A|--------------------------------------------------------------|
D|--------------------------------------------------------------|
____________________________________________________________________________
Tabbed by: jodie f.
Email: sharpdisaster@yahoo.com
Song: Nobody Puts Baby In THe Corner
Tuning: Standard



   Drink down that gin and kerosene,
   And come spit on bridges with me, 

(strumming)
e|---------------------------------------|
B|---------------------------------------|
G|-5---9----5---9------------------------|
D|-5---9----5---9------------------------|
A|-3---7----3---7------------------------|
E|---------------------------------------|


   Just to keep us warm.
   Light a match to leave me be.

e|-----------------------------------------|
B|-----------------------------------------|
G|-----------------------------------------|
D|--7---2----7---2-------------------------|
A|--7---2----7---2-------------------------|
E|--5---0----5---0-------------------------|


Light a match to leave me be.

e|-------------------------|
B|-------------------------|
G|-----------5-------------|
D|--5--3--5--5-------------|
A|--5--3--5--3-------------|
E|--3--1--3----------------|


       I'll keep my jealousy close, 
       'Cause it's all mine.
       And if you say this makes you happy, 

e|----------------------------------| *=10
B|----------------------------------|
G|----------------------------------|
D|---5-7--7-7-7----5-*--*-*-*-------| x3
A|---5-7--7-7-7----5/*--*-*-*-------|
E|---3/5--5-5-5----3-8--8-8-8-------|
          m m m         m m m



Then I'm not the only one lying.

e|---------------------------------------|
B|---------------------------------------|
G|---------------------------------------|
D|---5--5--------------------------------|
A|---5--5--------------------------------|
E|---3--3(strum)-------------------------|


Chorus x2:
Keep quiet,
Nothing comes as easy as you.
Can I lay in your bed all day,
I'll be your best kept secret, 
And your biggest mistake?
The hand behind this pen relives a failure every day.

e|--------------------------------|
B|--------------------------------|
G|---5----------------------------| 
D|---5--7--2--3-------------------| x4
A|---3--7--2--3-------------------|
E|------5--0--1-------------------|



       I'll keep my jealousy close, 
       'Cause it's all mine.
       And if you say this makes you happy, 

e|----------------------------------| *=10
B|----------------------------------|
G|----------------------------------|
D|---5-7--7-7-7----5-*--*-*-*-------| x3
A|---5-7--7-7-7----5/*--*-*-*-------|
E|---3/5--5-5-5----3-8--8-8-8-------|
          m m m         m m m



Then I'm not the only one lying.

e|---------------------------------------|
B|---------------------------------------|
G|---------------------------------------|
D|---5--5--------------------------------|
A|---5--5--------------------------------|
E|---3--3(strum)-------------------------|


 Drink down that gin and kerosene,
   And come spit on bridges with me, 

(strumming)
e|---------------------------------|
B|---------------------------------|
G|-5---9----5---9------------------|
D|-5---9----5---9------------------|
A|-3---7----3---7------------------|
E|---------------------------------|


   Just to keep us warm.
   Light a match to leave me be.

e|-------------------------------|
B|-------------------------------|
G|-------------------------------|
D|--7---2----7---2---------------|
A|--7---2----7---2---------------|
E|--5---0----5---0---------------|


Light a match to leave me be.

e|------------------------------|
B|------------------------------|
G|-----------5------------------|
D|--5--3--5--5------------------|
A|--5--3--5--3------------------|
E|--3--1--3---------------------|



Chorus x2:
Keep quiet,
Nothing comes as easy as you.
Can I lay in your bed all day,
I'll be your best kept secret, 
And your biggest mistake?
The hand behind this pen relives a failure every day.

e|--------------------------------|
B|--------------------------------|
G|---5----------------------------| 
D|---5--7--2--3-------------------| x4
A|---3--7--2--3-------------------|
E|------5--0--1-------------------|


(interlude) chords underneath: A5-A5, F5, A5

e|----------------------------------------3---------------|
B|------1---3-1---1-------------1---3-1-------------------|
G|--2-2---2-----2-----------2-2---2-----2-----------------| 
D|--------------------------------------------------------| x4
A|--------------------------------------------------------|
E|--------------------------------------------------------|
   (A5 x2)


e|----------------------------------------3---------------|
B|------1---3-1---1-------------1---3-1-------------------|
G|--2-2---2-----2-----------2-2---2-----2-----------------| 
D|--------------------------------------------------------|
A|--------------------------------------------------------|
E|--------------------------------------------------------|
   (F5)


e|----------------------------------------3---------------|
B|------1---3-1---1-------------1---3-1-------------------|
G|--2-2---2-----2-----------2-2---2-----2-----------------| 
D|--------------------------------------------------------|
A|--------------------------------------------------------|
E|--------------------------------------------------------|
   (A5)


So wear me like a locket around your throat.
I'll weigh you down. 
I'll watch you choke.
You look so good in blue.
You look so good in blue.
[x3]

(interlude continues)
e|---------------------------------|
B|---------------------------------|
G|---------------------------------| 
D|--3--7---3--7-(/2)---------------| x3
A|--3--7---3--7-(/2)---------------|
E|--1--5---1--5-(/0)---------------|


Chorus x3:
Keep quiet,
Nothing comes as easy as you.
Can I lay in your bed all day?

(acappella 1st time)

I'll be your best kept secret, 
And your biggest mistake.
The hand behind this pen relives a failure every day.

e|-----------------------------------|     
B|-----------------------------------|     
G|------5----------------------------| 
D|--(5)-5--7--2--3-------------------| x5   
A|--(5)-3--7--2--3-------------------|      
E|--(3)----5--0--1-------------------|      



end/outro:

e|--------------------|
B|--------------------|
G|--------------------| 
D|--5---7-7-----------|
A|--5---7-7-----------|
E|--3---5-5-----------|
____________________________________________________________________________
Artist: Fall Out Boy
Song: Ive Got A Dark Ally And A Bad Idea That Says You Should Shut Your Mouth
By: Alex (alex_d00d@hotmail.com) 

This is my favourite song by this band.  if you ahve any questions feel free to ask

love,
Alex


chords in brackets are optional

   C  F AmSus  G  G(bar)  
e|-0------0----3--3---|                
B|-1--1---1----3--3---|                     
G|-0--2---0----0--4---|                        
D|-2--3---2----0--5---|                        
A|-3--3---0----2--5---|                           
E|-------------3--3---|                            

Intro:
C-F-C-F-C-F-G- 

G                   C               F           C               F
Joke me something awful just like kisses on the necks of "best friends"
C          F    (C) G
We're the kids who feel like dead ends
       C          C9    (C)    G                  F
And I want to be known for my hits, not just my misses
          C        C9          (C)  G
I took a shot and didn't even come close

   C          F       G
At trust and love and hope
         C        F    C               G
And the poets are just kids who didn't make it
    C     F           G
and never had it at all


Riff at "..never..": e|-0-------------|                
	             B|---0-----------|                     
	             G|-----5---------|                        
 	             D|-------3--3s5--|                        
      	             A|--------------3|                           
    	             E|---------------|



         Amsus   C         F
And the record won't stop skipping
         Amsus    C          F
And the lies just won't stop slipping
    C               F              Gbar
And besides my reputation's on the line
       Amsus   C       F
We can fake it for the airwaves
          Amsus   C     F
Force our smiles, baby, half dead
         C         F     Gbar                   
From comparing myself to everyone else around me


e|----------------------------------------0-------------|                
B|------------------------------------------0-----------|                     
G|--------------------------------------------5---------|                        
D|----------------------------------------------3--3s5--|                        
A|-----------------------------------------------------3|                           
E|00000000111111113333333333333333----------------------|
p.m.------------------------------|

G                C            F                    C          F
Please put the doctor on the phone 'cause I'm not making any sense
      C    F       G
Blame everyone but me for this mess
        C            F        C               F
And my back has been breaking from this heavy heart
   C     F       G
We never seemed so far

    C           F                        G
I'm hopelessly hopeful, that you're just hopeless enough
       C     F         G
But we never had it at all 


Riff at "..never..": e|-0-------------|                
	             B|---0-----------|                     
	             G|-----5---------|                        
 	             D|-------3--3s5--|                        
      	             A|--------------3|                           
    	             E|---------------|


         Amsus  C          F
And the record won't stop skipping
         Amsus    C         F
And the lies just won't stop slipping
     C             F               Gbar
And besides my reputation's on the line
        Amsus  C        F
We can fake it for the airwaves
          Amsus   C      F
Force our smiles, baby, half dead
         C         F         Gbar
From comparing myself to everyone else around me
C                  F        Gbar
                         everyone else around me
C                  F        Gbar
                         everyone else around me
C                  F        Gbar                  
                         everyone else around me
C                  F        Gbar                   C

____________________________________________________________________________
Artist: Fall Out Boy	
Song: 7 Minutes In Heaven (Atavan Halen)
Tuning: EADGBe 

Tabbed By: Stephen Adams 

*: palm mute
h: hammer on 
/: slide
\: slide


Intro Pt. 1
e|----------------------------------------------------|
B|----------------------------------------------------|
G|-9-99-8-88-6-66-9-99-8-88-6-------------------------|
D|-9-99-9-99-9-99-9-99-9-99-9-------------------------|x2
A|----------------------------------------------------|
E|----------------------------------------------------|
     **   **   **   **   **


Intro Pt. 2 Lead
e|----------------------------------------------------|
B|----------------------------------------------------|
G|-1111111--88--6666--44--1111111--8888--66--6/8\6----|
D|-x-x-x-x--xx--xxxx--xx--x-x-x-x--xxxx--xx--x/x\x----|x2
A|-9-9-9-9--66--4444--22--9-9-9-9--6666--44--4/6\4----|
E|----------------------------------------------------|


Intro Pt. 2 Rhythm 
e|----------------------------------------------------|
B|----------------------------------------------------|
G|--------------44------------------------------------|
D|-6666-22-4444-44-6666-2222-44444444-----------------|x2
A|-6666-22-4444-22-6666-2222-44444444-----------------|
E|-4444-00-2222----4444-0000-22222222-----------------|


Verse 1 Rhythm 
e|----------------------------------------------------|
B|----------------------------------------------------|
G|------------44-4------------------44-4--------------|
D|-66-6-------44-4-x4----22-2-------44-4-x4-----------|x2
A|-66-6-x4----22-2-------22-2-x4----22-2--------------|
E|-44-4------------------00-0-------------------------|              
   **         **         **         **


Verse 1 Lead
e|----------------------------------------------------|
B|----------------------------------------------------|
G|-9-99-8-88-6-66-9-99-8-88-6-------------------------|
D|-9-99-9-99-9-99-9-99-9-99-9-------------------------|
A|----------------------------------------------------|
E|----------------------------------------------------|
     **   **   **   **   **


Pre Chorus 
e|----------------------------------------------------|
B|----------------------------------------------------|
G|--------------44------------------------------------|
D|-6666-22-4444-44-6666-2222-44444444-----------------|x2
A|-6666-22-4444-22-6666-2222-44444444-----------------|
E|-4444-00-2222----4444-0000-22222222-----------------|


Chorus 
e|----------------------------------------------------|
B|----------------------------------------------------|
G|-44-------------------------------------------------|
D|-44-4-22-4-66-4-22-4--------------------------------|x4
A|-22-4-22-4-66-4-22-4--------------------------------|
E|----2-00-2-44-2-00-2--------------------------------|


Verse 2 Lead
e|----------------------------------------------------|
B|----------------------------------------------------|
G|-9-99-8-88-6-66-9-99-8-88-6-------------------------|
D|-9-99-9-99-9-99-9-99-9-99-9-------------------------|x8
A|----------------------------------------------------|
E|----------------------------------------------------|
     **   **   **   **   **


Verse 2 Rhythm "I'm having another episode..."
e|----------------------------------------------------|
B|----------------------------------------------------|
G|------------44-4------------------4444444444444444--|
D|-66-6-------44-4-x4----22-2-------4444444444444444--|
A|-66-6-x4----22-2-------22-2-x4----2222222222222222--|
E|-44-4------------------00-0-------------------------| 
   **         **         **         ****************      


Bridge Rhythm "Da Da Da..."
e|----------------------------------------------------|
B|----------------------------------------------------|
G|----------6-----------------4-----------------------|
D|-6--------6-x16----2--------4-x16-------------------|x2
A|-6-x16----4--------2-x16----2-----------------------|
E|-4-----------------0--------------------------------|              
   *        *        *        * 


Bridge Lead
e|----------------------------------------------------|
B|----------------------------------------------------|
G|-9-99-8-88-6-66-9-99-8-88-6-------------------------|
D|-9-99-9-99-9-99-9-99-9-99-9-------------------------|x4
A|----------------------------------------------------|
E|----------------------------------------------------|
     **   **   **   **   ** 


Bridge Cont. "I keep telling..."
e|----------------------------------------------------|
B|----------------------------------------------------|
G|----------------------------------------------------|
D|-66----44----6666-2222-4444-------------------------|
A|-66----44----6666-2222-4444-------------------------|
E|-44----22----4444-0000-2222-------------------------|


Solo
e|-----------------------------------------------------------------|
B|-----------------------------------------------------------------|
G|-----------------------------------------------------------------|
D|-11-11h13-11\9-11h13-11\9-11h13-11\9-----11-11h13-11\9-11h13-11--|x2
A|-------------------------------------9---------------------------|
E|-----------------------------------------------------------------|


Ending (Acoustic)
e|----------------------------------------------------|
B|----------------------------------------------------|
G|-44-------------------44----------------------------|
D|-44-4-22-4-66-4-22-4--44-4-22-4-66-4-2--------------|
A|-22-4-22-4-66-4-22-4--22-4-22-4-66-4-2--------------|
E|----2-00-2-44-2-00-2-----2-00-2-44-2-0--------------|


Order
Intro pt. 1 
Intro pt. 2 
Verse 1 
Pre Chorus
Chorus 
Intro pt. 2
Verse 2 
Pre Chorus 
Chorus 
Bridge 
Bridge Cont.
Pre Chorus
Pre Chorus w/ Solo
Ending
____________________________________________________________________________
Song: Sophmore Slump Or Comeback Of The Year
Artist: Fall Out Boy
Album: From Under The Cork Tree - 2004
Tuning: Standard

Intro:
*Note: Intro is palm muted (pm), EM is played open as the last chord*
"Are we growing up? or just going down..."
e|---------------------------------------------------------------------------|
B|---------------------------------------------------------------------------|
G|-44444444-44444444--------------------44444444-44444444--------------------|
D|-44444444-44444444-22222222-6666-2222-44444444-44444444-2------------------|X1
A|-22222222-11111111-22222222-6666-2222-22222222-11111111-2------------------|
E|-------------------00000000-4444-0000-------------------0------------------|
PM xxxxxxxx xxxxxxxx xxxxxxxx xxxx xxxx xxxxxxxx xxxxxxxx

Verse:
*I find it easier to play the ending part of the riff faster*
"We're the therapists pumping through your speakers..."
e|---------------|
B|---------------|
G|-------------4-|
D|-66-44-22-44-4-|   X8
A|-66-44-22-44-2-|
E|-44-22-00-22---|

Pre-Chorus:
*Palm Muted All Way Through*
"I'll keep singing this lie..."
e|-------------------|
B|-------------------|
G|----------44444444-|
D|-22222222-44444444-|    X4
A|-22222222-22222222-|
E|-00000000----------|
PM xxxxxxxx xxxxxxxx

Chorus:
"Are we growing up? or just going down..."
e|---------------------------------------------------------------------------------|
B|---------------------------------------------------------------------------------|
G|-44444444-44444444--------------------44444444-44444444--------------------------|
D|-44444444-44444444-22222222-6666-2222-44444444-44444444-2-x222222----------------|
A|-22222222-11111111-22222222-6666-2222-22222222-11111111-2-x222222----------------|
E|-------------------00000000-4444-0000-------------------0-x000000----------------|

Verse 2:
*Once again, I find it easier to play the ending part of the riff faster*
"We're traveled like gypsies..."
e|---------------|
B|---------------|
G|-------------4-|
D|-66-44-22-44-4-|   X8
A|-66-44-22-44-2-|
E|-44-22-00-22---|

Pre-Chorus:
*Palm Muted All Way Through*
"I'll keep singing this lie..."
e|-------------------|
B|-------------------|
G|----------44444444-|
D|-22222222-44444444-|    X4
A|-22222222-22222222-|
E|-00000000----------|
PM xxxxxxxx xxxxxxxx

Chrous:
"Are we growing up? or just going down..."
e|--------------------------------------------------------------------|
B|--------------------------------------------------------------------|
G|-44444444-44444444--------------------44444444-44444444-------------|
D|-44444444-44444444-22222222-6666-2222-44444444-44444444-2-x222222---|
A|-22222222-11111111-22222222-6666-2222-22222222-11111111-2-x222222---|
E|-------------------00000000-4444-0000-------------------0-x000000---|

Bridge Part 1:
* ~= Let Ring *
"There's a drug in the thermostat..."
e|----------------------------------------------------------------------------------|
B|----------------------------------------------------------------------------------|
G|-44444444-44444444--------------------44444444-44444444---------------------------|
D|-44444444-44444444-22222222-6666-2222-44444444-44444444-2222222~------------------|
A|-22222222-11111111-22222222-6666-2222-22222222-11111111-2222222~------------------|
E|-------------------00000000-4444-0000-------------------0000000~------------------|

Bridge Part 2:
*Palm Muted*
"The best part of "Believe" is the "Lie""
e|-----------------|
B|-----------------|
G|-----------------|  X6
D|-22222222--------|
A|-22222222--------|
E|-00000000--------|

Bridge Part 3:
"So give in or just give up..."
e|-------------------|
B|-------------------|
G|----------44444444-|
D|-22222222-44444444-|    X5  On Last Time Play And Let Ring EM Chord
A|-22222222-22222222-|
E|-00000000----------|

Pre-Chorus:
*Played Open*
e|-------------------|
B|-------------------|
G|----------44444444-|
D|-22222222-44444444-|    X1
A|-22222222-22222222-|
E|-00000000----------|

Chrous:
"Are we growing up? or just going down..."
e|-------------------------------------------------------------------|
B|-------------------------------------------------------------------|
G|-44444444-44444444--------------------44444444-44444444------------|
D|-44444444-44444444-22222222-6666-2222-44444444-44444444------2~----|
A|-22222222-11111111-22222222-6666-2222-22222222-11111111------2~----|
E|-------------------00000000-4444-0000------------------------0~----|
____________________________________________________________________________
Artist: Fall Out Boy
Song: Champagne For My Real Friends, Real Pain For My Sham Friends	
Tabbed by: Justin RiRaY
Email: Pakman7JR@hotmail.com       AIM: BeatPwner

Tuning: eBGDAE


     INTRO
 
e|--------77-------77----------|\
B|--33-55----33-55----7/8\7----| X4
G|-----------------------------|/
D|-----------------------------|
A|-----------------------------|
E|-----------------------------|


     VERSE
 
e|--------------------------------------|
B|--------------------------------------|
G|--55-55-5--55-55-5--44-44-4--55-55-5--|
D|--------------------------------------|\
A|-----------55-55-5-----------55-55-5--|
E|--55-55-5-----------33-33-3-----------|
 
e|--------------------------------------| \
B|--------------------------------------|
G|--55-55-5--55-55-5--44-44-4--55-55-5--|
D|--------------------------------------|
A|-----------55-55-5-----------55-55-5--|  \
E|--55-55-5-----------33-33-3-----------|
                                            X 2
e|--------------------------------------|
B|--------------------------------------|  /
G|--66-66-6--55-55-5--44-44-4--55-55-5--|
D|--------------------------------------|
A|-----------55-55-5-----------55-55-5--|
E|--55-55-5-----------33-33-3-----------| /
 
e|--------------------------------------|
B|--------------------------------------|
G|--55-55-5--55-55-5--4-4-4-4-4-4-4-4-4-|/
D|--------------------------------------|
A|-----------55-55-5--------------------|
E|--55-55-5-----------3-3-3-3-3-3-3-3-3-|
____________________________________________________________________________
Artist: Fall Out Boy
Album: From Under The Cork Tree
Song: I Slept With Someone From In Out Boy And All I Got Was This Stupid Song Written About Me
Track #: 10
Tabbed By: Steve Lanno (Stephen.Lanno@UConn.edu)

This was requested by someone after my 'Dance, Dance' tab.
Enjoy!

Intro:
(0:00)
e|--------------|
B|--------------|
G|--------------|
D|--2~--5~~--9--|
A|--2~--5~~--9--|
D|--2~--5~~--9--|

Verse:
(0:03)
e|----------------------------------|
B|----------------------------------|
G|-4-4-4-4-4---------7-x-7-7--------|
D|-4-4-4-4-4-2-4-2-0-7-x-7-7--2-x-2-|
A|-2-2-2-2-2---------5-x-5-5--2-x-2-|
D|----------------------------2-x-2-|

 "I found the cure to growing older..."

(0:22)
e|---------|---------|
B|---------|---------|
G|-4-------|-2-4-----|
D|-4-0-5-0-|-2-4-5-0-|
A|-2-0-5-0-|-0-2-5-0-|
E|---0-5-0-|-----5-0-|

(0:32)
e|-----------------------------|
B|-----------------------------|
G|-4-4-4-4-4--7-x-7-7----------|
D|-4-4-4-4-4--7-x-7-7--2-x-2-2-|
A|-2-2-2-2-2--5-x-5-5--2-x-2-2-|
D|---------------------2-x-2-2-|

 "I'm the first kid to write of hearts.."

Chorus:
(0:51)
e|---------|-------------------------------------|---------------------------------|
B|---------|-------------------------------------|---------------------------------|
G|---------|-4-4-4-4-----------------------------|-4-4-4-4-2-2-2-2-----------------|
D|-2~~-5~--|-4-4-4-4-0-0-0-0-2-2-2-2--4--5-5-5-5-|-4-4-4-4-2-2-2-2-5-x-x-x-0-x-x-x-|
A|-2~~-5~--|-2-2-2-2-0-0-0-0-2-2-2-2--4--5-5-5-5-|-2-2-2-2-0-0-0-0-5-x-x-x-0-x-x-x-|
D|-2~~-5~--|---------0-0-0-0-2-2-2-2--4--5-5-5-5-|-----------------5-x-x-x-0-x-x-x-|

 "So douse yourself in cheap perfume..."

(1:13)
e|---------|---------|
B|---------|---------|
G|-4-------|-2-4-----|
D|-4-0-5-0-|-2-4-5-0-|
A|-2-0-5-0-|-0-2-5-0-|
D|---0-5-0-|-----5-0-|

Verse:
(1:23)
e|-----------------------------|
B|-----------------------------|
G|-4-4-4-4-4--7-x-7-7----------|
D|-4-4-4-4-4--7-x-7-7--2-x-2-2-|
A|-2-2-2-2-2--5-x-5-5--2-x-2-2-|
D|---------------------2-x-2-2-|

 "Find a safe place, brace yourself, bite your lip..."

(1:42-2:01)
e|----------------------------|
B|----------------------------|
G|-4--------------------------|
D|-4-x-x--0-x-x--5-x-x--2-x-x-|
A|-2-x-x--0-x-x--5-x-x--2-x-x-|
D|---x-x--0-x-x--5-x-x--2-x-x-|

 "They call kids like us vicious and carved out of stone.."

Chorus:
(2:01)
e|---------|-------------------------------------|---------------------------------|
B|---------|-------------------------------------|---------------------------------|
G|---------|-4-4-4-4-----------------------------|-4-4-4-4-2-2-2-2-----------------|
D|-2~~-5~--|-4-4-4-4-0-0-0-0-2-2-2-2--4--5-5-5-5-|-4-4-4-4-2-2-2-2-5-x-x-x-0-x-x-x-|
A|-2~~-5~--|-2-2-2-2-0-0-0-0-2-2-2-2--4--5-5-5-5-|-2-2-2-2-0-0-0-0-5-x-x-x-0-x-x-x-|
D|-2~~-5~--|---------0-0-0-0-2-2-2-2--4--5-5-5-5-|-----------------5-x-x-x-0-x-x-x-|

 "So douse yourself in cheap perfume..."


Bridge:
(2:24)
e|---------------|
B|---------------|
G|---------------|
D|--2~--5~~--9-9-|
A|--2~--5~~--9-9-|
D|--2~--5~~--9-9-|

e|---------------------------------|
B|---------------------------------|
G|---------------------------------|
D|-9-9-9-9-9-9-9-9-9-9-9-9-9-9-9-9-|
A|-9-9-9-9-9-9-9-9-9-9-9-9-9-9-9-9-|
D|-9-9-9-9-9-9-9-9-9-9-9-9-9-9-9-9-|
PM ...........................

 "Someone old, someone new..."

e|---------------------------------|
B|---------------------------------|
G|---------------------------------|
D|-9-9-9-9-9-9-9-9-9-9-9-9-9-9-9-9-|
A|-9-9-9-9-9-9-9-9-9-9-9-9-9-9-9-9-|
D|-9-9-9-9-9-9-9-9-9-9-9-9-9-9-9-9-|
PM ...........................

 "Feeling borrowed, always blue.."


(2:46)
e|---------------------|      |---------------------|
B|---------------------|      |---------------------|
G|-4-------------------|      |---------------------|
D|-4-x--0-x--5-x--2-x--|  or  |-9-x--0-x--5-x--2-x--|
A|-2-x--0-x--5-x--2-x--|      |-9-x--0-x--5-x--2-x--|
D|---x--0-x--5-x--2-x--|      |-9-x--0-x--5-x--2-x--|

 "I found the cure to growing older.."

Chorus:
(3:05)
e|---------|-------------------------------------|---------------------------------|
B|---------|-------------------------------------|---------------------------------|
G|---------|-4-4-4-4-----------------------------|-4-4-4-4-2-2-2-2-----------------|
D|-2~~-5~--|-4-4-4-4-0-0-0-0-2-2-2-2--4--5-5-5-5-|-4-4-4-4-2-2-2-2-5-x-x-x-0-x-x-x-|
A|-2~~-5~--|-2-2-2-2-0-0-0-0-2-2-2-2--4--5-5-5-5-|-2-2-2-2-0-0-0-0-5-x-x-x-0-x-x-x-|
D|-2~~-5~--|---------0-0-0-0-2-2-2-2--4--5-5-5-5-|-----------------5-x-x-x-0-x-x-x-|

 "So douse yourself in cheap perfume."

End:
(3:25)
e|------|
B|------|
G|------|
D|-5\---|
A|-5\---|
D|-5\---|

 "Can't cover it up."

*Allow feedback for sound after slide.*
____________________________________________________________________________
Artist: Fall Out Boy
Album: From Under The Cork Tree
Song: A Little Less Sixteen Candles, A Little More Touch Me
Tabbed By: Steve Lanno (Stephen.Lanno@UConn.edu)

h: hammer on
p: pull off
.: palm mute
\: slide
/: slide

Intro:
Guitar 1:
(0:00)
e|---------------|---------------|--------------|-----------|
B|---------------|---------------|--------------|-----------|
G|-7p0-11-9-9-9--|-7p0-11-9-9-9--|-7p0-11-9-9-9-|-12-11-5/7-|
D|---------------|---------------|--------------|-----------|
A|-5p0-9--7-7-7--|-5p0-9--7-7-7--|-5p0-9--7-7-7-|-10-9--7/5-|
D|---------------|---------------|--------------|-----------|

Guitar 2:
(0:00)
e|---------------|---------------|---------------|----------|
B|---------------|---------------|---------------|----------|
G|---------------|---------------|---------------|----------|
D|-0-0-4-5-5-5-5-|-0-0-7-9-9-9-9-|-0-0-4-5-5-5-5-|-9--7--5--|
A|-0-0-4-5-5-5-5-|-0-0-7-9-9-9-9-|-0-0-4-5-5-5-5-|-9--7--5--|
D|-0-0-4-5-5-5-5-|-0-0-7-9-9-9-9-|-0-0-4-5-5-5-5-|-9--7--5--|


Verse:
(0:14-0:35)
e|-----------------|-----------------|-----------------|-----------------|
B|-----------------|-----------------|-----------------|-----------------|
G|-7-7-7-7-7-7-7-7-|-9-9-9-9-9-9-9-9-|-----------------|-----------------|
D|-7-7-7-7-7-7-7-7-|-9-9-9-9-9-9-9-9-|-9-9-9-9-9-9-9-9-|-5-5-5-5-5-5-5-5-|
A|-5-5-5-5-5-5-5-5-|-7-7-7-7-7-7-7-7-|-9-9-9-9-9-9-9-9-|-5-5-5-5-5-5-5-5-|
D|-----------------|-----------------|-9-9-9-9-9-9-9-9-|-5-5-5-5-5-5-5-5-|
PM ...............   ...............   ...............   ...............


PreChorus:
(0:36)
e|-----------------|-----------------|-----------------|-----------------|
B|-----------------|-----------------|-----------------|-----------------|
G|-----------------|-4-4-4-4-4-4-4-4-|-----------------|-----------------|
D|-5-5-5-5-5-5-5-5-|-4-4-4-4-4-4-4-4-|-5-5-5-5-5-5-5-5-|-0-0-0-0-0-0-0-0-|
A|-5-5-5-5-5-5-5-5-|-2-2-2-2-2-2-2-2-|-5-5-5-5-5-5-5-5-|-0-0-0-0-0-0-0-0-|
D|-5-5-5-5-5-5-5-5-|-----------------|-5-5-5-5-5-5-5-5-|-0-0-0-0-0-0-0-0-|
PM                                                       ...............


Chorus:
(0:44)                                            1st Ending  2nd Ending
e|---------------|---------------|---------------|----------||----------|
B|---------------|---------------|---------------|----------||----------|
G|---------------|---------------|---------------|----------||----------|
D|-0-0-4-5-5-5-5-|-0-0-7-9-9-9-9-|-0-0-4-5-5-5-5-|-9--7--5--||--0-------|
A|-0-0-4-5-5-5-5-|-0-0-7-9-9-9-9-|-0-0-4-5-5-5-5-|-9--7--5--||--0-------|
D|-0-0-4-5-5-5-5-|-0-0-7-9-9-9-9-|-0-0-4-5-5-5-5-|-9--7--5--||--0-------|


Back to Intro:
Guitar 1:
(0:58)
e|---------------|---------------|--------------|-----------|
B|---------------|---------------|--------------|-----------|
G|-7p0-11-9-9-9--|-7p0-11-9-9-9--|-7p0-11-9-9-9-|-12-11-5/7-|
D|---------------|---------------|--------------|-----------|
A|-5p0-9--7-7-7--|-5p0-9--7-7-7--|-5p0-9--7-7-7-|-10-9--7/5-|
D|---------------|---------------|--------------|-----------|

Guitar 2:
(0:58) *Same as chorus*
e|---------------|---------------|---------------|----------|
B|---------------|---------------|---------------|----------|
G|---------------|---------------|---------------|----------|
D|-0-0-4-5-5-5-5-|-0-0-7-9-9-9-9-|-0-0-4-5-5-5-5-|-9--7--5--|
A|-0-0-4-5-5-5-5-|-0-0-7-9-9-9-9-|-0-0-4-5-5-5-5-|-9--7--5--|
D|-0-0-4-5-5-5-5-|-0-0-7-9-9-9-9-|-0-0-4-5-5-5-5-|-9--7--5--|


Verse 2:
(1:06-1:27)
e|-----------------|-----------------|-----------------|-----------------|
B|-----------------|-----------------|-----------------|-----------------|
G|-7-7-7-7-7-7-7-7-|-9-9-9-9-9-9-9-9-|-----------------|-----------------|
D|-7-7-7-7-7-7-7-7-|-9-9-9-9-9-9-9-9-|-9-9-9-9-9-9-9-9-|-5-5-5-5-5-5-5-5-|
A|-5-5-5-5-5-5-5-5-|-7-7-7-7-7-7-7-7-|-9-9-9-9-9-9-9-9-|-5-5-5-5-5-5-5-5-|
D|-----------------|-----------------|-9-9-9-9-9-9-9-9-|-5-5-5-5-5-5-5-5-|
PM ...............   ...............   ...............   ...............

Guitar 2:
(1:21)
e|-----------------|-----------------|-----------------|-----------------|
B|-----------------|-----------------|-----------------|-----------------|
G|-7---7---7---7---|-7---7---7---7---|-7---7---7---7---|-7---7---7---7---|
D|-----------------|-----------------|-----------------|-----------------|
A|-5---5---5---5---|-5---5---5---5---|-5---5---5---5---|-5---5---5---5---|
D|-----------------|-----------------|-----------------|-----------------|


PreChorus:
(1:28)
e|-----------------|-----------------|-----------------|-----------------|
B|-----------------|-----------------|-----------------|-----------------|
G|-----------------|-4-4-4-4-4-4-4-4-|-----------------|-----------------|
D|-5-5-5-5-5-5-5-5-|-4-4-4-4-4-4-4-4-|-5-5-5-5-5-5-5-5-|-0---------------|
A|-5-5-5-5-5-5-5-5-|-2-2-2-2-2-2-2-2-|-5-5-5-5-5-5-5-5-|-0---------------|
D|-5-5-5-5-5-5-5-5-|-----------------|-5-5-5-5-5-5-5-5-|-0---------------|
PM                                                       


Chorus:
(1:34)                                            1st Ending  2nd Ending
e|----------------|---------------|---------------|----------||----------|
B|----------------|---------------|---------------|----------||----------|
G|----------------|---------------|---------------|----------||----------|
D|-\0-0-4-5-5-5-5-|-0-0-7-9-9-9-9-|-0-0-4-5-5-5-5-|-9--7--5--||--0-------|
A|-\0-0-4-5-5-5-5-|-0-0-7-9-9-9-9-|-0-0-4-5-5-5-5-|-9--7--5--||--0-------|
D|-\0-0-4-5-5-5-5-|-0-0-7-9-9-9-9-|-0-0-4-5-5-5-5-|-9--7--5--||--0-------|


Bridge:
Guitar 1:
(1:49)
e|-----------------|-----------------|-----------------|-----------------|
B|-----------------|-----------------|-----------------|-----------------|
G|-----------------|-----------------|-----------------|-----------------|
D|-----------------|-----------------|-----------------|-----------------|
A|-7p5-9p5-7p5-9p5-|-7p5-9p5-7p5-9p5-|-7p5-9p5-7p5-9p5-|-7p5-9p5-7p5-9p5-|
D|-----------------|-----------------|-----------------|-----------------|


Guitar 2:
(1:49)
e|-------|-------|-------||------------|---------------||
B|-------|-------|-------||------------|---------------||
G|-------|-------|-------||------------|---------------||
D|-0-0-0-|-5-5-5-|-5~~---||-0-0-0--0-0-|-5-5-5~-5-5-5~-|| Repeat this part 4x
A|-0-0-0-|-5-5-5-|-5~~---||-0-0-0--0-0-|-5-5-5~-5-5-5~-||
D|-0-0-0-|-5-5-5-|-5~~---||-0-0-0--0-0-|-5-5-5~-5-5-5~-||
PM . . .   . . .            . . .  . .   . .    . .


Chorus:
(2:11)                                            1st Ending  2nd Ending
e|---------------|---------------|---------------|----------||----------|
B|---------------|---------------|---------------|----------||----------|
G|---------------|---------------|---------------|----------||----------|
D|-0-0-4-5-5-5-5-|-0-0-7-9-9-9-9-|-0-0-4-5-5-5-5-|-9--7--5--||--0-------|
A|-0-0-4-5-5-5-5-|-0-0-7-9-9-9-9-|-0-0-4-5-5-5-5-|-9--7--5--||--0-------|
D|-0-0-4-5-5-5-5-|-0-0-7-9-9-9-9-|-0-0-4-5-5-5-5-|-9--7--5--||--0-------|


Back to Intro:
Guitar 1:
(2:26)
e|---------------|---------------|--------------|-----------|
B|---------------|---------------|--------------|-----------|
G|-7p0-11-9-9-9--|-7p0-11-9-9-9--|-7p0-11-9-9-9-|-12-11-5/7-|
D|---------------|---------------|--------------|-----------|
A|-5p0-9--7-7-7--|-5p0-9--7-7-7--|-5p0-9--7-7-7-|-10-9--7/5-|
D|---------------|---------------|--------------|-----------|

Guitar 2:
(2:26) *Same as chorus*
e|---------------|---------------|---------------|----------|
B|---------------|---------------|---------------|----------|
G|---------------|---------------|---------------|----------|
D|-0-0-4-5-5-5-5-|-0-0-7-9-9-9-9-|-0-0-4-5-5-5-5-|-9--7--5--|
A|-0-0-4-5-5-5-5-|-0-0-7-9-9-9-9-|-0-0-4-5-5-5-5-|-9--7--5--|
D|-0-0-4-5-5-5-5-|-0-0-7-9-9-9-9-|-0-0-4-5-5-5-5-|-9--7--5--|


Ending:
(2:39)
e|-----|-----|
B|-----|-----|
G|-----|-7~--|
D|-5---|-7~--|
A|-5---|-5~--|
D|-5---|-----|
        Clean
____________________________________________________________________________
Artist: Fall Out Boy
Song Title: Get Busy Living Or Get Busy Dying
Album Title: From Under The Cork Tree

Verse pt 1:

   Em          Am7         B7          Em
|--0-0-0-0-0---0-0-0-0-0---2-2-2-2-2---0-0-0-0-0---|
|--0-0-0-0-0---1-1-1-1-1---0-0-0-0-0---0-0-0-0-0---|
|--0-0-0-0-0---0-0-0-0-0---2-2-2-2-2---0-0-0-0-0---|
|--2-2-2-2-2---2-2-2-2-2---1-1-1-1-1---2-2-2-2-2---|
|--2-2-2-2-2---0-0-0-0-0---2-2-2-2-2---2-2-2-2-2---|   x2
|--0-0-0-0-0---x-x-x-x-x---x-x-x-x-x---0-0-0-0-0---|

Verse pt 2:

   B7              Em        Em
|--2-2-2-2-2-2-----0-0-0-0---0-0-0-----|
|--0-0-0-0-0-0-----0-0-0-0---0-0-0-----|
|--2-2-2-2-2-2-----0-0-0-0---0-0-0-----|
|--1-1-1-1-1-1-----2-2-2-2---2-2-2-----|
|--2-2-2-2-2-2-----2-2-2-2---2-2-2-----|   x2
|--x-x-x-x-x-x-3-2-0-0-0-0---0-0-0-2-3-|
              (^ Runs are unecessary ^)

Verse to Chorus (Your Secret's Out):

  C        B7
|-0-00-0---2-xx-2-xx-2----------------------------|
|-1-11-1---0-xx-0-xx-0----------------------------|
|-0-00-0---2-xx-0-xx-0----------------------------|
|-2-22-2---1-xx-1-xx-1----------------------------|
|-3-33-3---2-xx-2-xx-2----------------------------|
|-x-xx-x---x-xx-x-xx-x----------------------------|

Chorus:

  C       G         B7
|-0-00-0--3-3-33-3--2-2-22-2--2-2-22-2--|
|-1-11-1--3-3-33-3--0-0-00-0--0-0-00-0--|
|-0-00-0--0-0-00-0--2-2-22-2--2-2-22-2--|
|-2-22-2--0-0-00-0--1-1-11-1--1-1-11-1--|
|-3-33-3--1-1-11-1--2-2-22-2--2-2-22-2--|
|-x-xx-x--2-2-22-2--x-x-xx-x--x-x-xx-x--|

  C       G         B7        Em
|-0-00-0--3-3-33-3--2-2-22-2--0-0-00-0--|
|-1-11-1--3-3-33-3--0-0-00-0--0-0-00-0--|
|-0-00-0--0-0-00-0--2-2-22-2--0-0-00-0--|
|-2-22-2--0-0-00-0--1-1-11-1--2-2-22-2--|
|-3-33-3--1-1-11-1--2-2-22-2--2-2-22-2--|
|-x-xx-x--2-2-22-2--x-x-xx-x--0-0-00-0--|

  C        B7
|-0-00-0---2-xx-2-xx-2------------------|
|-1-11-1---0-xx-0-xx-0------------------|
|-0-00-0---2-xx-0-xx-0------------------|
|-2-22-2---1-xx-1-xx-1------------------|
|-3-33-3---2-xx-2-xx-2------------------|
|-x-xx-x---x-xx-x-xx-x------------------|

Chorus to Verse:

|------------------------------|
|------------------------------|
|------------------------------|
|--------00--------------------|
|-----------33333333-22222222--|
|-000000-----------------------|

Bridge pt 1:

|--------------------------------------|
|--------------------------------------|
|--------------------------------------|
|--------00----------------------------|
|-----------33333333-22222222----------| x 4
|-000000----------------------00000000-|

Bridge pt 2:

|----------------------------------------|
|---------33-----------------------------|
|---------00-55555555-44444444-----------|
|--222222----55555555-44444444-22222222--|
|--222222----33333333-22222222-22222222--| x2
|--000000----------------------00000000--|


Verse pt 1
Verse pt 2
Verse to Chorus
Chorus
Chorus to Verse
Verse pt 1
Verse pt 2
Verse to Chorus
Chorus
Bridge pt 1
Bridge pt 2
Chorus (let Em ring out at the end)
____________________________________________________________________________
Artist-Fall Out Boy
Album-From Under The Cork Tree
Song-XO
Track-#13
Tabbed By-Mynor Gonzalez (Brynor127@aol.com)
Tuning-Standard

Intro: Guitar 1 (Guitar 2 comes in later)
(0:00) "I comb the crowd..."                    1st "I swear I say..."                 
e|-----------------------------------------------------------------|
B|-----------------------------------------------------------------|
G|-4-4-4-4-4-4-4-4-4-4-4-4-4-4-4-4---------------------------------|
D|-4-4-4-4-4-4-4-4-4-4-4-4-4-4-4-4-5-5-5-5-5-5-5-5-2-2-2-2-2-2-2-2-|
A|-2-2-2-2-2-2-2-2-2-2-2-2-2-2-2-2-5-5-5-5-5-5-5-5-2-2-2-2-2-2-2-2-|
E|---------------------------------3-3-3-3-3-3-3-3-0-0-0-0-0-0-0-0-|
pm * * * * * * * * * * * * * * * * * * * * * * * * * * * * * * * *

Intro cont: Guitar 1
(0:15) 2nd "I swear I say"
e|-------------------------------------------------|
B|-------------------------------------------------|
G|---------------------------------4-4-4-4-4-4-4-4-|
D|-5-5-5-5-5-5-5-5-2-2-2-2-2-2-2-2-4-4-4-4-4-4-4-4-|
A|-5-5-5-5-5-5-5-5-2-2-2-2-2-2-2-2-2-2-2-2-2-2-2-2-|
E|-3-3-3-3-3-3-3-3-0-0-0-0-0-0-0-0-----------------|
pm * * * * * * * * * * * * * * * * * * * * * * * *

Guitar 1
(0:18) "To hands between..."
e|------------------------------------------------------------------------|
B|------------------------------------------------------------------------|
G|-4-4-4-4-4-4-4-4-----------------4-4-4-6-6-6-8-8-8-11-11-11-9-9-9-9-9-9-|
D|-4-4-4-4-4-4-4-4-5-5-5-5-5-5-5-5-4-4-4-6-6-6-8-8-8-11-11-11-9-9-9-9-9-9-|2x
A|-2-2-2-2-2-2-2-2-5-5-5-5-5-5-5-5-2-2-2-4-4-4-6-6-6--9--9--9-7-7-7-7-7-7-|
E|-----------------3-3-3-3-3-3-3-3----------------------------------------|

Guitar 2
e|----------------------------------|------------------------------------|
B|----------------------------------|------------------------------------|
G|-1111111111111111-9-9-9-9-9-9-9-9-|---1111111111111111-9-9-9-9-6-6-6-6-|
D|-x-x-x-x-x-x-x-x--x-x-x-x-x-x-x-x-|3x-x-x-x-x-x-x-x-x--x-x-x-x-x-x-x-x-|
A|-9-9-9-9-9-9-9-9--7-7-7-7-7-7-7-7-|---9-9-9-9-9-9-9-9--7-7-7-7-4-4-4-4-|
E|----------------------------------|------------------------------------|

Chorus: Guitar 1
(0:33) "To the love..."
e|---------------------------------|
B|---------------------------------|
G|-4-4-4-4-4-4-4-4-----------------|
D|-4-4-4-4-4-4-4-4-5-5-5-5-5-5-5-5-|
A|-2-2-2-2-2-2-2-2-5-5-5-5-5-5-5-5-|
E|-----------------3-3-3-3-3-3-3-3-|

Guitar 2
e|-----------------------------------------|
B|-----------------------------------------|
G|1111111111111111-13-13-13-13-13-13-13-13-|
D|-x-x-x-x-x-x-x-x--x--x--x--x--x--x--x--x-|
A|-9-9-9-9-9-9-9-9-11-11-11-11-11-11-11-11-|
E|-----------------------------------------|

Guitar 1 
(0:40) "Of the Bible in the drawer..."
e|-----------------------------------------------------------------|
B|-----------------------------------------------------------------|
G|-4-4-4-4-4-4-4-4-7-7-7-7-7-7-7-7---------------------------------|
D|-4-4-4-4-4-4-4-4-7-7-7-7-7-7-7-7-5-5-5-5-5-5-5-5-2-2-2-2-2-2-2-2-|2x
A|-2-2-2-2-2-2-2-2-5-5-5-5-5-5-5-5-5-5-5-5-5-5-5-5-2-2-2-2-2-2-2-2-|
E|---------------------------------3-3-3-3-3-3-3-3-0-0-0-0-0-0-0-0-|

Guitar 2
e|------------------------------------------------------------------|
B|------------------------------------------------------------------|
G|1111111111111111-1414141414141414-7-7-7-7-7-7-7-7-6-6-6-6-6-6-6-6-|
D|-x-x-x-x-x-x-x-x--x-x-x-x-x-x-x-x-x-x-x-x-x-x-x-x-x-x-x-x-x-x-x-x-|2x
A|-9-9-9-9-9-9-9-9-1212121212121212-5-5-5-5-5-5-5-5-4-4-4-4-4-4-4-4-|
E|------------------------------------------------------------------|

Guitar 1
(0:54) "But I took it anyway"
e|-----------------|
B|-----------------|
G|-4-------4-------|
D|-4-2-2-2-4-2-2-2-|
A|-2-2-2-2-2-2-2-2-|
E|---0-0-0---0-0-0-|
     * * *   * * *

Guitar 1
(0:57) "Put your ear..."
e|-------------------------------------------------|
B|-------------------------------------------------|
G|-4-4-4-4-4-4-4-4---------------------------------|
D|-4-4-4-4-4-4-4-4-5-5-5-5-5-5-5-5-2-2-2-2-2-2-2-2-|
A|-2-2-2-2-2-2-2-2-5-5-5-5-5-5-5-5-2-2-2-2-2-2-2-2-|
E|-----------------3-3-3-3-3-3-3-3-0-0-0-0-0-0-0-0-|

Guitar 2
e|---------------------------------------------------------|
B|---------------------------------------------------------|
G|1111111111111111-14-14-14-14-14-14-14-14-7-7-7-7-7-7-7-7-|
D|-x-x-x-x-x-x-x-x--x--x--x--x--x--x--x--x-x-x-x-x-x-x-x-x-|
A|-9-9-9-9-9-9-9-9-12-12-12-12-12-12-12-12-5-5-5-5-5-5-5-5-|
E|---------------------------------------------------------|

Guitar 1 
(1:02) "But never both"
e|-----------------------------------------------------------------|
B|-----------------------------------------------------------------|
G|-4-4-4-4-4-4-4-4-7-7-7-7-7-7-7-7---------------------------------|
D|-4-4-4-4-4-4-4-4-7-7-7-7-7-7-7-7-5-5-5-5-5-5-5-5-2-2-2-2-2-2-2-2-|
A|-2-2-2-2-2-2-2-2-5-5-5-5-5-5-5-5-5-5-5-5-5-5-5-5-2-2-2-2-2-2-2-2-|
E|---------------------------------3-3-3-3-3-3-3-3-0-0-0-0-0-0-0-0-|

Guitar 2
e|------------------------------------------------------------------|
B|------------------------------------------------------------------|
G|1111111111111111-1414141414141414-7-7-7-7-7-7-7-7-6-6-6-6-6-6-6-6-|
D|-x-x-x-x-x-x-x-x--x-x-x-x-x-x-x-x-x-x-x-x-x-x-x-x-x-x-x-x-x-x-x-x-|
A|-9-9-9-9-9-9-9-9-1212121212121212-5-5-5-5-5-5-5-5-4-4-4-4-4-4-4-4-|
E|------------------------------------------------------------------|

Guitar 1
(1:09) "I hoped you choked..."
e|-----------------------------------------------------------------|
B|-----------------------------------------------------------------|
G|-4-4-4-4-4-4-4-4-4-4-4-4-4-4-4-4---------------------------------|
D|-4-4-4-4-4-4-4-4-4-4-4-4-4-4-4-4-5-5-5-5-5-5-5-5-2-2-2-2-2-2-2-2-|2x
A|-2-2-2-2-2-2-2-2-2-2-2-2-2-2-2-2-5-5-5-5-5-5-5-5-2-2-2-2-2-2-2-2-|
E|---------------------------------3-3-3-3-3-3-3-3-0-0-0-0-0-0-0-0-|
pm * * * * * * * * * * * * * * * * * * * * * * * * * * * * * * * * 

Guitar 2
e|------------------------------------------------------------------|-----|
B|------------------------------------------------------------------|-----|
G|------------------------------------------------------------------|---4-|
D|-9-9-9-9-9-9-9-9-9-9-9-9-9-9-9-9-1212121212121212-1414141414141414|2x-4-|
A|------------------------------------------------------------------|---2-|
E|------------------------------------------------------------------|-----|

Guitar 1
(1:27) "To hands between..."
e|------------------------------------------------------------------------|
B|------------------------------------------------------------------------|
G|-4-4-4-4-4-4-4-4-----------------4-4-4-6-6-6-8-8-8-11-11-11-9-9-9-9-9-9-|
D|-4-4-4-4-4-4-4-4-5-5-5-5-5-5-5-5-4-4-4-6-6-6-8-8-8-11-11-11-9-9-9-9-9-9-|2x
A|-2-2-2-2-2-2-2-2-5-5-5-5-5-5-5-5-2-2-2-4-4-4-6-6-6--9--9--9-7-7-7-7-7-7-|
E|-----------------3-3-3-3-3-3-3-3----------------------------------------|

Guitar 2
e|----------------------------------|------------------------------------|
B|----------------------------------|------------------------------------|
G|-1111111111111111-9-9-9-9-9-9-9-9-|---1111111111111111-9-9-9-9-6-6-6-6-|
D|-x-x-x-x-x-x-x-x--x-x-x-x-x-x-x-x-|3x-x-x-x-x-x-x-x-x--x-x-x-x-x-x-x-x-|
A|-9-9-9-9-9-9-9-9--7-7-7-7-7-7-7-7-|---9-9-9-9-9-9-9-9--7-7-7-7-4-4-4-4-|
E|----------------------------------|------------------------------------|

Chorus: Guitar 1
(1:42) "To the love..."
e|---------------------------------|
B|---------------------------------|
G|-4-4-4-4-4-4-4-4-----------------|
D|-4-4-4-4-4-4-4-4-5-5-5-5-5-5-5-5-|
A|-2-2-2-2-2-2-2-2-5-5-5-5-5-5-5-5-|
E|-----------------3-3-3-3-3-3-3-3-|

Guitar 2
e|-----------------------------------------|
B|-----------------------------------------|
G|1111111111111111-13-13-13-13-13-13-13-13-|
D|-x-x-x-x-x-x-x-x--x--x--x--x--x--x--x--x-|
A|-9-9-9-9-9-9-9-9-11-11-11-11-11-11-11-11-|
E|-----------------------------------------|

Guitar 1 
(1:50) "Of the Bible in the drawer..."
e|-----------------------------------------------------------------|
B|-----------------------------------------------------------------|
G|-4-4-4-4-4-4-4-4-7-7-7-7-7-7-7-7---------------------------------|
D|-4-4-4-4-4-4-4-4-7-7-7-7-7-7-7-7-5-5-5-5-5-5-5-5-2-2-2-2-2-2-2-2-|2x
A|-2-2-2-2-2-2-2-2-5-5-5-5-5-5-5-5-5-5-5-5-5-5-5-5-2-2-2-2-2-2-2-2-|
E|---------------------------------3-3-3-3-3-3-3-3-0-0-0-0-0-0-0-0-|

Guitar 2
e|------------------------------------------------------------------|
B|------------------------------------------------------------------|
G|1111111111111111-1414141414141414-7-7-7-7-7-7-7-7-6-6-6-6-6-6-6-6-|
D|-x-x-x-x-x-x-x-x--x-x-x-x-x-x-x-x-x-x-x-x-x-x-x-x-x-x-x-x-x-x-x-x-|2x
A|-9-9-9-9-9-9-9-9-1212121212121212-5-5-5-5-5-5-5-5-4-4-4-4-4-4-4-4-|
E|------------------------------------------------------------------|

Guitar 1
(2:04) "But I took it anyway"
e|-----------------|
B|-----------------|
G|-4-------4-------|
D|-4-2-2-2-4-2-2-2-|
A|-2-2-2-2-2-2-2-2-|
E|---0-0-0---0-0-0-|
     * * *   * * *

Guitar 1
(2:56) "Put your ear..."
e|-------------------------------------------------|
B|-------------------------------------------------|
G|-4-4-4-4-4-4-4-4---------------------------------|
D|-4-4-4-4-4-4-4-4-5-5-5-5-5-5-5-5-2-2-2-2-2-2-2-2-|
A|-2-2-2-2-2-2-2-2-5-5-5-5-5-5-5-5-2-2-2-2-2-2-2-2-|
E|-----------------3-3-3-3-3-3-3-3-0-0-0-0-0-0-0-0-|

Guitar 2
e|---------------------------------------------------------|
B|---------------------------------------------------------|
G|1111111111111111-14-14-14-14-14-14-14-14-7-7-7-7-7-7-7-7-|
D|-x-x-x-x-x-x-x-x--x--x--x--x--x--x--x--x-x-x-x-x-x-x-x-x-|
A|-9-9-9-9-9-9-9-9-12-12-12-12-12-12-12-12-5-5-5-5-5-5-5-5-|
E|---------------------------------------------------------|

Guitar 1 
(2:11) "But never both"
e|-----------------------------------------------------------------|
B|-----------------------------------------------------------------|
G|-4-4-4-4-4-4-4-4-7-7-7-7-7-7-7-7---------------------------------|
D|-4-4-4-4-4-4-4-4-7-7-7-7-7-7-7-7-5-5-5-5-5-5-5-5-2-2-2-2-2-2-2-2-|
A|-2-2-2-2-2-2-2-2-5-5-5-5-5-5-5-5-5-5-5-5-5-5-5-5-2-2-2-2-2-2-2-2-|
E|---------------------------------3-3-3-3-3-3-3-3-0-0-0-0-0-0-0-0-|

Guitar 2
e|------------------------------------------------------------------|
B|------------------------------------------------------------------|
G|1111111111111111-1414141414141414-7-7-7-7-7-7-7-7-6-6-6-6-6-6-6-6-|
D|-x-x-x-x-x-x-x-x--x-x-x-x-x-x-x-x-x-x-x-x-x-x-x-x-x-x-x-x-x-x-x-x-|
A|-9-9-9-9-9-9-9-9-1212121212121212-5-5-5-5-5-5-5-5-4-4-4-4-4-4-4-4-|
E|------------------------------------------------------------------|

Bridge: Guitar 1
(2:19) "To the love.."
e|-----------------------------------------------------------------|
B|-----------------------------------------------------------------|
G|-4-4-4-4-4-4-4-4-7-7-7-7-7-7-7-7---------------------------------|
D|-4-4-4-4-4-4-4-4-7-7-7-7-7-7-7-7-5-5-5-5-5-5-5-5-2-2-2-2-2-2-2-2-|
A|-2-2-2-2-2-2-2-2-5-5-5-5-5-5-5-5-5-5-5-5-5-5-5-5-2-2-2-2-2-2-2-2-|
E|---------------------------------3-3-3-3-3-3-3-3-0-0-0-0-0-0-0-0-|
                                                   * * * * * * * *

Guitar 1
(2:33) "To the love..."
e|-----------------------------------------------------------------|
B|-----------------------------------------------------------------|
G|-4-4-4-4-4-4-4-4-7-7-7-7-7-7-7-7---------------------------------|
D|-4-4-4-4-4-4-4-4-7-7-7-7-7-7-7-7-5-5-5-5-5-5-5-5-2-2-2-2-2-2-2-2-|2x
A|-2-2-2-2-2-2-2-2-5-5-5-5-5-5-5-5-5-5-5-5-5-5-5-5-2-2-2-2-2-2-2-2-|
E|---------------------------------3-3-3-3-3-3-3-3-0-0-0-0-0-0-0-0-|

Guitar 2
e|------------------------------------------------------------------|
B|------------------------------------------------------------------|
G|1111111111111111-1414141414141414-7-7-7-7-7-7-7-7-6-6-6-6-6-6-6-6-|
D|-x-x-x-x-x-x-x-x--x-x-x-x-x-x-x-x-x-x-x-x-x-x-x-x-x-x-x-x-x-x-x-x-|2x
A|-9-9-9-9-9-9-9-9-1212121212121212-5-5-5-5-5-5-5-5-4-4-4-4-4-4-4-4-|
E|------------------------------------------------------------------|

Guitar 1
(3:02) "To the love.."
e|---------------------------------|
B|---------------------------------|
G|-4-4-4-4-4-4-4-4-----------------|
D|-4-4-4-4-4-4-4-4-5-5-5-5-5-5-5-5-|3x
A|-2-2-2-2-2-2-2-2-5-5-5-5-5-5-5-5-|
E|-----------------3-3-3-3-3-3-3-3-|

Guitar 2
e|-----------------------------------------|
B|-----------------------------------------|
G|1111111111111111-13-13-13-13-13-13-13-13-|
D|-x-x-x-x-x-x-x-x--x--x--x--x--x--x--x--x-|3x
A|-9-9-9-9-9-9-9-9-11-11-11-11-11-11-11-11-|
E|-----------------------------------------|

Guitar 1
(3:24) "what did it ever do for me I say"
e|---|
B|---|
G|---|
D|-5-|
A|-5-|
E|-3-|
comments
print report bad tab
14 comments total. Showing first comments.
0 reply
welfkag wrote on December 20 2005, 10:11 am

excellent work.

+1 reply
z3r0element07 wrote on December 20 2005, 07:05 pm

Yes, excellent work in copying and pasting.

0 reply
JGAB2 wrote on December 20 2005, 08:12 pm

Great work

I want to post or [tab]
guest
You may want to rate the tab now too:
select rating
Please do not post tabs as comments. Select "correction" instead!