Oops, an error
Loading. Please wait.

From Under The Cork Tree Tab

ver2
ver2

Album

More versions @911Tabs.com
4,635 views 6 this week
4 commentsread comments
1 2 3 4 5
worth learning
x 6
add to favorites launch autoscroll
font size
0
reset
Autoscroll
+/-
esc
set tempo
stop
Contributor
WARNING: You are trying to view
                                    content from Ultimate-Guitar.com
                                    in an unauthorized application,
                                    which is prohibited.

                                    Please use an official Ultimate
                                    Guitar Tabs application for iPhone,
                                    iPad or Android to access legitimate
                                    chords, guitar, bass, and drum tabs
                                    from Ultimate-Guitar.com database.

                                    Type "ultimate guitar tabs" in Apple
                                    App Store's or Android Market's
                                    search to find the application.
Fallout Boy From under the cork tree
Whole album tab
Tabbed by Liam 
Email: guitar_rocker_47@hotmail.com
Tuning –(see individual tabs)
Date: 4/feb/06

Umm, I noticed that the album tab on here was just a compilation of other people’s tabs
–that some guy put together and everybody hates him now –that’s funny. So I submitted
mine own, here it is, tabbed front to back, fully by me. Have some fun and please rate
and leave comments.

1. Our Lawyer Made Us Change The Name Of This Song So We Wouldn't Get Sued 
2. Of All The Gin Joints; in all The World...
3. Dance, Dance 
4. Sugar, We're Going Down 
5. Nobody Puts Baby In The Corner 
6. I've Got A Dark Alley And A Bad Idea That Says You Should Shut Your Mouth 
7. 7 Minutes In Heaven  
8. Sophomore Slump Or Comeback Of The Year 
9. Champagne For My Real Friends, Real Pain For My Sham Friends 
10. I Slept With Sum1 In Fallout Boy &All I Got Was This Stupid Song Written About Me 
11. A Little Less Sixteen Candles, A Little More "Touch Me" 
12. Get Busy Living Or Get Busy Dying 
13. XO


Fallout Boy: Our Lawyer Made Us Change The Name Of This Song So We Wouldn't Get Sued
Track: 1
Tuning: Drop D
Notes: Chorus maybe echo effect used in the guitar 1 intro part, also please note there
are three guitars in the song but the third guitar only appears briefly and in frequently

Intro part 1
 |Guitar 2 only
E|----------------------------------------------------------------|
B|----------------------------------------------------------------|
G|-9/10--10101010101010---9/10--10101010---9/10--1010101010101010-|
D|-9/10--10101010101010---9/10--10101010---9/10--1010101010101010-|
A|-7/-8---8-8-8-8-8-8—8---7/-8---8-8-8-8---7/-8---8-8-8-8-8-8-8-8-|
D|----------------------------------------------------------------|

Intro part 2
 |Guitar 1						   
e|----------------------------------------------------------------------| 
B|----------------------------------------------------------------------|
G|----------------------------------------------------------------------|
D|--0-0-0-0-0-0-0-0-0-0-0-0-0-0-0-0---8-8-8-8—8-8-8-8---5-5-5-5-5-5-5-5-|
A|--0-0-0-0-0-0-0-0-0-0-0-0-0-0-0-0---8-8-8-8—8-8-8-8---5-5-5-5-5-5-5-5-|
D|--0-0-0-0-0-0-0-0-0-0-0-0-0-0-0-0---8-8-8-8—8-8-8-8---5-5-5-5-5-5-5-5-|
 |Guitar 2
E|----------------------------------------------------------------------|
B|----------------------------------------------------------------------|
G|-9/101010101010101010101010101010--9/10101010101010--9/10101010101010-|
D|-9/101010101010101010101010101010--9/10101010101010--9/10101010101010-|
A|-7/-8-8-8-8-8-8—8-8-8-8-8-8-8—8-8--7/-8-8-8-8-8-8-8--7/-8-8-8-8-8-8-8-|
D|----------------------------------------------------------------------| 
 |Guitar 3
E|----------------------------------------------------------------------|
B|----------------------------------------------------------------------|
G|-------------------------|Tacet|--------------------------------------|
D|----------------------------------------------------------------------|
A|----------------------------------------------------------------------|
D|----------------------------------------------------------------------|


 |Guitar 1						   
e|----------------------------------------------------------------------| 
B|----------------------------------------------------------------------|
G|----------------------------------------------------------------------|
D|--0-0-0-0-0-0-0-0-0-0-0-0-0-0-0-0---8-8-8-8—8-8-8-8---5-5-5-5-5-5-5-5-|
A|--0-0-0-0-0-0-0-0-0-0-0-0-0-0-0-0---8-8-8-8—8-8-8-8---5-5-5-5-5-5-5-5-|
D|--0-0-0-0-0-0-0-0-0-0-0-0-0-0-0-0---8-8-8-8—8-8-8-8---5-5-5-5-5-5-5-5-|
 |Guitar 2
E|----------------------------------------------------------------------|
B|----------------------------------------------------------------------|
G|-9/101010101010101010101010101010--9/10101010101010--9/10101010101010-|
D|-9/101010101010101010101010101010--9/10101010101010--9/10101010101010-|
A|-7/-8-8-8-8-8-8—8-8-8-8-8-8-8—8-8--7/-8-8-8-8-8-8-8--7/-8-8-8-8-8-8-8-|
D|----------------------------------------------------------------------|
 |Guitar 3
E|----------------------------------------------------------------------|
B|----------------------------------------------------------------------|
G|--4/5-5-5-5-5-5-5-5-5-5-5-5-5-5-5---4/5-5-5-5-5-5-5---4/5-5-5-5-5-5-5-|
D|--2/3-3-3-3-3-3-3-3-3-3-3-3-3-3-3---2/3-3-3-3-3-3-3---2/3-3-3-3-3-3-3-|
A|----------------------------------------------------------------------|
D|----------------------------------------------------------------------|

Verse
 |Guitar 1
E|---------------------------------------------------|
B|---------------------------------------------------|
G|---------------------------------------------------|
D|-3-3-3-3--3-3-3-3--2-2-2-2--5-5-/-7-7-/-8-8-/-1010-|
A|-5-5-5-5--4-4-4-4--3-3-3-3--5-5-/-7-7-/-8-8-/-1010-|
D|----------------------------5-5-/-7-7-/-8-8-/-1010-|
 |Guitar 2
E|---------------------------------------------------|
B|----------------------------8-8-/1010-/1212-/-1414-|
G|----------------------------x-x-/-x-x-/-x-x-/--x-x-|
D|----------------------------5-5-/-7-7-/-9-9-/-1111-|
A|---------------------------------------------------|
D|---------------------------------------------------|

 |Guitar 1
E|--------------------------------------------------------------------|
B|--------------------------------------------------------------------|
G|--------------------------------------------------------------------|
D|-0--------------7-8----------------7-5------------7-8----------1010-|
A|-0--------------7-8----------------7-5------------7-8----------1010-|
D|-0--------------7-8----------------7-5------------7-8----------1010-|
 |Guitar 2
E|--------------------------------------------------------------------|
B|--------------------------------------------------------------------|
G|-9/101010101010101010101010101010--9/101010101010101010101010101010-|
D|-9/101010101010101010101010101010--9/101010101010101010101010101010-|
A|-7/-8-8-8-8-8-8—8-8-8-8-8-8-8—8-8--9/-8-8-8-8-8-8-8-8-8-8-8-8-8-8-8-|
D|--------------------------------------------------------------------|

Pre Chorus
 |Guitar 1
E|-----------------------------------------------------------------------------------|
B|-----------------------------------------------------------------------------------|
G|------------5-5-5-5-5---------------------------5-5-5-5-5--------------------------|
D|-8-8-8-8-8--5-5-5-5-5--55555555555---8-8-8-8-8--5-5-5-5-5--5-----------------------|
A|-8-8-8-8-8--3-3-3-3-3--55555555555---8-8-8-8-8--3-3-3-3-3--5-----------------------|
D|-8-8-8-8-8-------------55555555555---8-8-8-8-8-------------5-----------------------|
 |Guitar 2
E|--------8----------8------------8------------8----------8--------------------------|
B|-5h6~-6-----5h6~-6------5h6~-6--------5h6~-6-----5h6~-6----------------------------|
G|--------------------------------------------------------------9/101010101010101010-|
D|--------------------------------------------------------------9/101010101010101010-|
A|--------------------------------------------------------------7/-8-8-8-8-8-8—8-8-8-|
D|-----------------------------------------------------------------------------------|

Chorus
 |Guitar 1
E|--------------------------------------------------------------------|
B|--------------------------------------------------------------------|
G|------------------5-------------------------------------------------|
D|-8----------------5-5------------5-5-5-5-5-5-5-5-5-5-5-5-5-5-5-5-5--|
A|-8----------------3-5------------5-5-5-5-5-5-5-5-5-5-5-5-5-5-5-5-5--|
D|-8------------------5------------5-5-5-5-5-5-5-5-5-5-5-5-5-5-5-5-5--|
 |Guitar 2
E|--------------------------------------------------------------------|
B|--------------------------------------------------------------------|
G|-1010101010101010--9/1010101010101010101010101010101010101010101010-|
D|-1010101010101010--9/1010101010101010101010101010101010101010101010-|
A|--8-8-8-8-8-8—8-8--9/-8-8-8-8-8-8-8-8-8-8-8-8-8-8-8-8-8-8-8-8-8-8-8-|
D|--------------------------------------------------------------------|

|Guitar 1
E|--------------------------------------------------------------------|
B|--------------------------------------------------------------------|
G|------------------5-------------------------------------------------|
D|-8----------------5-5------------5-5-5-5-5-5-5-5-5-5-5-5-5-5-5-5-5--|
A|-8----------------3-5------------5-5-5-5-5-5-5-5-5-5-5-5-5-5-5-5-5--|
D|-8------------------5------------5-5-5-5-5-5-5-5-5-5-5-5-5-5-5-5-5--|
 |Guitar 2
E|--------------------------------------------------------------------|
B|--------------------------------------------------------------------|
G|-1010101010101010--9/1010101010101010101010101010101010101010101010-|
D|-1010101010101010--9/1010101010101010101010101010101010101010101010-|
A|--8-8-8-8-8-8—8-8--9/-8-8-8-8-8-8-8-8-8-8-8-8-8-8-8-8-8-8-8-8-8-8-8-|
D|--------------------------------------------------------------------|

|Guitar 1
E|--------------------------------------------------------------------|
B|--------------------------------------------------------------------|
G|-------------------5-5-5-5-5-5-5------------------------------------|
D|-8-8-8-8-8-8-8-8---5-5-5-5-5-5-5-5-5-5-5-5-5-5-5-5-5-5-5-5-5-5-5-5--|
A|-8-8-8-8-8-8-8-8---3-3-3-3-3-3-3-5-5-5-5-5-5-5-5-5-5-5-5-5-5-5-5-5--|
D|-8-8-8-8-8-8-8-8-----------------5-5-5-5-5-5-5-5-5-5-5-5-5-5-5-5-5--|
 |Guitar 2
E|--------------------------------------------------------------------|
B|--------------------------------------------------------------------|
G|-1010101010101010--9/1010101010101010101010101010101010101010101010-|
D|-1010101010101010--9/1010101010101010101010101010101010101010101010-|
A|--8-8-8-8-8-8—8-8--9/-8-8-8-8-8-8-8-8-8-8-8-8-8-8-8-8-8-8-8-8-8-8-8-|
D|--------------------------------------------------------------------|

 |Guitar 1
E|----------------------------|
B|----------------------------|
G|----------------------------|
D|-7-7-7-7-7-7-7-7-7-7--8~~---|
A|-7-7-7-7-7-7-7-7-7-7--8~~---|
D|-7-7-7-7-7-7-7-7-7-7--8~~-\\|
 |Guitar 2
E|----------------------------|
B|----------------------------|
G|-1010101010101010-----------|
D|-1010101010101010-----------|
A|--8-8-8-8-8-8—8-8-----------|
D|--------------------------\\|

Post chorus
 |Guitar 1 only
E|-----------------------------------------|
B|-----------------------------------------|
G|-----------------------------------------|
D|-00-0000-0000-0000-00-88-8888-88-55-5555-|
A|-00-0000-0000-0000-00-88-8888-88-55-5555-|
D|-00-0000-0000-0000-00-88-8888-88-55-5555-|
PM ** **** **** **** ** ** **** ** ** ****

Pre Chorus 2
 |Guitar 1
E|------------------------------------------------------------------|
B|------------------------------------------------------------------|
G|------------5-5-5-5-5---------------------------5-5-5-5-5---------|
D|-8-8-8-8-8--5-5-5-5-5--55555555555---8-8-8-8-8--5-5-5-5-5--5-55-5-|
A|-8-8-8-8-8--3-3-3-3-3--55555555555---8-8-8-8-8--3-3-3-3-3--5-55-5-|
D|-8-8-8-8-8-------------55555555555---8-8-8-8-8-------------5-55-5-|
PM                                                             **
 |Guitar 2
E|--------8----------8------------8------------8----------8---------|
B|-5h6~-6-----5h6~-6------5h6~-6--------5h6~-6-----5h6~-6-----------|
G|------------------------------------------------------------------|
D|------------------------------------------------------------------|
A|------------------------------------------------------------------|
D|------------------------------------------------------------------|

Post Chorus 2
 |Guitar 1 only
E|-------------------------------------------|
B|-------------------------------------------|
G|-------------------------------------------|
D|-00-00-00-00-00-00--5-5-/-7-7-/-8-8-/-1010-|
A|-00-00-00-00-00-00--5-5-/-7-7-/-8-8-/-1010-|
D|-00-00-00-00-00-00--5-5-/-7-7-/-8-8-/-1010-|
PM ** ** ** ** ** **

Interlude
 |Guitar 1
E|-------------------------------------------------------------------------------|
B|-------------------------------------------------------------------------------|
G|-------------------------------------------------------------------------------|
D|---5---5----5---5----5---5----5---5----5---5----5---5---5-5-/-7-7-/-8-8-/-1010-|
A|---5---5----5---5----5---5----5---5----5---5----5---5---5-5-/-7-7-/-8-8-/-1010-|
D|---5---5----5---5----5---5----5---5----5---5----5---5---5-5-/-7-7-/-8-8-/-1010-|
PM   *   *    *   *    *   *    *   *    *   *    *   *
 |Guitar 2
E|------8------8-----8------8------8-----8------8-----8--------------------------|
B|-5h6-6--5h6-6-5h6-6--5h6-6--5h6-6-5h6-6--5h6-6-5h6-6----8-8-/1010-/1212-/-1414-|
G|--------------------------------------------------------x-x-/-x-x-/-x-x-/--x-x-|
D|--------------------------------------------------------5-5-/-7-7-/-9-9-/-1111-|
A|-------------------------------------------------------------------------------|
E|-------------------------------------------------------------------------------|

Break
 |Guitar 1 only 
E|-------------------------------|--------------|
B|-------------------------------|--------------|
G|-------------------------------|--------------|
D|-4444-4444-4444-3333-2222-2222-|-4444-4444-4--|
A|-5555-5555-5555-4444-3333-2222-|-5555-5555-5--|
E|-------------------------------|--------------|

Outro
 |Guitar 1
E|----------------------------------------|----------------------------------------|
B|----------------------------------------|----------------------------------------|
G|------------5-5-5-5-5-------------------|------------5-5-5-5-5-------------------|
D|-8-8-8-8-8--5-5-5-5-5--5555555555555555-|-8-8-8-8-8--5-5-5-5-5--5555555555555555-|
A|-8-8-8-8-8--3-3-3-3-3--5555555555555555-|-8-8-8-8-8--3-3-3-3-3--5555555555555555-|
E|-8-8-8-8-8-------------5555555555555555-|-8-8-8-8-8-------------5555555555555555-|
 |Guitar 2
E|------8------8-----8------8------8-----8|------8------8-----8------8------8-----8|
B|-5h6-6--5h6-6-5h6-6--5h6-6--5h6-6-5h6-6-|-5h6-6--5h6-6-5h6-6--5h6-6--5h6-6-5h6-6-|
G|----------------------------------------|----------------------------------------|
D|----------------------------------------|----------------------------------------|
A|----------------------------------------|----------------------------------------|
E|----------------------------------------|----------------------------------------|

 |Guitar 1
E|----------------------------------------|------------------------|
B|----------------------------------------|------------------------|
G|------------5-5-5-5-5-------------------|------5~~---------------|
D|-8-8-8-8-8--5-5-5-5-5--5555555555555555-|-8~~--5~~--5~~~~~~~~~~~-|
A|-8-8-8-8-8--3-3-3-3-3--5555555555555555-|-8~~--3~~--5~~~~~~~~~~~-|
E|-8-8-8-8-8-------------5555555555555555-|-8~~-------5~~~~~~~~~~~-|
 |Guitar 2
E|------8------8-----8------8------8-----8|
B|-5h6-6--5h6-6-5h6-6--5h6-6--5h6-6-5h6-6-|
G|----------------------------------------|
D|----------------------------------------|
A|----------------------------------------|
E|----------------------------------------|

Order

Intro part 1
Intro part 2
Verse
Pre-Chorus
Chorus
Post-Chorus
Verse
Pre-Chorus 2
Chorus
Post-Chorus 2
Interlude
Break
Outro





Fallout Boy: Of All The Gin Joints; in all The World...
Track: 2
Tuning: Drop D
Notes: -

Intro
 |Guitar 1 only now
E|------------------------------------|--------------------------------------|
B|------------------------------------|--------------------------------------|
G|------------------------------------|--------------------------------------|
D|-3-3-3-3--5-5-5-5--7-7-7-7--10--10--|-3-3-3-3--5-5-5-5--7-7-7-7--0-0-------|
A|-3-3-3-3--5-5-5-5--7-7-7-7--10--10--|-3-3-3-3--5-5-5-5--7-7-7-7--0-0-------|
E|-3-3-3-3--5-5-5-5--7-7-7-7--10--10--|-3-3-3-3--5-5-5-5--7-7-7-7--0-0--10p8-|
PM 								       * *

Intro cont
 |Both guitars 
E|------------------------------------|--------------------------------------|
B|------------------------------------|--------------------------------------|
G|------------------------------------|--------------------------------------|
D|-3-3-3-3--5-5-5-5--7-7-7-7--10--10--|-3-3-3-3--5-5-5-5--7-7-7-7--0-0-------| x2
A|-3-3-3-3--5-5-5-5--7-7-7-7--10--10--|-3-3-3-3--5-5-5-5--7-7-7-7--0-0-------|
E|-3-3-3-3--5-5-5-5--7-7-7-7--10--10--|-3-3-3-3--5-5-5-5--7-7-7-7--0-0--10p8-|
PM 								       * *

Verse
 |Guitar 1
E|-------------------------------------------------------------------------|
B|-------------------------------------------------------------------------|
G|-------------------------------------------------------------------------|
D|-------------------22-33-------------------22-33-------------------22-33-|
A|-------------------22-33-------------------22-33-------------------22-33-|
E|-------------------22-33-------------------22-33-------------------22-33-|
 |Guitar 2
E|-------------------------------------------------------------------------|
B|-------------------------------------------------------------------------|
G|-55555555-55555555-------55555555-55555555-------55555555-55555555-------|
D|-xxxxxxxx-xxxxxxxx-------xxxxxxxx-xxxxxxxx-------xxxxxxxx-xxxxxxxx-------|
A|-33333333-33333333-------33333333-33333333-------33333333-33333333-------|
E|-------------------------------------------------------------------------|

 |Guitar 1
E|-------------------------------------|
B|-------------------------------------|
G|-------------------------------------|
D|-7--5---22222222--333333333-33333333-|
A|-7--5---22222222--333333333-33333333-|
E|-7--5---22222222--333333333-33333333-|
 |Guitar 2
E|-------------------------------------|
B|-------------------------------------|
G|-------------------------------------|
D|-7--5---22222222--333333333-33333333-|
A|-7--5---22222222--333333333-33333333-|
E|-7--5---22222222--333333333-33333333-|

Verse cont
 |Guitar 1
E|-------------------------------------------------------|
B|-------------------------------------------------------|
G|-------------------------------------------------------|
D|-22-33--xxxx-xxxx-xxxx---22-33--xxxx-xxxx-xxxx---22-33-|
A|-22-33--xxxx-xxxx-xxxx---22-33--xxxx-xxxx-xxxx---22-33-|
E|-22-33--xxxx-xxxx-xxxx---22-33--xxxx-xxxx-xxxx---22-33-|
 |Guitar 2
E|-------------------------------------------------------|
B|-------------------------------------------------------|
G|-------55555555-55555555-------55555555-55555555-------|
D|-------xxxxxxxx-xxxxxxxx-------xxxxxxxx-xxxxxxxx-------|
A|-------33333333-33333333-------33333333-33333333-------|
E|-------------------------------------------------------|

 |Guitar 1
E|-------------------------------------|
B|-------------------------------------|
G|-------------------------------------|
D|-7--5---22222222--333333333-33333333-|
A|-7--5---22222222--333333333-33333333-|
E|-7--5---22222222--333333333-33333333-|
PM                             ******
 |Guitar 2
E|-------------------------------------|
B|-------------------------------------|
G|-------------------------------------|
D|-7--5---22222222--333333333-33333333-|
A|-7--5---22222222--333333333-33333333-|
E|-7--5---22222222--333333333-33333333-|
PM                             ******

Chorus
 |Guitar 1
E|----------------------------------|----------------------------------|
B|----------------------------------|----------------------------------|
G|-5-5---------5--------------------|----------------------------------|
D|-5-5---------5----5-5---------5---|-7\5/7-------7\5--7-----7-7-5-5-5-|
A|-3-3---------3----5-5---------5---|-7\5/7-------7\5--7-----7-7-5-5-5-|
D|------------------5-5---------5---|-7\5/7-------7\5--7-----7-7-5-5-5-|
 |Guitar 2
E|----------------------------------|----------------------------------|
B|----------------------------------|----------------------------------|
G|-5---5---3---3----5---5---3---3---|-5---5---3---3----5---5---3---3---|
D|---5---5---5---5----5---5---5---5-|---5---5---5---5----5---5---5---5-|
A|----------------------------------|----------------------------------|
D|----------------------------------|----------------------------------|

 |Guitar 1
E|----------------------------------|----------------------------------|
B|----------------------------------|----------------------------------|
G|-5-5---------5--------------------|----------------------------------|
D|-5-5---------5----5-5---------5---|-7\5/7---3-3-3-3-3-3-3-3-3-3-3-3--|
A|-3-3---------3----5-5---------5---|-7\5/7---3-3-3-3-3-3-3-3-3-3-3-3--|
D|------------------5-5---------5---|-7\5/7---3-3-3-3-3-3-3-3-3-3-3-3--|
PM				        * * * * * * * * * * * *
 |Guitar 2
E|----------------------------------|----------------------------------|
B|----------------------------------|----------------------------------|
G|-5---5---3---3----5---5---3---3---|-5---5---3---3----5---5---3---3---|
D|---5---5---5---5----5---5---5---5-|---5---5---5---5----5---5---5---5-|
A|----------------------------------|----------------------------------|
D|----------------------------------|----------------------------------|

 |Guitar 1
E|----------------------------------------------------------------------------|
B|----------------------------------------------------------------------------|
G|--5-5-5-5-5-5-5-5-----------------------------------------------------------|
D|--5-5-5-5-5-5-5-5---5-5-5-5-5-5-5-5---7-\5-/7-7-7-7-7\5---7-7-7-7-7--5-5-5--|
A|--3-3-3-3-3-3-3-3---5-5-5-5-5-5-5-5---7-\5-/7-7-7-7-7\5---7-7-7-7-7--5-5-5--|
D|--------------------5-5-5-5-5-5-5-5---7-\5-/7-7-7-7-7\5---7-7-7-7-7--5-5-5--|
 |Guitar 2
E|----------------------------------------------------------------------------|
B|-1313131313131313-----------------------------------------------------------|
G|--x-x-x-x-x-x-x-x--1212121212121212--15-13-1515151515-13-1515151515-131313--|
D|-1010101010101010---x-x-x-x-x-x-x-x---x--x--x-x-x-x-x--x--x-x-x-x-x--x-x-x--|
A|-------------------1010101010101010--13-11-1313131313-11-1313131313-111111--|
D|----------------------------------------------------------------------------|

 |Guitar 1
E|-----------------------------------|
B|-----------------------------------|
G|--5-5-5-5-5-5-5-5---------------xx-|
D|--5-5-5-5-5-5-5-5--5-5-5-5-5-5--xx-|
A|--3-3-3-3-3-3-3-3--5-5-5-5-5-5--xx-|
D|-------------------5-5-5-5-5-5--xx-|
 |Guitar 2
E|-----------------------------------|
B|-1313131313131313------------------|
G|--x-x-x-x-x-x-x-x-121212121212--xx-|
D|-1010101010101010--x-x-x-x-x-x--xx-|
A|------------------101010101010--xx-|
D|--------------------------------xx-|

Post Chorus
 |Guitar 1
E|-----------------------------------|---------------------------------------|
B|-----------------------------------|---------------------------------------|
G|-----------------------------------|---------------------------------------|
D|-3-3-3-3--5-5-5-5---7-7-7-7--10-10-|-3-3-3-3--5-5-5-5---7-7-7-7--0-0-------|
A|-3-3-3-3--5-5-5-5---7-7-7-7--10-10-|-3-3-3-3--5-5-5-5---7-7-7-7--0-0-------|
E|-3-3-3-3--5-5-5-5---7-7-7-7--10-10-|-3-3-3-3--5-5-5-5---7-7-7-7--0-0--10p8-|
PM 	
 |Guitar 2
E|-----------------------------------|---------------------------------------|
B|-6-6-6-6--8-8-8-8--10101010--13-13-|-6-6-6-6--8-8-8-8--10101010------------|
G|-x-x-x-x--x-x-x-x---x-x-x-x---x--x-|-x-x-x-x--x-x-x-x---x-x-x-x------------|
D|-3-3-3-3--5-5-5-5---7-7-7-7--10-10-|-3-3-3-3--5-5-5-5---7-7-7-7------------|
A|-----------------------------------|---------------------------------------|
D|-----------------------------------|----------------------------------10p8-|

 |Guitar 1
E|-----------------------------------|---------------------------------------|
B|-----------------------------------|---------------------------------------|
G|-----------------------------------|---------------------------------------|
D|-3-3-3-3--5-5-5-5---7-7-7-7--10-10-|-3-3-3-3--5-5-5-5---7-7-7-7--0-0-------|
A|-3-3-3-3--5-5-5-5---7-7-7-7--10-10-|-3-3-3-3--5-5-5-5---7-7-7-7--0-0-------|
E|-3-3-3-3--5-5-5-5---7-7-7-7--10-10-|-3-3-3-3--5-5-5-5---7-7-7-7--0-0--10p8-|
PM 	
 |Guitar 2
E|-----------------------------------|---------------------------------------|
B|-6-6-6-6--8-8-8-8--10101010--13-13-|-6-6-6-6--8-8-8-8--10101010------------|
G|-x-x-x-x--x-x-x-x---x-x-x-x---x--x-|-x-x-x-x--x-x-x-x---x-x-x-x------------|
D|-3-3-3-3--5-5-5-5---7-7-7-7--10-10-|-3-3-3-3--5-5-5-5---7-7-7-7------------|
A|-----------------------------------|---------------------------------------|
D|-----------------------------------|----------------------------------10p8-|

Verse 2
 |Guitar 1
E|-------------------------------------------------------------------------|
B|-------------------------------------------------------------------------|
G|-------------------------------------------------------------------------|
D|-------------------22-33-------------------22-33-------------------22-33-|
A|-------------------22-33-------------------22-33-------------------22-33-|
E|-------------------22-33-------------------22-33-------------------22-33-|
 |Guitar 2
E|-------------------------------------------------------------------------|
B|-------------------------------------------------------------------------|
G|-55555555-55555555-------55555555-55555555-------55555555-55555555-------|
D|-xxxxxxxx-xxxxxxxx-------xxxxxxxx-xxxxxxxx-------xxxxxxxx-xxxxxxxx-------|
A|-33333333-33333333-------33333333-33333333-------33333333-33333333-------|
E|-------------------------------------------------------------------------|

 |Guitar 1
E|------------------------------------|-----------------------------------|
B|------------------------------------|-----------------------------------|
G|------------------------------------|-----------------------------------|
D|-3-3--7~~--3~-3-3--7~~--3~-3-3--7~~-|-3333-3333-3333-3333--/-\----2-2-2-|
A|-3-3--7~~--3~-3-3--7~~--3~-3-3--7~~-|-3333-3333-3333-3333--/-\----2-2-2-|
E|-3-3--7~~--3~-3-3--7~~--3~-3-3--7~~-|-3333-3333-3333-3333--/-\----2-2-2-|
PM                                      **** **** **** ****         * * *
 |Guitar 2
E|------------------------------------|-----------------------------------|
B|------------------------------------|----------------6666--/-\----------|
G|------------------------------------|-5555-7777-9999-xxxx--/-\----------|
D|-3-3--7~~--3~-3-3--7~~--3~-3-3--7~~-|-xxxx-xxxx-xxxx-3333--/-\----------|
A|-3-3--7~~--3~-3-3--7~~--3~-3-3--7~~-|-3333-5555-7777--------------------|
E|-3-3--7~~--3~-3-3--7~~--3~-3-3--7~~-|-----------------------------------|

Interlude
 |Guitar 1 only
E|---------------------------------------------------|
B|---------------------------------------------------|
G|---------------------------------------------------|
D|-77-33-1010-55---77-33-1010-55---77-33-1010-55-x-2-|
A|-77-33-1010-55---77-33-1010-55---77-33-1010-55-x-2-|
D|-77-33-1010-55---77-33-1010-55---77-33-1010-55-x-2-|

Interlude cont
 |Guitar 1
E|------------------------------------------|
B|------------------------------------------|
G|------------------------------------------|
D|-3--3333333333333333--3--3333333333333333-|
A|-3--3333333333333333--3--3333333333333333-|
D|-3--3333333333333333--3--3333333333333333-|
PM    ****************     ****************
 |Guitar 2
E|------------------------------------------|
B|------------------------------------------|
G|-5--5555555555555555--7--9999999999999999-|
D|-x--xxxxxxxxxxxxxxxx--x--xxxxxxxxxxxxxxxx-|
A|-3--3333333333333333--5--7777777777777777-|
D|------------------------------------------|

Bridge
 |Guitar 1 only
E|-------------------------------------------------------------------|
B|-------------------------------------------------------------------|
G|-5---5---5---5---5---5---5---5-----5---5---5---5---5---5---5---5---|
D|---3---3---3---3---3---3---3---3-----------------------------------|
A|-------------------------------------3---3---3---3---3---3---3---3-|
D|-------------------------------------------------------------------|
PM * * * * * * * * * * * * * * * *   * * * * * * * * * * * * * * * *

E|-------------------------------------------------------------------|
B|-------------------------------------------------------------------|
G|-5---5---5---5---5---5---5---5-----5---5---5---5---5---5---5---5---|
D|---3---3---3---3---3---3---3---3-----------------------------------|
A|-------------------------------------3---3---3---3---3---3---3---3-|
D|-------------------------------------------------------------------|
PM * * * * * * * * * * * * * * * *   * * * * * * * * * * * * * * * *

E|-----------------------------------------------------------------------|
B|-----------------------------------------------------------------------|
G|-5---5---5---5---5---5---5---5-----5---5---5---5---5-5--5------5-----5-|
D|---3---3---3---3---3---3---3---3-------------------3-3--3--33--3-3-3-3-|
A|-------------------------------------3---3---3---3---------33----------|
D|-----------------------------------------------------------33----------|
PM * * * * * * * * * * * * * * * *   * *                     **

Pre outro
 |Both guitars
E|----------------------------------------------------------------------|
B|----------------------------------------------------------------------|
G|-//-----------------------------------55555555------------------------|
D|-//--55555555--7\5/77777\5-77777-555--55555555-55555555--333333333333-|
A|-//--55555555--7\5/77777\5-77777-555--33333333-55555555--333333333333-|
D|-----55555555--7\5/77777\5-77777-555-----------55555555--333333333333-|
PM                                                         ************

Outro
 |Guitar 1
E|----------------------------------------------------------------------------|
B|----------------------------------------------------------------------------|
G|--5-5-5-5-5-5-5-5-----------------------------------------------------------|
D|--5-5-5-5-5-5-5-5---5-5-5-5-5-5-5-5---7-\5-/7-7-7-7-7\5---7-7-7-7-7--5-5-5--|
A|--3-3-3-3-3-3-3-3---5-5-5-5-5-5-5-5---7-\5-/7-7-7-7-7\5---7-7-7-7-7--5-5-5--|
D|--------------------5-5-5-5-5-5-5-5---7-\5-/7-7-7-7-7\5---7-7-7-7-7--5-5-5--|
 |Guitar 2
E|----------------------------------------------------------------------------|
B|-1313131313131313-----------------------------------------------------------|
G|--x-x-x-x-x-x-x-x--1212121212121212--15-13-1515151515-13-1515151515-131313--|
D|-1010101010101010---x-x-x-x-x-x-x-x---x--x--x-x-x-x-x--x--x-x-x-x-x--x-x-x--|
A|-------------------1010101010101010--13-11-1313131313-11-1313131313-111111--|
D|----------------------------------------------------------------------------|

 |Guitar 1
E|-------------------------------------------------------------------------|
B|-------------------------------------------------------------------------|
G|--55555555---------xx----------------------------------------------------|
D|--55555555-555555--xx--77-33-1010-55---77-33-1010-55---77-33-1010-55-x-2-|
A|--33333333-555555--xx--77-33-1010-55---77-33-1010-55---77-33-1010-55-x-2-|
D|-----------555555--xx--77-33-1010-55---77-33-1010-55---77-33-1010-55-x-2-|
 |Guitar 2
E|-------------------------------------------------------------------------|
B|-------------------------------------------------------------------------|
G|-------------------xx----------------------------------------------------|
D|-------------------xx--77-33-1010-55---77-33-1010-55---77-33-1010-55-x-2-|
A|-------------------xx--77-33-1010-55---77-33-1010-55---77-33-1010-55-x-2-|
D|-------------------xx--77-33-1010-55---77-33-1010-55---77-33-1010-55-x-2-|

 |Guitar 1
E|-----------------------------------------|-----------------|
B|-----------------------------------------|-----------------|
G|-----------------------------------------|-----------------|
D|-3333-3333-3333-3333--33333333-3333-3333-|--3-3~--3~--3~~~-|
A|-3333-3333-3333-3333--33333333-3333-3333-|--3-3~--3~--3~~~-|
E|-3333-3333-3333-3333--33333333-3333-3333-|--3-3~--3~--3~~~-|
PM **** **** **** ****  ******** **** ****
 |Guitar 2
E|-----------------------------------------|-----------------|
B|----------------6666-66666666--xxxxx-666-|-1515~-15~-15~~~-|
G|-5555-7777-9999-xxxx-xxxxxxxx--xxxxx-xxx-|--x-x~--x~--x~~~-|
D|-xxxx-xxxx-xxxx-3333-33333333--xxxxx-333-|-1010~-10~-10~~~-|
A|-3333-5555-7777--------------------------|-----------------|
E|-----------------------------------------|-----------------|

Order

Intro
Verse
Chorus
Post-Chorus
Verse 2
Chorus
Interlude
Bridge
Pre-Outro
Outro





Fallout Boy: Dance, Dance
Track: 3
Tuning: Standard
Notes: 

Verse
 |Guitar 2 only
E|-----------------------------|-----------------------------|
B|-2-0--2-0--3---2-0--2-0--3---|-2-0--2-0--3---2-0--2-0--3---|
G|-----------------------------|-----------------------------|
D|----4----4--4-----4----4--4--|----4----4--4-----4----4--4--|
A|-----------------------------|-----------------------------|
E|-----------------------------|-----------------------------|
PM * ** * ** **  * ** * ** **    * ** * ** **  * ** * ** **

Pre Chorus
 |Guitar 2 only
E|-----------------------------|--------------------------------------|--------------|
B|-----------------------------|--------------------------------------|-2-0--2-0--3--|
G|-----------------------------|--------------------------------------|--------------|
D|-----00-44-24-------00-44-24-|-------00-44-24--------00-44-24-------|----4----4--4-|
A|-2-4-----------22-44---------|-22-44-----------22-44----------22-44-|--------------|
E|-----------------------------|--------------------------------------|--------------|
PM									     * ** 

Chorus
 |Guitar 1
E|----------------------------------------------|
B|----------------------------------------------|
G|-4-4-4-4-4--7-7-7-7-7-------------------------|
D|-4-4-4-4-4--7-7-7-7-7--5-5-5-5--4-4-4-4--77---|
A|-2-2-2-2-2--5-5-5-5-5--5-5-5-5--4-4-4-4--77---|
E|-----------------------3-3-3-3--2-2-2-2--55---|
 |Guitar 2			
E|----------------------------------------------|
B|------------1515151515------------------------|
G|-1616161616--x-x-x-x-x-14141414-13131313-xxxx-|
D|--x-x-x-x-x-1212121212--x-x-x-x--x-x-x-x-xxxx-|
A|-1414141414------------12121212-11111111-xxxx-|
E|----------------------------------------------|

Pre Verse 2
 |Guitar 1
E|---------------------------------------------------------|
B|---------------------------------------------------------|
G|-----7bu-77---xx---7bu-77---xx---7bu-77----xx---7bu-77---|
D|-----x---xx---xx---x---xx---xx---x---xx----xx---x---xx---|
A|-----5bu-55---xx5--5bu-55---xx5--5bu-55----xx5--5bu-55---|
E|---------------------------------------------------------|
 |Guitar 2
E|---------------------------------------------------------|
B|-2-0--2-0--3---2-0--2-0--3---2-0--2-0--3---2-0--2-0--3---|
G|---------------------------------------------------------|
D|----4----4--4-----4----4--4-----4----4--4-----4----4--4--|
A|---------------------------------------------------------|
E|---------------------------------------------------------|
PM * ** * ** **  * ** * ** **  * ** * ** **  * ** * ** **

Verse 2
 |Guitar 1
E|------------------------------------------|
B|------------------------------------------|
G|-----7bu-77---xx---7bu-77---xx---7bu-77---|
D|-----x---xx---xx---x---xx---xx---x---xx---|
A|-----5bu-55---xx5--5bu-55---xx5--5bu-55---|
E|------------------------------------------|
 |Guitar 2
E|------------------------------------------|
B|-2-0--2-0--3---2-0--2-0--3---2-0--2-0--3--|
G|------------------------------------------|
D|----4----4--4-----4----4--4-----4----4--4-|
A|------------------------------------------|
E|------------------------------------------|
PM * ** * ** **  * ** * ** **  * ** * ** ** 

Pre Chorus 2
 |Guitar 2 only
E|-----------------------------|--------------------------------------|
B|-----------------------------|--------------------------------------|
G|-----------------------------|--------------------------------------|
D|-----00-44-24-------00-44-24-|-------00-44-24--------00-44-24-------|
A|-2-4-----------22-44---------|-22-44-----------22-44----------22-44-|
E|-----------------------------|--------------------------------------|
PM	

Bass and drum bit (01.22)


Pre Chorus 2 cont (1.29)
 |Guitar 2 only 
E|-----------|
B|-----------|
G|-----------|
D|-xx-xx-x-x-|
A|-xx-xx-x-x-|
E|-xx-xx-x-x-|

Chorus 2
 |Guitar 1
E|----------------------------------------------|
B|----------------------------------------------|
G|-4-4-4-4-4--7-7-7-7-7-------------------------|
D|-4-4-4-4-4--7-7-7-7-7--5-5-5-5--4-4-4-4--77---|
A|-2-2-2-2-2--5-5-5-5-5--5-5-5-5--4-4-4-4--77---|
E|-----------------------3-3-3-3--2-2-2-2--55---| 
 |Guitar 2	
E|----------------------------------------------| 
B|------------1515151515------------------------|
G|-1616161616--x-x-x-x-x-14141414-13131313-xxxx-|
D|--x-x-x-x-x-1212121212--x-x-x-x--x-x-x-x-xxxx-|
A|-1414141414------------12121212-11111111-xxxx-|
E|----------------------------------------------|

Bridge
 |Guitar 1
E|-------------------------------------|-------------------------------------|
B|-------------------------------------|-------------------------------------|
G|-44444444-66666666-777777777777-9999-|-44444444-66666666-777777777777-9999-|
D|-44444444-66666666-777777777777-9999-|-44444444-66666666-777777777777-9999-|
A|-22222222-44444444-555555555555-7777-|-22222222-44444444-555555555555-7777-|
E|-------------------------------------|-------------------------------------|
 |Guitar 2
E|-------------------------------------|-------------------------------------|
B|-------------------------------------|-------------------------------------|
G|-44444444-66666666-777777777777-9999b|-44444444-66666666-777777777777-9999-|
D|-xxxxxxxx-xxxxxxxx-xxxxxxxxxxxx------|-xxxxxxxx-xxxxxxxx-xxxxxxxxxxxx-xxxx-|
A|-22222222-44444444-555555555555------|-22222222-44444444-555555555555-7777-|
E|-------------------------------------|-------------------------------------|

 |Guitar 1
E|-------------------------------------|------------------------------------------|
B|-------------------------------------|------------------------------------------|
G|-44444444-66666666-777777777777-9999-|------------------------------------------|
D|-44444444-66666666-777777777777-9999-|-16-16-16-16-16-16-16-16-16-16~-xx-xx-x-x-|
A|-22222222-44444444-555555555555-7777-|--------------------------------xx-xx-x-x-|
E|-------------------------------------|--------------------------------xx-xx-x-x-|
 |Guitar 2
E|-------------------------------------|-------------------------------------|
B|-------------------------------------|-77777777-77777777-7777-7-x-7~~~~~---|
G|-44444444-66666666--77-99-77-99-77-99|-xxxxxxxx-xxxxxxxx-xxxx-x-x-x--------|
D|-xxxxxxxx-xxxxxxxx--xx-xx-xx-xx-xx-xx|-44444444-44444444-4444-4-x-4~~~~----|
A|-22222222-44444444--55-77-55-77-55-77|-------------------------------------|
E|-------------------------------------|-------------------------------------|


Order

Verse
Pre Chorus
Chorus x4
Pre-verse 2
Verse 2
Pre-Chorus 2
Chorus 2 x4
Bridge
Chorus x6
Verse 






Fallout Boy: Sugar, were goin down
Track: 4
Tuning: Standard
Notes:

Intro
 |Guitar 1 only
E|---------------------------------------------|
B|---------------------------------------------|
G|---------------------------------------------|
D|-0000000000-5555555555-9999999999-5555555555-|
A|-0000000000-5555555555-9999999999-5555555555-|
D|-0000000000-5555555555-9999999999-5555555555-|

Pre Verse
 |Guitar 1 
E|-----------------------------------------------------------------------|
B|-----------------------------------------------------------------------|
G|-----------------------------------------------------------------------|
D|--0-0-0-0-0-0-0-0-0-0--5-5-5-5-5-5-5-5-5-5---9-9-9-9-9-9-9-9-9-9---5~~-|
A|--0-0-0-0-0-0-0-0-0-0--5-5-5-5-5-5-5-5-5-5---9-9-9-9-9-9-9-9-9-9---5~~-|
D|--0-0-0-0-0-0-0-0-0-0--5-5-5-5-5-5-5-5-5-5---9-9-9-9-9-9-9-9-9-9---5~~-|
 |Guitar 2
E|-----------------------------------------------------------------------|
B|-777-555-888-555-7755--777-555-888-555-7755--777-555-888-555-7755--7~~-|
G|-777-777-777-777-7777--777-777-777-777-7777--777-777-777-777-7777--7~~-|
D|-----------------------------------------------------------------------|
A|-----------------------------------------------------------------------|
D|-----------------------------------------------------------------------|

Verse (after bass bit, on lyrics “lie in the grass”)
 |Guitar 1
E|---------------------------------------------------|
B|---------------------------------------------------|
G|-7--7--7--7---9--9--9--9---7--7--7--7---9--9--9--9-|
D|-x--x--x--x---x--x--x--x---x--x--x--x---x--x--x--x-|
A|-5--5--5--5---7--7--7--7---5--5--5--5---7--7--7--7-|
D|---------------------------------------------------|
 |Guitar 2
E|---------------------------------------------------|
B|---------------------------------------------------|
G|---------------------------------------------------|
D|-7-7--7h9--------7h9p7-----7-7--7h9--------7h9p7---|
A|-5-5------5--7h9-------7---5-5------5--7h9-------7-|
D|---------------------------------------------------|

 |Guitar 1
E|---------------------------------------------------|
B|---------------------------------------------------|
G|-7--7--7--7---9--9--9--9---7--7--7--7---9--9--9--9-|
D|-x--x--x--x---x--x--x--x---x--x--x--x---x--x--x--x-|
A|-5--5--5--5---7--7--7--7---5--5--5--5---7--7--7--7-|
D|---------------------------------------------------|
 |Guitar 2
E|---------------------------------------------------|
B|---------------------------------------------------|
G|---------------------------------------------------|
D|-7-7--7h9--------7h9p7-----7-7--7h9--------7h9p7---|
A|-5-5------5--7h9-------7---5-5------5--7h9-------7-|
D|---------------------------------------------------|
PM * *

Pre Chorus
 |Guitar 1 only
E|----------------------------------------------------------------------------------|
B|----------------------------------------------------------------------------------|
G|---------------------------------------------55555555-----------------------------|
D|-00000000-555555555555-77777777-999999999999-55555555-99999999-555555555555-xxx-x-|
A|-00000000-555555555555-77777777-999999999999-33333333-99999999-555555555555-xxx-x-|
D|-00000000-555555555555-77777777-999999999999----------99999999-555555555555-xxx-x-|
PM ******** ************ ******** ************ ******** ******** ***********

Chorus
 |Guitar 1 
E|-------------------------------------------------------------------------|
B|-------------------------------------------------------------------------|
G|-------------------------------------------------------------------------|
D|-0000000000000000-5555555555555555-9999999999999999-5555555555555-xx-x-x-|
A|-0000000000000000-5555555555555555-9999999999999999-5555555555555-xx-x-x-|
D|-0000000000000000-5555555555555555-9999999999999999-5555555555555-xx-x-x-|
 |Guitar 2
E|-------------------------------------------------------------------------|
B|-------------------------------------------------------------------------|
G|-------------------------------------------------------------------------|
D|-0000000000000000-5555555555555555-9999999999999999-5555555555555-xx-x-x-|
A|-0000000000000000-5555555555555555-9999999999999999-5555555555555-xx-x-x-|
D|-0000000000000000-5555555555555555-9999999999999999-5555555555555-xx-x-x-|

 |Guitar 1
E|-------------------------------------------------------------------|
B|-------------------------------------------------------------------|
G|-------------------------------------------------------------------|
D|-0000----0000----5555----5555----9999-----9999-----5555----5555----|
A|-0000-5b-0000-5b-5555-5b-5555-5b-9999--9b-9999--9b-5555-5b-5555-5b-|
D|-0000----0000----5555----5555----9999-----9999-----5555----5555----|
 |Guitar 2
E|-------------------------------------------------------------------|
B|------7v------7v------7v------7v------11v------11v------7v------7v-|
G|------7v------7v------7v------7v------11v------11v------7v------7v-|
D|------x-------x-------x-------x--------x--------x-------x-------x--|
A|------5v------5v------5v------5v-------9v-------9v------5v------5v-|
D|-------------------------------------------------------------------|

Post-Chorus
 |both guitars
E|-----------------------------------------------------------------------------|
B|-----------------------------------------------------------------------------|
G|--------------------------------------------------5---5-------------------7~~|
D|------0----------5---5------7----------9---9-5555-5-5-5--------9---9--5~~-7~~|
A|-0000-0-0-555555-5-5-5-7777-7-7-999999-9-9-9-3333-3-3-3-999999-9-9-9--5~~-5~~|
D|-0000-0-0-555555-5-5-5-7777-7-7-999999-9-9-9------------999999-9-9-9--5~~----|
PM ****   * ******   *   ****   * ******   *   ****   *   ******   *

Verse 2 (come in on the lyrics “is this more”)
 |Both guitars this time
E|---------------------------------------------------|
B|---------------------------------------------------|
G|-7--7--7--7---9--9--9--9---7--7--7--7---9--9--9--9-|
D|-x--x--x--x---x--x--x--x---x--x--x--x---x--x--x--x-| x2
A|-5--5--5--5---7--7--7--7---5--5--5--5---7--7--7--7-|
D|---------------------------------------------------|

Pre Chorus 2
 |Guitar 1 only
E|--------------------------------------------------------------------|
B|--------------------------------------------------------------------|
G|---------------------------------------------55555555---------------|
D|-00000000-555555555555-77777777-999999999999-55555555-99999999-5~~~-|
A|-00000000-555555555555-77777777-999999999999-33333333-99999999-5~~~-|
D|-00000000-555555555555-77777777-999999999999----------99999999-5~~~-|
PM ******** ************ ******** ************ ******** ********

Bridge
 |Guitar 1
E|------------------------------------------------------------------------------|
B|------------------------------------------------------------------------------|
G|------------------------------------------------------------------------------|
D|-2------0~~~~~~~~~~~~~~~~~~~~~~~~~~~~~~~~~~~~~~~~~~~~~~~~~~~~~~~~~~~~~~~~~~~~-|
A|-2-22-2-0~~~~~~~~~~~~~~~~~~~~~~~~~~~~~~~~~~~~~~~~~~~~~~~~~~~~~~~~~~~~~~~~~~~~-|
D|-2-22-2-0~~~~~~~~~~~~~~~~~~~~~~~~~~~~~~~~~~~~~~~~~~~~~~~~~~~~~~~~~~~~~~~~~~~~-|
     ** *
           “Down, down in an earlier round, And Sugar, we're going down swinging

E|------------------------------------------------------------------------------|
B|------------------------------------------------------------------------------|
G|------------------------------------------------------------------------------|
D|-----------5~~~~~~~~~~~~~~~~~~~~~~~~~~~~~~~~~~~~~~~~~~~~~~~~~~~~~~~~~~~~~~~~~-|
A|-----------5~~~~~~~~~~~~~~~~~~~~~~~~~~~~~~~~~~~~~~~~~~~~~~~~~~~~~~~~~~~~~~~~~-|
D|-----------5~~~~~~~~~~~~~~~~~~~~~~~~~~~~~~~~~~~~~~~~~~~~~~~~~~~~~~~~~~~~~~~~~-|
 
“I'll be your number one with the bullet, A loaded god complex, cock it and pull it


E|------------------------------------------------------------------------------|
B|------------------------------------------------------------------------------|
G|------------------------------------------------------------------------------|
D|----------0~~~~~~~~~~~~~~~~~~~~~~~~~~~~~~~~~~~~~~~~~~~~~~~~~~~~~~~~~~~~~~~~~~-|
A|----------0~~~~~~~~~~~~~~~~~~~~~~~~~~~~~~~~~~~~~~~~~~~~~~~~~~~~~~~~~~~~~~~~~~-|
D|----------0~~~~~~~~~~~~~~~~~~~~~~~~~~~~~~~~~~~~~~~~~~~~~~~~~~~~~~~~~~~~~~~~~~-|

“We're going down, down in an earlier round, And Sugar, we're going down swinging


E|--------------------------------------------------------------------------------|
B|--------------------------------------------------------------------------------|
G|--------------------------------------------------------------------------------|
D|-----------5~~~~~~~~~~~~~~~~~~~~~~~~~~~~~~~55-----------------------------------|
A|-----------5~~~~~~~~~~~~~~~~~~~~~~~~~~~~~~~55-----------------------------------|
D|-----------5~~~~~~~~~~~~~~~~~~~~~~~~~~~~~~~55-----------------------------------|
 
“I'll be your number one with the bullet, A loaded god complex, cock it and pull it

 |Bridge part 2
 |Guitar 1
E|----------------------------------------------------------------------|
B|----------------------------------------------------------------------|
G|----------------------------------------------------------------------|
D|--------00000---00000---55555---55555---99999---99999---55555---55555-|
A|-14\\---00000---00000---55555---55555---99999---99999---55555---55555-|
D|-14\\---00000---00000---55555---55555---99999---99999---55555---55555-|
 |Guitar 2
E|----------------------------------------------------------------------|
B|----------------------------------------------------------------------|
G|---------6h7p6--6h7-7----6h7p6--6h7-7----6h7p6--6h7-7----6h7p6--6h7-7-|
D|-------7-------7-------7------7--------7-------7-------7-------7------|
A|----------------------------------------------------------------------|
D|----------------------------------------------------------------------|

 |Chorus 3
 |Guitar 1
E|------------------------------------------------------|
B|------------------------------------------------------|
G|------------------------------------------------------|
D|-0000000000000000-5555555555555555-9999999999999999-5-|
A|-0000000000000000-5555555555555555-9999999999999999-5-|
D|-0000000000000000-5555555555555555-9999999999999999-5-|
 |Guitar 2
E|------------------------------------------------------|
B|------------------------------------------------------|
G|---6h7p6-6h7-7--6h7p6-6h7-7--6h7p6--6h7-7--6h7p6------|
D|-7------7-----7------7------7------7-----7------7-----|
A|------------------------------------------------------|
D|------------------------------------------------------|

 |Outro
 |Guitar 1
E|------------------------------------------------------------------------------|
B|------------------------------------------------------------------------------|
G|------------------------------------------------------------------------------|
D|-2------0~~~~~~~~~~~~~~~~~~~~~~~~~~~~~~~~~~~~~~~~~~~~~~~~~~~~~~~~~~~~~~~~~~~~-|
A|-2-22-2-0~~~~~~~~~~~~~~~~~~~~~~~~~~~~~~~~~~~~~~~~~~~~~~~~~~~~~~~~~~~~~~~~~~~~-|
D|-2-22-2-0~~~~~~~~~~~~~~~~~~~~~~~~~~~~~~~~~~~~~~~~~~~~~~~~~~~~~~~~~~~~~~~~~~~~-|
PM   ** *
 |Guitar 2
E|------------------------------------------------------------------------------|
B|-----------777-555-888-555-7755--777-555-888-555-7755--7~~~~~~~~~~~~~~~~~~~~~-|
G|-----------777-777-777-777-7777--777-777-777-777-7777--7~~~~~~~~~~~~~~~~~~~~~-|
D|------------------------------------------------------------------------------|
A|------------------------------------------------------------------------------|
D|------------------------------------------------------------------------------|

Order

Intro
Pre-Verse
Verse
Pre-Chorus
Chorus
Post-Chorus
Verse 2
Pre Chorus 2
Chorus
Bridge
Bridge part 2
Chorus 3
Outro






Fallout Boy: Nobody puts baby in the corner
Track: 5
Tuning: Standard
Notes:

Verse
 |Both guitars
E|----------------------------------------------------------------------------|
B|----------------------------------------------------------------------------|
G|-55555555-55555555--99999999-99999999--55555555-55555555--99999999-99999999-|
D|-55555555-55555555--99999999-99999999--55555555-55555555--99999999-99999999-|
A|-33333333-33333333--77777777-77777777--33333333-33333333--77777777-77777777-|
E|----------------------------------------------------------------------------|

E|-------------------------------------------------------|
B|-------------------------------------------------------|
G|-------------------------------------------------------|
D|-7--77-77-77-77--22-22-22-22--77-77-77-77--22-22-22-22-|
A|-7--77-77-77-77--22-22-22-22--77-77-77-77--22-22-22-22-|
E|-5--55-55-55-55--00-00-00-00--55-55-55-55--00-00-00-00-|

Verse cont
 |Both guitars
E|-----------------------------------------------|
B|-----------------------------------------------|
G|--------------------------------------55555555-|
D|-55555555-55555555--33333333-55555555-55555555-|
A|-55555555-55555555--33333333-55555555-33333333-|
E|-33333333-33333333--11111111-33333333----------|

Pre Chorus (“I keep my jealousy close”)
 |Both guitars
E|-------------------------------------------------------------------------------|
B|-------------------------------------------------------------------------------|
G|---------55----------55----------55----------------------------------------5-5-|
D|-5-77--5-55--5-77--5-55--5-77--5-55------5555555555555555-5555555555555555-5-5-|
A|-5-77--5-33--5-77--5-33--5-77--5-33------5555555555555555-5555555555555555-3-3-|
E|-3-55--3-----3-55--3-----3-55--3-----15\-3333333333333333-3333333333333333-----|

Chorus
 |Guitar 1
E|----------------------------------------------------------------|
B|----------------------------------------------------------------|
G|-55555555----------------------------55555555-------------------|
D|-55555555-77777777-22222222-33333333-55555555-77777777-22222222-|
A|-33333333-77777777-22222222-33333333-33333333-77777777-22222222-|
E|----------55555555-00000000-11111111----------55555555-00000000-|
 |Guitar 2
E|----------------------------------------------------------------|
B|----------------------------------------------------------------|
G|-------17-------14-------------------------17-------14----------|
D|--------x--------x-------14-------15--------x--------x-------14-|
A|-------15-------12--------x--------x-------15-------12--------x-|
E|-------------------------12-------13-------------------------12-|

 |Guitar 1
E|------------------------------------------------------------------------|
B|------------------------------------------------------------------------|
G|-55555555----------------------------55555555---------------------------|
D|-55555555-77777777-22222222-33333333-55555555-77777777-2222222222222222-|
A|-33333333-77777777-22222222-33333333-33333333-77777777-2222222222222222-|
E|----------55555555-00000000-11111111----------55555555-0000000000000000-|
 |Guitar 2
E|-------------------------------------------------------------------|
B|-----------------------------8-----------------------------8-------|
G|------5--7-5--5------5--7-5--------5--7-5--5------5--7-5-----------|
D|--7-7--7----7----7-7--7----7----7-7--7----7----7-7--7----7---------|
A|-------------------------------------------------------------------|
E|-------------------------------------------------------------------|

Post-Chorus
 |Both guitars
E|-------------------------------------------------------------------------------|
B|-------------------------------------------------------------------------------|
G|-xx-xx-xx-xx-x---------55----------55------------------------------------------|
D|-xx-xx-xx-xx-x-5-77--5-55--5-77--5-55--5-77--5555555555555555-5555555555555555-|
A|-xx-xx-xx-xx-x-5-77--5-33--5-77--5-33--5-77--5555555555555555-5555555555555555-|
E|---------------3-55--3-----3-55--3-----3-55--3333333333333333-3333333333333333-|

Verse 2
 |Guitar 1
E|----------------------------------------------------------------------------|
B|----------------------------------------------------------------------------|
G|-55555555-55555555--99999999-99999999--55555555-55555555--99999999-99999999-|
D|-55555555-55555555--99999999-99999999--55555555-55555555--99999999-99999999-|
A|-33333333-33333333--77777777-77777777--33333333-33333333--77777777-77777777-|
E|----------------------------------------------------------------------------|
 |Guitar 2
E|----------------------------------------------------------------------------|
B|----------------------------------------------------------------------------|
G|-55555555-55555555--99999999-99999999--55555555-55555555--99999999-99999999-|
D|-55555555-55555555--99999999-99999999--55555555-55555555--99999999-99999999-|
A|-33333333-33333333--77777777-77777777--33333333-33333333--77777777-77777777-|
E|----------------------------------------------------------------------------|

 |Guitar 1
E|-------------------------------------------------------------------------------|
B|-------------------------------------------------------------------------------|
G|-------------------------------------------------------------------------------|
D|-7------------------2-------------------7-------------------2------------------|
A|-7-7777777777777777-2-2222222222222222--7-7777777777777777--2-2222222222222222-|
E|-5-5555555555555555-0-0000000000000000--5-5555555555555555--0-0000000000000000-|
PM   ****************   ****************    ****************    ****************
 |Guitar 2
E|-------------------------------------------------------------------------------|
B|-------------------------------------------------------------------------------|
G|---5--7-5---5--7-5----5--7-5---5--7-5-----5--7-5---5--7-5-----5--7-5---5--7-5--|
D|-xx-7----xx--7------xx-7----xx--7-------xx-7----xx--7-------xx-7-----xx-7------|
A|-------------------------------------------------------------------------------|
E|-------------------------------------------------------------------------------|

 |Guitar 1
E|-----------------------------------------|
B|-----------------------------------------|
G|--------------------------------------55-|
D|-55555555-55555555--33333333-55555555-55-|
A|-55555555-55555555--33333333-55555555-33-|
E|-33333333-33333333--11111111-33333333----|
 |Guitar 2
E|-----------------------------------------|
B|-----------------------------------------|
G|--------------------------------------55-|
D|-55555555-55555555--33333333-55555555-55-|
A|-55555555-55555555--33333333-55555555-33-|
E|-33333333-33333333--11111111-33333333----|

Bridge
 |Guitar 1
E|-------------------------------------------------------------------------------|
B|-------------------------------------------------------------------------------|
G|-------------------------------------------------------------------------------|
D|-------------------------------------------------------------------------------|
A|-------------------------------------------------------------------------------|
E|-----------------------------------------------------------------------13\-----|
 |Guitar 2
E|-------------------------------------------------------------------------------|
B|-------------------------------------------------------------------------------|
G|---5--7-5---5--7-5----5--7-5---5--7-5-----5--7-5---5--7-5-----5--7-5---5--7-5--|
D|-xx-7----xx--7------xx-7----xx--7-------xx-7----xx--7-------xx-7-----xx-7------|
A|-------------------------------------------------------------------------------|
E|-------------------------------------------------------------------------------|

 |Guitar 1
E|-------------------------------------------------------------------------------|
B|-------------------------------------------------------------------------------|
G|-------------------------------------------------------------------------------|
D|-3------------------7-------------------3333----77----------3333----77---------|
A|-3------------------7-------------------3333----77----------3333----77---------|
E|-1------------------5-------------------1111----55----------1111----55---------|
 |Guitar 2
E|-------------------------------------------------------------------------------|
B|-------------------------------------------------------------------------------|
G|---5--7-5---5--7-5----5--7-5---5--7-5-----5--7-5---5--7-5-----5--7-5---5--7-5--|
D|-xx-7----xx--7------xx-7----xx--7-------xx-7----xx--7-------xx-7-----xx-7------|
A|-------------------------------------------------------------------------------|
E|-------------------------------------------------------------------------------|


 |Guitar 1
E|------------------------------------|
B|------------------------------------|
G|------------------------------------|
D|-3333----77----------3333----33333--|
A|-3333----77----------3333----xxxxx--|
E|-1111----55----------1111----11111--|
 |Guitar 2
E|------------------------------------|
B|------------------------------------|
G|---5--7-5---5--7-5----5--7-5---5--7-|
D|-xx-7----xx--7------xx-7----xx--7---|
A|------------------------------------|
E|------------------------------------|

Interlude
 |Guitar 2 only
E|---------------------------------------------------------------------|
B|------------------1616161616161616-------------------1616161616161616|
G|-1515151515151515--x-x-x-x-x-x-x-x--1515151515151515--x-x-x-x-x-x-x-x|
D|--x-x-x-x-x-x-x-x-1212121212121212---x-x-x-x-x-x-x-x-1212121212121212| x4
A|-1313131313131313-------------------1313131313131313-----------------|
E|---------------------------------------------------------------------|

Pre Outro
 |Guitar 1 only
E|-------------------------------------|
B|-------------------------------------|
G|-55555555----------------------------|
D|-55555555-77777777-22222222-33333333-|
A|-33333333-77777777-22222222-33333333-|
E|----------55555555-00000000-11111111-|

Outro
 |Guitar 1
E|------------------------------------------------------------------------------|
B|------------------------------------------------------------------------------|
G|-55555555----------------------------55555555---------------------------------|
D|-55555555-77777777-22222222-33333333-55555555-77777777-2222222222222222---2-2-|
A|-33333333-77777777-22222222-33333333-33333333-77777777-2222222222222222---2-2-|
E|----------55555555-00000000-11111111----------55555555-0000000000000000---0-0-|
 |Guitar 2
E|-------------------------------------------------------------------|
B|-----------------------------8-----------------------------8-------|
G|------5--7-5--5------5--7-5--------5--7-5--5------5--7-5-----------|
D|--7-7--7----7----7-7--7----7----7-7--7----7----7-7--7----7---------|
A|-------------------------------------------------------------------|
E|-------------------------------------------------------------------|

Order

Verse 
Pre-Chorus
Chorus
Post-Chorus
Verse 2
Chorus
Bridge
Interlude
Pre-Outro
Outro


 





Fallout Boy: I've Got A Dark Alley And A Bad Idea That Says You Should Shut Your Mouth
Track: 6
Tuning: Standard
Notes: chord version here –its easier to read this way, rather than putting major chords
on a tab format, also any chords in brackets means you play just the root nore of the chord.

Chords and names used for this tab only
   C  G  A#  F
E|-0--3---0--0-|
B|-1--0---1--1-|
G|-0--0---2--2-|
D|-2--0---2--3-|
A|-3--2---x--3-|
E|----3---0----|


Intro
C G C G| x4

G                 C                F             G              E
Joke me something awful just like kisses on the necks of "best friends"
C         F         G
We're the kids who feel like dead ends
     C           F            G                 F
And I want to be known for my hits, not just my misses
         C         F                G
I took a shot and didn't even come close
   (C)        (F) (C)(G)
At trust and love and hope
        (C)        (F)(C)(G)
And the poets are just kids who didn't make it
                            G
Who never had it at all

         A#   C           G
And the record won't stop skipping
        A#        C          G
And the lies just won't stop slipping
    A              F               G
And besides my reputation's on the line
        A#     C       G
We can fake it for the airwaves
           A#     C     G
Force our smiles, baby, half dead
        A#        F      G
From comparing myself to everyone else around me

G              C             F             C       G          F
Please put the doctor on the phone because I'm not making any sense
      C    F       G
Blame everyone but me for this mess
       C             F        G               F
And my back has been breaking from this heavy heart
   C     F         G
We never seemed so far
     (C)       (F)           (C)         (G)
I'm hopelessly hopeful, that you're just hopeless enough
                              G
But we never had it at all

         A#   C           G
And the record won't stop skipping
        A#        C          G
And the lies just won't stop slipping
    A              F               G
And besides my reputation's on the line
        A#     C       G
We can fake it for the airwaves
           A#     C     G
Force our smiles, baby, half dead
        A#        F      G
From comparing myself to everyone else around me

A#   F   G
           to everyone else around me

A#   F   G
           to everyone else around me

A#   F   G
           to everyone else around me

A#   F   G  F  G (hit last G once only)



Fallout Boy: 7 minutes in heaven (Atavan halen)
Track: 7
Tuning: Drop D
Notes:

Intro
 |Guitar 2
E|---------------------------------|---------------------------------|
B|---------------------------------|---------------------------------|
G|-9-99--8-88--6-66--9-99--8-88--6-|-9-99--8-88--6-66--9-99--8-88--6-|
D|-9-99--9-99--9-99--9-99--9-99--9-|-9-99--9-99--9-99--9-99--9-99--9-|
A|---------------------------------|---------------------------------|
E|---------------------------------|---------------------------------|
PM   **    **    **    **    **        **    **    **    **    **

Intro cont
 |Guitar 1
E|-------------------------|--------------------------|
B|-------------------------|--------------------------|
G|----------------------4~-|--------------------------|
D|--6-6-6-6--2~----4444-4~-|--6-6-6-6--2222--44444444-|
A|--6-6-6-6--2~-x--4444-2~-|--6-6-6-6--2222--44444444-|
E|--4-4-4-4--0~-x--2222----|--4-4-4-4--0000--22222222-|
 |Guitar 2
E|-------------------------|--------------------------|
B|-------------------------|--------------------------|
G|-11111111--8~----6666-4~-|-11111111--8888--6666-6/8-|
D|--x-x-x-x--x~----xxxx-x~-|--x-x-x-x--xxxx--xxxx-x-x-|
A|--9-9-9-9--6~----4444-2~-|--9-9-9-9--6666--4444-4/6-|
E|-------------------------|--------------------------|

Verse
 |Guitar 1
E|--------------------------------------------------------------------|
B|--------------------------------------------------------------------|
G|--------------------4---4---4---4---------------------4---4---4---4-|
D|---6---6---6---6--444-444-444-444----2---2---2---2--444-444-444-444-|
A|-666-666-666-666--222-222-222-222--222-222-222-222--222-222-222-222-|
E|-444-444-444-444-------------------000-000-000-000------------------|
PM **  **  **  **   **  **  **  **   **  **  **  **   **  **  **  **
 |Guitar 2
E|--------------------------------------------------------------------|
B|------------------12121212121212--------------------12121212121212--|
G|-------------------x-x-x-x-x-x-x---------------------x-x-x-x-x-x-x--|
D|-------------------9-9-9-9-9-9-9---------------------9-9-9-9-9-9-9--|
A|--------------------------------------------------------------------|
E|--------------------------------------------------------------------|

 |Guitar 1
E|------------------------------------------------------------------------|
B|------------------------------------------------------------------------|
G|--------------------4---4---4---4---------------------4---4---4-4444444-|
D|---6---6---6---6--444-444-444-444----2---2---2---2--444-444-444-4444444-|
A|-666-666-666-666--222-222-222-222--222-222-222-222--222-222-222-2222222-|
E|-444-444-444-444-------------------000-000-000-000----------------------|
PM **  **  **  **   **  **  **  **   **  **  **  **   **  **  ** 
 |Guitar 2
E|------------------------------------------------------------------------|
B|------------------12121212121212----------------------------------------|
G|-------------------x-x-x-x-x-x-x----------------------------------------|
D|-------------------9-9-9-9-9-9-9----------------------------------------|
A|------------------------------------------------------------------------|
E|------------------------------------------------------------------------|

Pre Chorus
 |Both guitars
E|----------------------------------------|---------------------------------------|
B|----------------------------------------|---------------------------------------|
G|----------------4~----------------------|----------------4~---------------------|
D|-6666-2~---4444-4~---6666-2222-44444444-|-6666-2~---4444-4~---6666-2222-4-----4-|
A|-6666-2~-x-4444-2~-x-6666-2222-44444444-|-6666-2~-x-4444-2~-x-6666-2222-4-44444-|
E|-4444-0~-x-2222----x-4444-0000-22222222-|-4444-0~-x-2222----x-4444-0000-2-22222-|
PM										 ****

Chorus
 |Both guitars
E|------------------------------------|------------------------------------|
B|------------------------------------|------------------------------------|
G|-44---------------------------------|-44---------------------------------|
D|-44-----4-22-----4-66-----4-2-----4-|-44-----4-22-----4-66-----4-2-----4-|
A|-22-xxx-4-22-xxx-4-66-xxx-4-2-222-4-|-22-xxx-4-22-xxx-4-66-xxx-4-2-222-4-|
E|----xxx-2-00-xxx-2-44-xxx-2-0-000-2-|----xxx-2-00-xxx-2-44-xxx-2-0-000-2-|
PM                              ***                                  ***

E|------------------------------------|------------------------------------|
B|------------------------------------|------------------------------------|
G|-44---------------------------------|-44---------------------------------|
D|-44-----4-22-----4-66-----4-2-----4-|-44-----4-22-----4-66-----4-2-----4-|
A|-22-xxx-4-22-xxx-4-66-xxx-4-2-222-4-|-22-xxx-4-22-xxx-4-66-xxx-4-2-222-4-|
E|----xxx-2-00-xxx-2-44-xxx-2-0-000-2-|----xxx-2-00-xxx-2-44-xxx-2-0-000-2-|
PM                              ***                                  ***

Verse 2
 |Guitar 2 only
E|--------------------------------------------------------------------------------|
B|--------------------------------------------------------------------------------|
G|-9-99-9-99-9-99-9-9--8-88-8-88-8-88-8-8--6-66-6-66-6-66-6-6--9-99-9-99-9-99-9-9-|
D|-9-99-9-99-9-99-9-9--9-99-9-99-9-99-9-9--9-99-9-99-9-99-9-9--9-99-9-99-9-99-9-9-|
A|--------------------------------------------------------------------------------|
E|--------------------------------------------------------------------------------|
PM   **   **   **        **   **   **        **   **   **        **   **   **      

Verse 2 cont
 |Guitar 1
E|----------------------------------------------------------------------|
B|----------------------------------------------------------------------|
G|--------------------4---4---4---4-------------------44444444-44444444-|
D|---6---6---6---6--444-444-444-444----2---2---2---2--44444444-44444444-|
A|-666-666-666-666--222-222-222-222--222-222-222-222--22222222-22222222-|
E|-444-444-444-444-------------------000-000-000-000--------------------|
PM **  **  **  **   **  **  **  **   **  **  **  **   ********
 |Guitar 2
E|----------------------------------------------------------------------|
B|----------------------------------------------------------------------|
G|-9-99-9-99-9-99---8-88-8-88-8-88---6-66-6-66-6-66------------44444444-|
D|-9-99-9-99-9-99---9-99-9-99-9-99---9-99-9-99-9-99------------44444444-|
A|-------------------------------------------------------------22222222-|
E|----------------------------------------------------------------------|
PM   **   **   **     **   **   **     **   **   ** 

Bridge
 |Guitar 1 only
E|-----------------------------------------------------|
B|-----------------------------------------------------|
G|---------------------------666666666666-666666666666-|
D|-666666666666-666666666666-666666666666-666666666666-|
A|-666666666666-666666666666-444444444444-444444444444-|
E|-444444444444-444444444444---------------------------|
PM ************ ************ ************ ************

E|-----------------------------------------------------|
B|-----------------------------------------------------|
G|---------------------------444444444444-444444444444-|
D|-222222222222-222222222222-444444444444-444444444444-|
A|-222222222222-222222222222-222222222222-444444444444-|
E|-000000000000-000000000000---------------------------|
PM ************ ************ ************ ************

Bridge cont
 |Guitar 1
E|------------------------------------------------------------|
B|------------------------------------------------------------|
G|-------------------------------666666-666666--666666-666666-|
D|-666666-666666--666666-666666--666666-666666--666666-666666-|
A|-666666-666666--666666-666666--444444-444444--444444-444444-|
E|-444444-444444--444444-444444-------------------------------|
PM *************  *************  *************  *************
 |Guitar 2
E|------------------------------------------------------------|
B|------------------------------------------------------------|
G|9-99-9-99-9-99-9-99-9-99-9-99--8-88-8-88-8-88-8-88-8-88-8-88|
D|9-99-9-99-9-99-9-99-9-99-9-99--9-99-9-99-9-99-9-99-9-99-9-99|
A|------------------------------------------------------------|
E|------------------------------------------------------------|
PM  **   **   **   **   **   **    **   **   **   **   **   **

 |Guitar 1
E|-----------------------------------------------------|
B|-----------------------------------------------------|
G|-------------------------------444444-444444--444444-|
D|-222222-222222--222222-222222--444444-444444--444444-|
A|-222222-222222--222222-222222--222222-222222--222222-|
E|-000000-000000--000000-000000------------------------|
PM *************  *************  *************  ******
 |Guitar 2
E|-----------------------------------------------------|
B|-----------------------------------------------------|
G|6-66-6-66-6-66-6-66-6-66-6-66--9-99-9-99-9-99--------|
D|9-99-9-99-9-99-9-99-9-99-9-99--9-99-9-99-9-99--------|
A|-----------------------------------------------------|
E|-----------------------------------------------------|
PM  **   **   **   **   **   **    **   **   **

Pre Solo
 |Guitar 1 only
E|-----------------------------------|----------------------------------------|
B|-----------------------------------|----------------------------------------|
G|-----------------------------------|----------------4~----------------------|
D|-66-44-------6666-2222-444444-xxxx-|-6666-2~---4444-4~---6666-2222-44444444-|
A|-66-44-------6666-2222-444444-xxxx-|-6666-2~-x-4444-2~-x-6666-2222-44444444-|
E|-44-22--16\--4444-0000-222222-xxxx-|-4444-0~-x-2222----x-4444-0000-22222222-|


Solo
 |Guitar 1
E|------------------------------|------------------------|
B|------------------------------|------------------------|
G|----------------------------4~|------------------------|
D|-6-6-6-6---2~------4-4-4-4--4~|---6-6-6-6--2222-444444-|
A|-6-6-6-6---2~--x---4-4-4-4--2~|-x-6-6-6-6--2222-444444-|
E|-4-4-4-4---0~--x---2-2-2-2----|-x-4-4-4-4--0000-222222-|
 |Guitar 2
e|------------------------------|------------------------|
B|------------------------------|------------------------|
G|-66-6h8--66-6\4--6h8--6\4-6h8v|-66-6h8-6-6\4--6h8--6-66|
D|------------------------------|------------------------|
A|------------------------------|------------------------|
E|------------------------------|------------------------|

 |Guitar 1
E|------------------------------|-------------------------|
B|------------------------------|-------------------------|
G|----------------------------4~|-------------------------|
D|-6-6-6-6---2~------4-4-4-4--4~|---6-6-6-6--22-2-2--4~---|
A|-6-6-6-6---2~--x---4-4-4-4--2~|-x-6-6-6-6--22-2-2--4~---|
E|-4-4-4-4---0~--x---2-2-2-2----|-x-4-4-4-4--00-0-0--2~---|
 |Guitar 2
e|------------------------------|-------------------------|
B|------------------------------|-------------------------|
G|-66-6h8--66-6\4--6h8--6\4-6h8v|-66-6h8-6-6\4--6h8--6-6v-|
D|------------------------------|-------------------------|
A|------------------------------|-------------------------|
E|------------------------------|-------------------------|

Outro (played with acoustic effects)
 |Guitar 1 only
E|------------------------------------|--------------------------------|
B|------------------------------------|--------------------------------|
G|-44---------------------------------|-44-----------------------------|
D|-44-----4-22-----4-66-----4-2-----4-|-44-----4-22-----4-66-----4-2-2-|
A|-22-xxx-4-22-xxx-4-66-xxx-4-2-222-4-|-22-xxx-4-22-xxx-4-66-xxx-4-2-2-|
E|----xxx-2-00-xxx-2-44-xxx-2-0-000-2-|----xxx-2-00-xxx-2-44-xxx-2-0-0-|
PM                              ***

Order

Intro
Intro cont
Verse 
Pre Chorus 
Chorus
Intro cont x2
Verse 2
Verse 2 cont
Pre Chorus
Chorus
Bridge
Bridge cont
Pre solo
Solo
Outro







Fallout Boy: Sophomore Slump or comeback of the year?
Track: 8
Tuning: Standard
Notes:

Intro
 |Guitar 1
E|---------------------------------------|--------------------------|------|
B|---------------------------------------|--------------------------|------|
G|-44444444------------------------------|-44444444-----------------|------|
D|-44444444-44444444-22222222--6666-2222-|-44444444-44444444--2~~~~-|-xxxx-|
A|-22222222-11111111-22222222--6666-2222-|-22222222-11111111--2~~~~-|-xxxx-|
E|-------------------00000000--4444-0000-|--------------------0~~~~-|-xxxx-|
PM ******** ******** ********  *********   ******** ********

Verse
 |Guitar 1
E|--------------------|--------------------|--------------------|--------------------|
B|--------------------|--------------------|--------------------|--------------------|
G|------------------4-|------------------4-|------------------4-|------------------4-|
D|66---4---22---444-4-|66---4---22---444-4-|66---4---22---444-4-|66---4---22---444-4-|
A|66-x-4-x-22-x-444-2-|66-x-4-x-22-x-444-2-|66-x-4-x-22-x-444-2-|66-x-4-x-22-x-444-2-|
E|44-x-2-x-00-x-222---|44-x-2-x-00-x-222---|44-x-2-x-00-x-222---|44-x-2-x-00-x-222---|

Verse cont
 |Guitar 1
E|--------------------|--------------------|--------------------|--------------------|
B|--------------------|--------------------|--------------------|--------------------|
G|------------------4-|------------------4-|------------------4-|------------------4-|
D|66---4---22---444-4-|66---4---22---444-4-|66---4---22---444-4-|66---4---22---444-4-|
A|66-x-4-x-22-x-444-2-|66-x-4-x-22-x-444-2-|66-x-4-x-22-x-444-2-|66-x-4-x-22-x-444-2-|
E|44-x-2-x-00-x-222---|44-x-2-x-00-x-222---|44-x-2-x-00-x-222---|44-x-2-x-00-x-222---|

 |Guitar 2
E|--------------------|--------------------|--------------------|--------------------|
B|-7--7--7--7-7-7-7-7-|-7--7--7--7-7-7-7-7-|-7--7--7--7-7-7-7-7-|-7--7--7--7-7-7-7-7-|
G|-x--x--x--x-x-x-x-x-|-x--x--x--x-x-x-x-x-|-x--x--x--x-x-x-x-x-|-x--x--x--x-x-x-x-x-|
D|-4--4--4--4-4-4-4-4-|-4--4--4--4-4-4-4-4-|-4--4--4--4-4-4-4-4-|-4--4--4--4-4-4-4-4-|
A|--------------------|--------------------|--------------------|--------------------|
E|--------------------|--------------------|--------------------|--------------------|

Pre Chorus
 |Guitar 1 only
E|--------------------------------------|--------------------------------------|
B|--------------------------------------|--------------------------------------|
G|----------44444444-----------44444444-|----------44444444-----------44444444-|
D|-22222222-44444444--22222222-44444444-|-22222222-44444444--22222222-44444444-|
A|-22222222-22222222--22222222-22222222-|-22222222-22222222--22222222-22222222-|
E|-00000000-----------00000000----------|-00000000-----------00000000----------|
PM ******** ********  ******** ********   ******** ********  ******** **

Chorus
 |Guitar 1 
E|--------------------------------------------------------|
B|--------------------------------------------------------|
G|-4-4-4-4-4-4-4-4----------------------------------------|
D|-4-4-4-4-4-4-4-4---4-4-4-4-4-4-4-4--22222222--6666-2222-|
A|-2-2-2-2-2-2-2-2---1-1-1-1-1-1-1-1--22222222--6666-2222-|
E|------------------------------------00000000--4444-0000-|
 |Guitar 2
E|--------------------------------------------------------|
B|1212121212121212--1111111111111111------------9999------|
G|-x-x-x-x-x-x-x-x---x-x-x-x-x-x-x-x--99999999--xxxx-9999-|
D|-9-9-9-9-9-9-9-9---8-8-8-8-8-8-8-8--xxxxxxxx--6666-xxxx-|
A|------------------------------------77777777-------7777-|
E|--------------------------------------------------------|

 |Guitar 1
E|----------------------------------------------------------|
B|----------------------------------------------------------|
G|-4-4-4-4-4-4-4-4------------------------------------------|
D|-4-4-4-4-4-4-4-4---4-4-4-4-4-4-4-4--2---22222222-22222222-|
A|-2-2-2-2-2-2-2-2---1-1-1-1-1-1-1-1--2-x-22222222-22222222-|
E|------------------------------------0-x-00000000-00000000-|
 |Guitar 2
E|----------------------------------------------------------|
B|1212121212121212--1111111111111111--------9999-8--9999----|
G|-x-x-x-x-x-x-x-x---x-x-x-x-x-x-x-x--9---99999999-99999999-|
D|-9-9-9-9-9-9-9-9---8-8-8-8-8-8-8-8--x---xxxxxxxx-xxxxxxxx-|
A|------------------------------------7---77777777-77777777-|
E|----------------------------------------------------------|

Pre Verse 2
 |Both guitars
E|----------------------|
B|----------------------|
G|--------------------4-|
D|66---4---22---4-----4-|
A|66-x-4-x-22-x-4-444-2-|
E|44-x-2-x-00-x-2-222---|
PM                *****

Verse 2
 |Guitar 1 only
E|--------------------|--------------------|--------------------|--------------------|
B|--------------------|--------------------|--------------------|--------------------|
G|--------------------|--------------------|--------------------|--------------------|
D|------------------4-|------------------4-|------------------4-|------------------4-|
A|66-6\44-4\22-2\444--|66-6\44-4\22-2\444--|66-6\44-4\22-2\444--|66-6\44-4\22-2\444--|
E|--------------------|--------------------|--------------------|--------------------|

Fill
 |Guitar 1 only
E|-------------|
B|-------------|
G|-------------|
D|-6-6-6-66666-|
A|-6-6-6-66666-|
E|-4-4-4-44444-|
PM ***********

Verse 2 cont
 |Guitar 1
E|--------------------|--------------------|--------------------|--------------------|
B|--------------------|--------------------|--------------------|--------------------|
G|------------------4-|------------------4-|------------------4-|------------------4-|
D|66---4---22---444-4-|66---4---22---444-4-|66---4---22---444-4-|66---4---22---444-4-|
A|66-x-4-x-22-x-444-2-|66-x-4-x-22-x-444-2-|66-x-4-x-22-x-444-2-|66-x-4-x-22-x-444-2-|
E|44-x-2-x-00-x-222---|44-x-2-x-00-x-222---|44-x-2-x-00-x-222---|44-x-2-x-00-x-222---|

 |Guitar 2
E|--------------------|--------------------|--------------------|--------------------|
B|-7--7--7--7-7-7-7-7-|-7--7--7--7-7-7-7-7-|-7--7--7--7-7-7-7-7-|-7--7--7--7-7-7-7-7-|
G|-x--x--x--x-x-x-x-x-|-x--x--x--x-x-x-x-x-|-x--x--x--x-x-x-x-x-|-x--x--x--x-x-x-x-x-|
D|-4--4--4--4-4-4-4-4-|-4--4--4--4-4-4-4-4-|-4--4--4--4-4-4-4-4-|-4--4--4--4-4-4-4-4-|
A|--------------------|--------------------|--------------------|--------------------|
E|--------------------|--------------------|--------------------|--------------------|

Pre Chorus 2
 |Both guitars
E|--------------------------------------|
B|--------------------------------------|
G|----------44444444-----------44444444-|
D|-22222222-44444444--22222222-44444444-|
A|-22222222-22222222--22222222-22222222-|
E|-00000000-----------00000000----------|
PM ******** ********  ******** **

Bridge
 |Both guitars
E|---------------------------------------|-------------------------------------------|
B|---------------------------------------|-------------------------------------------|
G|-44444444------------------------------|-44444444----------------------------------|
D|-44444444-44444444-22222222--6666-2222-|-44444444-44444444--22222222-22222222-2~~~~|
A|-22222222-11111111-22222222--6666-2222-|-22222222-11111111--22222222-22222222-2~~~~|
E|-------------------00000000--4444-0000-|--------------------00000000-00000000-0~~~~|

E|---------------------------------------|-------------------------------------|
B|---------------------------------------|-------------------------------------|
G|---------------------------------------|----------------------------44444444-|
D|-2-22222222-22222222-22222222-22222222-|-22222222-22222222-22222222-44444444-|
A|-2-22222222-22222222-22222222-22222222-|-22222222-22222222-22222222-22222222-|
E|---00000000-00000000-00000000-00000000-|-00000000-00000000-00000000----------|
PM   ******** ******** ******** ********   ******** ********

Bridge part 2
 |Guitar 1
E|-------------------------------------|---------------------------------------------|
B|-------------------------------------|---------------------------------------------|
G|----------44444444----------44444444-|---------44444444----------44444444--4~~~~~~-|
D|-22222222-44444444-22222222-44444444-|22222222-44444444-22222222-44444444--4~~~~~~-|
A|-22222222-22222222-22222222-22222222-|22222222-22222222-22222222-22222222--2~~~~~~-|
E|-00000000----------00000000----------|00000000----------00000000-------------------|

Pre outro
 |Guitar 1
E|-----------------------------------|
B|-----------------------------------|
G|-------------------4-4-4-4-4-4-4-4-|
D|-2-2-2-2-2-2-2-2---4-4-4-4-4-4-4-4-|
A|-2-2-2-2-2-2-2-2---2-2-2-2-2-2-2-2-|
E|-0-0-0-0-0-0-0-0-------------------|
 |Guitar 2
E|-----------------------------------|
B|------------------1212121212121212-|
G|-9-9-9-9-9-9-9-9---x-x-x-x-x-x-x-x-|
D|-x-x-x-x-x-x-x-x---9-9-9-9-9-9-9-9-|
A|-7-7-7-7-7-7-7-7-------------------|
E|-----------------------------------|

Outro
 |Guitar 1 
E|--------------------------------------------------------|
B|--------------------------------------------------------|
G|-4-4-4-4-4-4-4-4----------------------------------------|
D|-4-4-4-4-4-4-4-4---4-4-4-4-4-4-4-4--22222222--6666-2222-|
A|-2-2-2-2-2-2-2-2---1-1-1-1-1-1-1-1--22222222--6666-2222-|
E|------------------------------------00000000--4444-0000-|
 |Guitar 2
E|--------------------------------------------------------|
B|1212121212121212--1111111111111111------------9999------|
G|-x-x-x-x-x-x-x-x---x-x-x-x-x-x-x-x--99999999--xxxx-9999-|
D|-9-9-9-9-9-9-9-9---8-8-8-8-8-8-8-8--xxxxxxxx--6666-xxxx-|
A|------------------------------------77777777-------7777-|
E|--------------------------------------------------------|

 |Guitar 1
E|---------------------------------------------|
B|---------------------------------------------|
G|-4-4-4-4-4-4-4-4-----------------------------|
D|-4-4-4-4-4-4-4-4---4-4-4-4-4-4-4-4--2~~~~~~~-|
A|-2-2-2-2-2-2-2-2---1-1-1-1-1-1-1-1--2~~~~~~~-|
E|------------------------------------0~~~~~~~-|
 |Guitar 2
E|---------------------------------------------|
B|1212121212121212--1111111111111111-----------|
G|-x-x-x-x-x-x-x-x---x-x-x-x-x-x-x-x-----------|
D|-9-9-9-9-9-9-9-9---8-8-8-8-8-8-8-8--2~~~~~~~-|
A|------------------------------------2~~~~~~~-|
E|------------------------------------0~~~~~~~-|


Order

Intro
Verse
Verse cont
Pre Chorus
Chorus
Pre Verse 2
Verse 2
Fill
Verse 2 cont
Pre Chorus 2
Chorus
Bridge
Bridge part 2
Pre outro
Outro






Fallout Boy: Champagne For My Real Friends, Real Pain For My Sham Friends
Track: 9
Tuning: Standard
Notes: intro played with a phaser effect, and vibrato needs to be applied to every note.

Intro
 |Guitar 2
E|---------7-7---------7-7-----------|---------7-7---------7-7-----------|
B|-----5-5---------5-5-----7/8\7/8\7-|-----5-5---------5-5-----7/8\7/8\7-|
G|-7-7---------7-7-------------------|-7-7---------7-7-------------------|
D|-----------------------------------|-----------------------------------| x2
A|-----------------------------------|-----------------------------------|
E|-----------------------------------|-----------------------------------|

Verse
 |Guitar 1 only
E|----------------------------------------|----------------------------------------|
B|----------------------------------------|----------------------------------------|
G|-55-5-5-5--55-5-5-5--44-4-4-4--55-5-5-5-|-55-5-5-5--55-5-5-5--44-4-4-4--55-5-5-5-|
D|-xx-x-x-x--xx-x-x-x--xx-x-x-x--xx-x-x-x-|-xx-x-x-x--xx-x-x-x--xx-x-x-x--xx-x-x-x-|
A|-00-0-0-0--55-5-5-5--xx-x-x-x--55-5-5-5-|-00-0-0-0--55-5-5-5--xx-x-x-x--55-5-5-5-|
E|---------------------33-3-3-3-----------|---------------------33-3-3-3-----------|

E|----------------------------------------|----------------------------------------|
B|----------------------------------------|----------------------------------------|
G|-66-6-6-6--55-5-5-5--44-4-4-4--55-5-5-5-|-55-5-5-5--55-5-5-5--44-4-4-4--55-5-5-5-|
D|-xx-x-x-x--xx-x-x-x--xx-x-x-x--xx-x-x-x-|-xx-x-x-x--xx-x-x-x--xx-x-x-x--xx-x-x-x-|
A|-00-0-0-0--55-5-5-5--xx-x-x-x--55-5-5-5-|-00-0-0-0--55-5-5-5--xx-x-x-x--55-5-5-5-|
E|---------------------33-3-3-3-----------|---------------------33-3-3-3-----------|

E|-------------------------------------------------------------|
B|-------------------------------------------------------------|
G|-66-6-6-6--55-5-5-5--4-4-4-4-4-4-4-4-4-4-4-4-4-4-4-4-4-4-4-4-|
D|-xx-x-x-x--xx-x-x-x--x-x-x-x-x-x-x-x-x-x-x-x-x-x-x-x-x-x-x-x-|
A|-00-0-0-0--55-5-5-5--x-x-x-x-x-x-x-x-x-x-x-x-x-x-x-x-x-x-x-x-|
E|---------------------3-3-3-3-3-3-3-3-3-3-3-3-3-3-3-3-3-3-3-3-|

Pre Chorus
 |Guitar 1 only
E|-------------------------------------|-------------------------------------|
B|-------------------------------------|-------------------------------------|
G|-666-555--44444444-44444444-44444444-|-666-555--44444444-44444444-44444444-|
D|-xxx-xxx--xxxxxxxx-xxxxxxxx-xxxxxxxx-|-xxx-xxx--xxxxxxxx-xxxxxxxx-xxxxxxxx-|
A|-000-000--xxxxxxxx-xxxxxxxx-xxxxxxxx-|-000-000--xxxxxxxx-xxxxxxxx-xxxxxxxx-|
E|----------33333333-33333333-33333333-|----------33333333-33333333-33333333-|

Chorus
 |Guitar 1 only
E|-----------------------------------------------------------------------|
B|-----------------------------------------------------------------------|
G|-55555555-44444444---------------------------44444444------------------|
D|-55555555-44444444-3333333333333333-77777777-55555555-3333333333333333-|
A|-33333333-22222222-3333333333333333-77777777-55555555-3333333333333333-|
E|-------------------1111111111111111-55555555-33333333-1111111111111111-|

E|--------------------------------------|
B|--------------------------------------|
G|-55555555----------5555-4444----------|
D|-55555555-33333333-5555-5555-33333333-|
A|-33333333-33333333-3333-5555-33333333-|
E|----------11111111------3333-11111111-|

Bridge (after bass bit)
 |Guitar 1
E|------------------------5*------------------------------------------------|
B|-0-1~---0-1~---0-1~--5*---------------------------------------------------|
G|------x------x-------------(bass bit)-------------------------------------|
D|--------------------------------------------------------------------------|
A|--------------------------------------3333333333333333-333333333333333333-|
E|--------------------------------------1111111111111111-111111111111111111-|
PM		                         **************** *****************

End Chorus
 |Guitar 1 only
E|-----------------------------------------------------------------------|
B|-----------------------------------------------------------------------|
G|-55555555-44444444---------------------------44444444------------------|
D|-55555555-44444444-3333333333333333-77777777-55555555-3333333333333333-|
A|-33333333-22222222-3333333333333333-77777777-55555555-3333333333333333-|
E|-------------------1111111111111111-55555555-33333333-1111111111111111-|

E|---------------------------------------------------------------------------|
B|---------------------------------------------------------------------------|
G|-5~5~5~5~5~5----------------5~5~5~-----------------------------------------|
D|-5~5~5~5~5~5~-3~3~3~3~3-3~--5~5~5~-5~5~5~--3~~3~~3~~3~--3~-33--3~~3~~3~~3~-|
A|-3~3~3~3~3~3~-3~3~3~3~3-3~--3~3~3~-5~5~5~--3~~3~~3~~3~--3~-33--3~~3~~3~~3~-|
E|--------------1~1~1~1~1-1~---------3~3~3~--1~~1~~1~~1~--1~-11--1~~1~~1~~1~-|
PM                                                           **

Order

Intro
Verse
Pre-Chorus
Chorus
Verse 
Intro
Verse
Pre-Chorus
Chorus
Bridge
End Chorus







Fallout Boy: I Slept With Sum1 In Fallout Boy &All I Got Was This Stupid Song Written About Me
Track: 10
Tuning: Drop D
Notes: in the intro part 2 I think guitar 2 is played clean but it may be some effect? Im unsure

Intro part 1
 |Guitar 1 only
E|------------------|
B|------------------|
G|-4~~~-------------|
D|-2~~~--5~~~--9~~~-|
A|-2~~~--5~~~--9~~~-|
E|-2~~~--5~~~--9~~~-|

Intro part 2
 |Guitar 2
E|------------------------------------------------------|
B|------------------------------------------------------|
G|-4-x-4-xx-4--------2----------------------------------|
D|-4-x-4-xx-4--2h4p2---0-2--5-----5---5-----2-----2---2-|
A|-2-x-2-xx-2---------------5-5-5-5-5-5-5-5-2-2-2-2-2-2-|
E|--------------------------5-5-5-5-5-5-5-5-2-2-2-2-2-2-|
PM                            * *   *   * *   * *   *

E|------------------------------------------------------|
B|------------------------------------------------------|
G|-4---4----4--------2----------------------------------|
D|-4-4-4-44-4--2h4p2---0-2--5-----5---5-----2-----2---2-|
A|-2-2-2-22-2---------------5-5-5-5-5-5-5-5-2-2-2-2-2-2-|
E|--------------------------5-5-5-5-5-5-5-5-2-2-2-2-2-2-|
PM   *   **                   * *   *   * *   * *   *

E|------------------------------------------------------|
B|------------------------------------------------------|
G|-4-x-4-xx-4--------2----------------------------------|
D|-4-x-4-xx-4--2h4p2---0-2--5-----5---5-----2-----2---2-|
A|-2-x-2-xx-2---------------5-5-5-5-5-5-5-5-2-2-2-2-2-2-|
E|--------------------------5-5-5-5-5-5-5-5-2-2-2-2-2-2-|
PM                            * *   *   * *   * *   *

E|--------------------------------------|
B|--------------------------------------|
G|-4---4----4--------2------------------|
D|-4-4-4-44-4--2h4p2---0-2--5-----5---5-|
A|-2-2-2-22-2---------------5-5-5-5-5-5-|
E|--------------------------5-5-5-5-5-5-|
PM   *   **                   * *   *  

Pre Verse
 |Guitar 1
E|---------------------------------|---------------------------------|
B|---------------------------------|---------------------------------|
G|-444-----------------------------|-444-----------------------------|
D|-444-000-555-000-777-999-555-000-|-444-000-555-000-777-999-555-000-|
A|-222-000-555-000-777-999-555-000-|-222-000-555-000-777-999-555-000-|
E|-----000-555-000-777-999-555-000-|-----000-555-000-777-999-555-000-|
 |Guitar 2
E|---------------------------------|---------------------------------|
B|---------888-----999-----888-----|---------888-----999-----888-----|
G|-xxx-777-xxx-777-xxx-xxx-xxx-777-|-xxx-777-xxx-777-xxx-xxx-xxx-777-|
D|-999-xxx-555-xxx-777-999-555-xxx-|-999-xxx-555-xxx-777-999-555-xxx-|
A|-----555-----555-------------555-|-----555-----555-------------555-|
E|---------------------------------|---------------------------------|

Verse
 |Guitar 1 only
E|----------------------------------------|----------------------------------------|
B|----------------------------------------|----------------------------------------|
G|-4----4---4--7----7---7-x---------------|-4----4---4--7----7---7-x---------------|
D|-4-44-4-4-4--7-77-7-7-7-x--2----2---2-x-|-4-44-4-4-4--7-77-7-7-7-x--2----2---2-x-|
A|-2-22-2-2-2--5-55-5-5-5-x--2-22-2-2-2-x-|-2-22-2-2-2--5-55-5-5-5-x--2-22-2-2-2-x-|
E|---------------------------2-22-2-2-2-x-|---------------------------2-22-2-2-2-x-|
PM   **   *      **   *        **   *         **   *      **   *        **   *

E|----------------------------------------|----------------------------------------|
B|----------------------------------------|----------------------------------------|
G|-4----4---4--7----7---7-x---------------|-4----4---4--7----7---7-x---------------|
D|-4-44-4-4-4--7-77-7-7-7-x--2----2---2-x-|-4-44-4-4-4--7-77-7-7-7-x--2----2---2-x-|
A|-2-22-2-2-2--5-55-5-5-5-x--2-22-2-2-2-x-|-2-22-2-2-2--5-55-5-5-5-x--2-22-2-2-2-x-|
E|---------------------------2-22-2-2-2-x-|---------------------------2-22-2-2-2-x-|
PM   **   *      **   *        **   *         **   *      **   *        **   *

Chorus
 |Guitar 1 only
E|--------|-----------------------------|------------------------------|
B|--------|-----------------------------|------------------------------|
G|-4~~~---|-----------------------------|------------------------------|
D|-2~~~5~~|-9999-000000-2222-x-55555555-|-9999-777777--5-xxxx-5-0-xxxx-| x2
A|-2~~~5~~|-9999-000000-2222-x-55555555-|-9999-777777--5-xxxx-5-0-xxxx-|
E|-2~~~5~~|-9999-000000-2222-x-55555555-|-9999-777777--5-xxxx-5-0-xxxx-|

Pre Chorus 2
 |Guitar 1 only
E|------------------------|------------------------|------------------------|
B|------------------------|------------------------|------------------------|
G|------------------------|------------------------|------------------------|
D|-9-----0-----5-----2----|-9-----0-----5-----2----|-9-----0-----5-----2----|
A|-9-99--0-00--5-55--2-22-|-9-99--0-00--5-55--2-22-|-9-99--0-00--5-55--2-22-|
E|-9-99--0-00--5-55--2-22-|-9-99--0-00--5-55--2-22-|-9-99--0-00--5-55--2-22-|
PM   **    **    **    **     **    **    **    **     **    **    **    **

E|--------------------------|
B|--------------------------|
G|--------------------------|
D|-9-----0-----5-----222222-|
A|-9-99--0-00--5-55--222222-|
E|-9-99--0-00--5-55--222222-|
PM   **    **    **     

Bridge
 |Guitar 1 only
E|-------------------|-------------------------------------------|
B|-------------------|-------------------------------------------|
G|-4~~~--------------|-------------------------------------------|
D|-2~~~--5~~~--9~~9~~|-------------------99-------------------99-|
A|-2~~~--5~~~--9~~9~~|-99999999-99999999-99-99999999-99999999-99-|
E|-2~~~--5~~~--9~~9~~|-99999999-99999999-99-99999999-99999999-99-|
PM                     ******** ********    ******** ********

E|--------------------------------------------------------------------------|
B|--------------------------------------------------------------------------|
G|--------------------------------------------------------------------------|
D|--------------------2~---5~--99-------------------99-------------------99-|
A|-99999999-99999999--2~---5~--99-99999999-99999999-99-99999999-99999999-99-|
E|-99999999-99999999--2~---5~--99-99999999-99999999-99-99999999-99999999-99-|
PM ******** ********              ******** ********    ******** *******

E|--------------------------------|
B|--------------------------------|
G|--------------------------------|
D|--------------------2~---5~--99-|
A|-99999999-99999999--2~---5~--99-|
E|-99999999-99999999--2~---5~--99-|
PM ******** ********
Interlude
 |Guitar 1 only
E|------------------------|------------------------|
B|------------------------|------------------------|
G|------------------------|------------------------|
D|-9~xx--0~xx--5~xx--2~xx-|-9~xx--0~xx--5~xx--2~xx-| x2
A|-9~xx--0~xx--5~xx--2~xx-|-9~xx--0~xx--5~xx--2~xx-|
E|-9~xx--0~xx--5~xx--2~xx-|-9~xx--0~xx--5~xx--2~xx-|

End Chorus
 |Guitar 1 only
E|--------|-----------------------------|------------------------------|
B|--------|-----------------------------|------------------------------|
G|-4~~~---|-----------------------------|------------------------------|
D|-2~~~5~~|-9999-000000-2222-x-55555555-|-9999-777777--5-xxxx-5-0-xxxx-|
A|-2~~~5~~|-9999-000000-2222-x-55555555-|-9999-777777--5-xxxx-5-0-xxxx-|
E|-2~~~5~~|-9999-000000-2222-x-55555555-|-9999-777777--5-xxxx-5-0-xxxx-|

E|--------------------------------------------------|
B|--------------------------------------------------|
G|--------------------------------------------------|
D|-9999-000000-2222-x-55555555-|-9999-777777-\5~~~~-|
A|-9999-000000-2222-x-55555555-|-9999-777777-\5~~~~-|
E|-9999-000000-2222-x-55555555-|-9999-777777-\5~~~~-|

Order

Intro part 1
Intro part 2
Pre Verse
Verse
Chorus 
Pre Verse
Verse
Pre Chorus 2
Chorus
Bridge
Interlude
End Chorus







Fallout Boy: A Little Less Sixteen Candles, A Little More "Touch Me"
Track: 11
Tuning: Drop D
Notes: 

Intro
 |Guitar 1
E|-------------------------------------------|-------------------------------|
B|-------------------------------------------|-------------------------------|
G|-------------------------------------------|-------------------------------|
D|-14\\--0-0--4--2--2-2-2---0-0--4--5--5-5-5-|-0-0--4--2--2-2-2---5--4--2-0~-|
A|-14\\--0-0--4--2--2-2-2---0-0--4--5--5-5-5-|-0-0--4--2--2-2-2---5--4--2-0~-|
E|-14\\--0-0--4--2--2-2-2---0-0--4--5--5-5-5-|-0-0--4--2--2-2-2---5--4--2-0~-|
 |Guitar 2
E|-------------------------------------------|-------------------------------|
B|------------7--5--5-5-5--------7--5--5-5-5-|------7--5--5-5-5---8--7--5----|
G|-11\\--7-7--x--x--x-x-x---7-7--x--x--x-x-x-|-7-7--x--x--x-x-x---x--x--x-7~-|
D|--x\\--x-x--4--2--2-2-2---x-x--4--2--2-2-2-|-x-x--4--2--2-2-2---5--4--2-x~-|
A|--9\\--5-5----------------5-5--------------|-5-5------------------------5~-|
E|-------------------------------------------|-------------------------------|

|Guitar 1
E|-------------------------------------|-------------------------------|
B|-------------------------------------|-------------------------------|
G|-------------------------------------|-------------------------------|
D|-0-0--4--2--2-2-2---0-0--4--5--5-5-5-|-0-0--4--2--2-2-2---5--4--2-0~-|
A|-0-0--4--2--2-2-2---0-0--4--5--5-5-5-|-0-0--4--2--2-2-2---5--4--2-0~-|
E|-0-0--4--2--2-2-2---0-0--4--5--5-5-5-|-0-0--4--2--2-2-2---5--4--2-0~-|
 |Guitar 2
E|-------------------------------------|-------------------------------|
B|------7--5--5-5-5--------7--5--5-5-5-|------7--5--5-5-5---8--7--5----|
G|-7-7--x--x--x-x-x---7-7--x--x--x-x-x-|-7-7--x--x--x-x-x---x--x--x-7~-|
D|-x-x--4--2--2-2-2---x-x--4--2--2-2-2-|-x-x--4--2--2-2-2---5--4--2-x~-|
A|-5-5----------------5-5--------------|-5-5------------------------5~-|
E|-------------------------------------|-------------------------------|

Verse
 |Guitar 1 only
E|-------------------------------------|-------------------------------------|
B|-------------------------------------|-------------------------------------|
G|-7777777-99999999--------------------|-7777777-99999999--------------------|
D|-7777777-99999999-99999999-555555555-|-7777777-99999999-99999999-555555555-|
A|-5555555-77777777-99999999-555555555-|-5555555-77777777-99999999-555555555-|
E|------------------99999999-555555555-|------------------99999999-555555555-|
PM ******* ******** ******** *********   ******* ******** ******** *********

E|---------------------------------------|--------------------------------------|
B|---------------------------------------|--------------------------------------|
G|-77777777-99999999---------------------|--------------------------------------|
D|-77777777-99999999-99999999-5555555-55-|-55555555-99999999-55555555-000000000-|
A|-55555555-77777777-99999999-5555555-55-|-55555555-99999999-55555555-000000000-|
E|-------------------99999999-5555555----|-55555555-99999999-55555555-000000000-|
PM ******** ******** ******** *******                                 ******

Chorus
 |Guitar 1 only
E|-------------------------------------|-------------------------------|
B|-------------------------------------|-------------------------------|
G|-------------------------------------|-------------------------------|
D|-0-0--4--2--2-2-2---0-0--4--5--5-5-5-|-0-0--4--2--2-2-2---5--4--2-0~-|
A|-0-0--4--2--2-2-2---0-0--4--5--5-5-5-|-0-0--4--2--2-2-2---5--4--2-0~-|
E|-0-0--4--2--2-2-2---0-0--4--5--5-5-5-|-0-0--4--2--2-2-2---5--4--2-0~-|

E|-------------------------------------|-----------------------|
B|-------------------------------------|-----------------------|
G|-------------------------------------|-----------------------|
D|-0-0--4--2--2-2-2---0-0--4--5--5-5-5-|-0-0--4--2--2-2-2---5#-|
A|-0-0--4--2--2-2-2---0-0--4--5--5-5-5-|-0-0--4--2--2-2-2---5#-|
E|-0-0--4--2--2-2-2---0-0--4--5--5-5-5-|-0-0--4--2--2-2-2---5#-|

Pre Verse 2
 |Guitar 1
E|-------------------------------------|-------------------------------|
B|-------------------------------------|-------------------------------|
G|-------------------------------------|-------------------------------|
D|-0-0--4--2--2-2-2---0-0--4--5--5-5-5-|-0-0--4--2--2-2-2---5--4--2-0~-|
A|-0-0--4--2--2-2-2---0-0--4--5--5-5-5-|-0-0--4--2--2-2-2---5--4--2-0~-|
E|-0-0--4--2--2-2-2---0-0--4--5--5-5-5-|-0-0--4--2--2-2-2---5--4--2-0~-|
 |Guitar 2
E|-------------------------------------|-------------------------------|
B|------7--5--5-5-5--------7--5--5-5-5-|------7--5--5-5-5---8--7--5----|
G|-7-7--x--x--x-x-x---7-7--x--x--x-x-x-|-7-7--x--x--x-x-x---x--x--x-7~-|
D|-x-x--4--2--2-2-2---x-x--4--2--2-2-2-|-x-x--4--2--2-2-2---5--4--2-x~-|
A|-5-5----------------5-5--------------|-5-5------------------------5~-|
E|-------------------------------------|-------------------------------|

Verse 2
 |Guitar 1 only
E|-------------------------------------|-------------------------------------|
B|-------------------------------------|-------------------------------------|
G|-7777777-99999999--------------------|-7777777-99999999--------------------|
D|-7777777-99999999-99999999-555555555-|-7777777-99999999-99999999-555555555-|
A|-5555555-77777777-99999999-555555555-|-5555555-77777777-99999999-555555555-|
E|------------------99999999-555555555-|------------------99999999-555555555-|
PM ******* ******** ******** *********   ******* ******** ******** *********

Pre Chorus 2
 |Guitar 1
E|-------------------------------------|-------------------------------|
B|-------------------------------------|-------------------------------|
G|-77777777-99999999-------------------|-------------------------------|
D|-77777777-99999999-99999999-55555555-|-55555555-99999999-55555555-0#-|
A|-55555555-77777777-99999999-55555555-|-55555555-99999999-55555555-0#-|
E|-------------------99999999-55555555-|-55555555-99999999-55555555-0#-|
PM ******** ******** ******** *******
 |Guitar 2
E|---------------------------------------------------------------------|
B|---------------------------------------------------------------------|
G|-777-777--777-777--777-777--777-77777777-----------------------------|
D|-xxx-xxx--xxx-xxx--xxx-xxx--xxx-xxxxxxxx--------------------------0#-|
A|-555-555--555-555--555-555--555-55555555--------------------------0#-|
E|------------------------------------------------------------------0#-|

Chorus 2
 |Guitar 1 only
E|-------------------------------------|-------------------------------|
B|-------------------------------------|-------------------------------|
G|-------------------------------------|-------------------------------|
D|-0-0--4--2--2-2-2---0-0--4--5--5-5-5-|-0-0--4--2--2-2-2---5--4--2-0~-|
A|-0-0--4--2--2-2-2---0-0--4--5--5-5-5-|-0-0--4--2--2-2-2---5--4--2-0~-|
E|-0-0--4--2--2-2-2---0-0--4--5--5-5-5-|-0-0--4--2--2-2-2---5--4--2-0~-|

E|-------------------------------------|-----------------------------------|
B|-------------------------------------|-----------------------------------|
G|-------------------------------------|-----------------------------------|
D|-0-0--4--2--2-2-2---0-0--4--5--5-5-5-|-0-0--4--2--2-2-2--5-5-5-5-5-5-5-5-|
A|-0-0--4--2--2-2-2---0-0--4--5--5-5-5-|-0-0--4--2--2-2-2--5-5-5-5-5-5-5-5-|
E|-0-0--4--2--2-2-2---0-0--4--5--5-5-5-|-0-0--4--2--2-2-2--5-5-5-5-5-5-5-5-|

Bridge
 |Guitar 1
E|---------------------------------------------------------------------|
B|---------------------------------------------------------------------|
G|---------------------------------------------------------------------|
D|--0---0---0---5---5---5---5~----0---0---0--0--0----------5~-------5~-|
A|--0---0---0---5---5---5---5~----0---0---0--0--0-----5-5--5~--5-5--5~-|
E|--0---0---0---5---5---5---5~----0---0---0--0--0-----5-5--5~--5-5--5~-|
PM  *   *   *   *   *   *         *   *   *  *  *     * *      * *    
 |Guitar 2
E|---------------------------------------------------------------------|
B|---------------------------------------------------------------------|
G|---------------------------------------------------------------------|
D|-2p0-4p0-2p0-4p0-2p0-4p0-2p0-4p0-2p0-4p0-2p0-4p0-2p0-4p0-2p0-4p0-----|
A|---------------------------------------------------------------------|
E|---------------------------------------------------------------------|

 |Guitar 1
E|--------------------------------|--------------------------------|
B|--------------------------------|--------------------------------|
G|--------------------------------|--------------------------------|
D|-0--0--0--0-0--------5~------5~-|-0--0--0--0-0--------5~------5~-|
A|-0--0--0--0-0----5-5-5~--5-5-5~-|-0--0--0--0-0----5-5-5~--5-5-5~-|
E|-0--0--0--0-0----5-5-5~--5-5-5~-|-0--0--0--0-0----5-5-5~--5-5-5~-|
PM *  *  *  * *    * *     * *      *  *  *  * *    * *     * *
 |Guitar 2
E|-----------------------------------------------------------------|
B|-----------------------------------------------------------------|
G|-----------------------------------------------------------------|
D|-2p0-4p0-2p0-4p0-2p0-4p0-2p0-4p0-2p0-4p0-2p0-4p0-2p0-4p0-2p0-4p0-|
A|-----------------------------------------------------------------|
E|-----------------------------------------------------------------|

 |Guitar 1
E|--------------------------------|--------------------------------|
B|--------------------------------|--------------------------------|
G|--------------------------------|--------------------------------|
D|-0--0--0--0-0--------5~------5~-|-0--0--0--0-0--------5~------5~-|
A|-0--0--0--0-0----5-5-5~--5-5-5~-|-0--0--0--0-0----5-5-5~--5-5-5~-|
E|-0--0--0--0-0----5-5-5~--5-5-5~-|-0--0--0--0-0----5-5-5~--5-5-5~-|
PM *  *  *  * *    * *     * *      *  *  *  * *    * *     * *
 |Guitar 2
E|-----------------------------------------------------------------|
B|-----------------------------------------------------------------|
G|-----------------------------------------------------------------|
D|-2p0-4p0-2p0-4p0-2p0-4p0-2p0-4p0-2p0-4p0-2p0-4p0-2p0-4p0-2p0-4p0-|
A|-----------------------------------------------------------------|
E|-----------------------------------------------------------------|

Outro
 |Guitar 1
E|-------------------------------------|-------------------------------|
B|-------------------------------------|-------------------------------|
G|-------------------------------------|-------------------------------|
D|-0-0--4--2--2-2-2---0-0--4--5--5-5-5-|-0-0--4--2--2-2-2---5--4--2-0~-|
A|-0-0--4--2--2-2-2---0-0--4--5--5-5-5-|-0-0--4--2--2-2-2---5--4--2-0~-|
E|-0-0--4--2--2-2-2---0-0--4--5--5-5-5-|-0-0--4--2--2-2-2---5--4--2-0~-|
 |Guitar 2
E|-------------------------------------|-------------------------------|
B|------7--5--5-5-5--------7--5--5-5-5-|------7--5--5-5-5---8--7--5----|
G|-7-7--x--x--x-x-x---7-7--x--x--x-x-x-|-7-7--x--x--x-x-x---x--x--x-7~-|
D|-x-x--4--2--2-2-2---x-x--4--2--2-2-2-|-x-x--4--2--2-2-2---5--4--2-x~-|
A|-5-5----------------5-5--------------|-5-5------------------------5~-|
E|-------------------------------------|-------------------------------|

 |Guitar 1
E|-------------------------------------|-------------------------------|
B|-------------------------------------|-------------------------------|
G|-------------------------------------|-------------------------7~~~~-|
D|-0-0--4--2--2-2-2---0-0--4--5--5-5-5-|-0-0--4--2--2-2-2---5#---7~~~~-|
A|-0-0--4--2--2-2-2---0-0--4--5--5-5-5-|-0-0--4--2--2-2-2---5#---5~~~~-|
E|-0-0--4--2--2-2-2---0-0--4--5--5-5-5-|-0-0--4--2--2-2-2---5#---------|
 |Guitar 2
E|-------------------------------------|-------------------------------|
B|------7--5--5-5-5--------7--5--5-5-5-|------7--5--5-5-5---8#---------|
G|-7-7--x--x--x-x-x---7-7--x--x--x-x-x-|-7-7--x--x--x-x-x---x#---------|
D|-x-x--4--2--2-2-2---x-x--4--2--2-2-2-|-x-x--4--2--2-2-2---5#---------|
A|-5-5----------------5-5--------------|-5-5---------------------------|
E|-------------------------------------|-------------------------------|

Order

Intro
Verse
Chorus
Pre-Verse 2
Verse 2
Pre-chorus 2
Chorus 2
Bridge
Chorus 2
Outro






Fallout Boy: Get Busy Living Or Get Busy Dying
Track: 11
Tuning: Standard
Notes: this looks weird when I tab it cause im tabbing major chords on a tabbing
template-it looks clumpy and generally horrible but there is no way around it so
that’s what I will do, if you cant understand it for any reason just leave a comment
or email and I will try and tab it out better. 

Verse
 |Guitar 1 only
E|---0000--------------------|---0000--------------------|
B|---0000-11111-00000--------|---0000-11111-00000--------|
G|---1111-00000-00000-00000--|---1111-00000-00000-00000--|
D|-2-2222-22222-11111-22222--|-2-2222-22222-11111-22222--|
A|-2-2222-00000-22222-22222--|-2-2222-00000-22222-22222--|
E|-0-0000-------------00000--|-0-0000-------------00000--|

Verse part 2
 |Guitar 2 only
E|-----------------------------------------|---------------------------------------|
B|-----------------------------------------|---------------------------------------|
G|-4-4444---------------4444---------------|-4444---------------4444---------------|
D|-4-4444-5555-22222222-4444-5555-22222222-|-4444-5555-22222222-4444-5555-22222222-|
A|-2-2222-5555-22222222-2222-5555-22222222-|-2222-5555-22222222-2222-5555-22222222-|
E|--------3333-00000000------3333-00000000-|------3333-00000000------3333-00000000-|
PM   **** **** ******** **** **** ********   **** **** ******** **** **** ********

Pre Chorus 
 |Guitar 1
E|----------------------|
B|-1-11111--0-xx-0-xx-0-|
G|-0-00000--0-xx-0-xx-0-|
D|-2-22222--1-xx-1-xx-1-|
A|-3-33333--2-xx-2-xx-2-|
E|----------------------|
 |Guitar 2
E|------------xx---xx---|
B|------------xx---xx---|
G|------------xx---xx---|
D|------------xx---xx---|
A|------------xx---xx---|
E|------------xx---xx---|

Chorus
 |Guitar 1
E|-----------3-33333---22222222-22-222222-|-----------3-33333---22222222-00-000000-|
B|-1-11111-x-0-00000-x-33333333-33-333333-|-1-11111-x-0-00000-x-33333333-00-000000-|
G|-0-00000-x-0-00000-x-44444444-44-444444-|-0-00000-x-0-00000-x-44444444-11-111111-|
D|-2-22222-x-0-00000-x-44444444-44-444444-|-2-22222-x-0-00000-x-44444444-22-222222-|
A|-3-33333-x-2-22222-x-22222222-22-222222-|-3-33333-x-2-22222-x-22222222-22-222222-|
E|-----------3-33333----------------------|-------------33333------------00-000000-|
 |Guitar 2
E|----------------------------------------|----------------------------------------|
B|----------------------------------------|----------------------------------------|
G|-5-55555-x------------------------------|-5-55555-x------------------------------|
D|-5-55555-x-5-55555-x-99999999-99-999999-|-5-55555-x-5-55555-x-99999999-22-222222-|
A|-3-33333-x-5-55555-x-99999999-99-999999-|-3-33333-x-5-55555-x-99999999-22-222222-|
E|-----------3-33333-x-77777777-77-777777-|-----------3-33333-x-77777777-00-000000-|

 |Guitar 1
E|----------------------|
B|-1-11111--0-xx-0-xx-0-|
G|-0-00000--0-xx-0-xx-0-|
D|-2-22222--1-xx-1-xx-1-|
A|-3-33333--2-xx-2-xx-2-|
E|----------------------|
 |Guitar 2
E|------------xx---xx---|
B|------------xx---xx---|
G|------------xx---xx---|
D|------------xx---xx---|
A|------------xx---xx---|
E|------------xx---xx---|

Post chorus
 |Guitar 2 only
E|---------------------------------|
B|---------------------------------|
G|-4444------5555------4444------5-|
D|-4444-5555-5555-5555-4444-5555-5-|
A|-2222-5555-3333-5555-2222-5555-3-|
E|------3333------3333------3333---|
PM **** **** **** **** **** **** *

Bridge
 |Guitar 1
E|---------------------------------------------------------------------------------|
B|---------------------------------------------------------------------------------|
G|---------------------------------------------------77-55555555-44444444-9999999--|
D|------------------------------------------22222222-77-55555555-44444444-xxxxxxx--|
A|------------------------------------------22222222-55-33333333-22222222-7777777--|
E|------------------------------------------00000000-------------------------------|
PM                                          ******** ** **            
 |Guitar 2
E|----------------------------------------|----------------------------------------|
B|----------------------------------------|----------------------------------------|
G|----------77-55555555-44444444----------|----------77-55555555-44444444----------|
D|-22222222-77-55555555-44444444-22222222-|-22222222-77-55555555-44444444-22222222-|
A|-22222222-55-33333333-22222222-22222222-|-22222222-55-33333333-22222222-22222222-|
E|-00000000----------------------00000000-|-00000000----------------------00000000-|
PM ******** ** ******** ******** ********   ******** ** ******** ******** ********


 |Guitar 1
E|---------------------------------------------------------------------------------|
B|---------------------------------------------------------------------------------|
G|------------------------------------------9-9-9-9--14-16161616-15151515-9~~~~~~~-|
D|------------------------------------------x-x-x-x---x--x-x-x-x--x-x-x-x-x--------|
A|------------------------------------------7-7-7-7--12-14141414-13131313-7~~~~~~~-|
E|---------------------------------------------------------------------------------|
 |Guitar 2
E|----------------------------------------|----------------------------------------|
B|----------------------------------------|----------------------------------------|
G|----------77-55555555-44444444----------|----------77-55555555-44444444----------|
D|-22222222-77-55555555-44444444-22222222-|-22222222-77-55555555-44444444-22-2-2-2-|
A|-22222222-55-33333333-22222222-22222222-|-22222222-55-33333333-22222222-22-2-2-2-|
E|-00000000----------------------00000000-|-00000000----------------------00-0-0-0-|
PM ******** ** ******** ******** ********   ******** ** ******** ******** ** * * *

Bridge part 2
 |Guitar 2 only
E|----------------------------------------|----------------------------------|
B|----------------------------------------|----------------------------------|
G|----------77-55555555-44444444----------|----------77-55555555-44444444----|
D|-22222222-77-55555555-44444444-22-2-2-2-|-22222222-77-55555555-44444444-22-|
A|-22222222-55-33333333-22222222-22-2-2-2-|-22222222-55-33333333-22222222-22-|
E|-00000000----------------------00-0-0-0-|-00000000----------------------00-|
PM                               ** * * *                                 **

End Chorus
 |Guitar 1
E|----------------------------------------|----------------------------------------|
B|---1----1-------------0-----------------|---1----1-------------0-----------------|
G|--0---0----------0-2-4-----4--4-4-4-4-4-|--0---0----------0-2-4-----4--4-4-4-4-4-|
D|-4---4-----0-2-4--------34--34-3-3-3-3--|-4---4-----0-2-4--------34--34-3-3-3-3--|
A|---------4------------------------------|---------4------------------------------|
E|----------------------------------------|----------------------------------------|
 |Guitar 2
E|----------------------------------------|----------------------------------------|
B|----------------------------------------|----------------------------------------|
G|-5-55555-x------------------------------|-5-55555-x------------------------------|
D|-5-55555-x-5-55555-x-99999999-99-999999-|-5-55555-x-5-55555-x-99999999-22-222222-|
A|-3-33333-x-5-55555-x-99999999-99-999999-|-3-33333-x-5-55555-x-99999999-22-222222-|
E|-----------3-33333-x-77777777-77-777777-|-----------3-33333-x-77777777-00-000000-|

Outro
 |Guitar 1
E|-----------------------------------|
B|---1---1-----0-xx-0-xx-0-xx-0-xx-0-|
G|--0---0---0--0-xx-0-xx-0-xx-0-xx-0-|
D|-4---4---4---1-xx-1-xx-1-xx-1-xx-1-|
A|-------------2-xx-2-xx-2-xx-2-xx-2-|
E|-----------------------------------|
 |Guitar 2
E|---------------xx---xx---xx---xx---|
B|---------------xx---xx---xx---xx---|
G|-5-5-5-5-5-5---xx---xx---xx---xx---|
D|-5-5-5-5-5-5---xx---xx---xx---xx---|
A|-3-3-3-3-3-3---xx---xx---xx---xx---|
E|---------------xx---xx---xx---xx---|

Order

Verse
Verse part 2
Pre-Chorus
Chorus
Post-Chorus
Verse
Verse part 2
Pre-Chorus
Chorus
Bridge
Bridge part 2
End Chorus
Outro







Fallout Boy: XO
Track: 13
Tuning: Standard
Notes: 


Intro
 |Guitar 1
E|------------------------------------------------------|
B|------------------------------------------------------|
G|------------------------------------------------------|
D|-4444444444444444444444444444444444-------------------|
A|-2222222222222222222222222222222222-55555555-22222222-|
E|------------------------------------33333333-00000000-|
 |Guitar 2
E|------------------------------------------------------|
B|------------------------------------------------------|
G|------------------------------------------------------|
D|------------------------------------------------------|
A|-2222222222222222222222222222222222-------------------|
E|------------------------------------33333333-00000000-|

 |Guitar 1
E|--------------------------------------------------------------|
B|--------------------------------------------------------------|
G|--------------------------------------------------------------|
D|-444444444444444444444444444444444444444444-------------------|
A|-222222222222222222222222222222222222222222-55555555-22222222-|
E|--------------------------------------------33333333-00000000-|
 |Guitar 2
E|--------------------------------------------------------------|
B|--------------------------------------------------------------|
G|--------------------------------------------------------------|
D|--------------------------------------------------------------|
A|-222222222222222222222222222222222222222222-------------------|
E|--------------------------------------------33333333-00000000-|

 |Guitar 1
E|---------------------------------------------------|
B|---------------------------------------------------|
G|---------------------------------44444444-44444444-|
D|-444444444444--------------------44444444-44444444-|
A|-222222222222--55555555-22222222-22222222-22222222-|
E|---------------33333333-00000000-------------------|
 |Guitar 2
E|---------------------------------------------------|
B|---------------------------------------------------|
G|---------------------------------------------------|
D|---------------------------------------------------|
A|-222222222222--------------------22222222-22222222-|
E|---------------33333333-00000000-------------------|

Pre-Chorus
 |Guitar 1
E|--------------------------------------------------------|
B|--------------------------------------------------------|
G|-4444444444-------------4-4-6-6-7-7-9--9--4444----------|
D|-4444444444-4444444444--4-4-6-6-7-7-9--9--4444-44444444-|
A|-2222222222-4444444444--2-2-4-4-5-5-7--7--2222-44444444-|
E|------------2222222222-------------------------22222222-|
 |Guitar 2
E|--------------------------------------------------------|
B|-6666666666-------------4-4-6-6-7-7-1111----------------|
G|-xxxxxxxxxx-9999999999--x-x-x-x-x-x--x-x--6666----------|
D|-4444444444-xxxxxxxxxx--2-2-4-4-5-7--9-9--xxxx-88888888-|
A|------------7777777777--------------------4444-xxxxxxxx-|
E|-----------------------------------------------66666666-|

 |Guitar 1
E|--------------------------------------------------------|
B|--------------------------------------------------------|
G|-4444444444-------------4-4-6-6-7-7-9--9--4444----------|
D|-4444444444-4444444444--4-4-6-6-7-7-9--9--4444-44444444-|
A|-2222222222-4444444444--2-2-4-4-5-5-7--7--2222-44444444-|
E|------------2222222222-------------------------22222222-|
 |Guitar 2
E|--------------------------------------------------------|
B|-6666666666-------------4-4-6-6-7-7-1111----------------|
G|-xxxxxxxxxx-9999999999--x-x-x-x-x-x--x-x--6666----------|
D|-4444444444-xxxxxxxxxx--2-2-4-4-5-7--9-9--xxxx-88888888-|
A|------------7777777777--------------------4444-xxxxxxxx-|
E|-----------------------------------------------66666666-|

Chorus
 |Guitar 1
E|-------------------|--------------------------------------------------------|
B|-------------------|--------------------------------------------------------|
G|-44444444----------|-4444444444--7-7-7-7-7-7-7-7-7-7-------------4444444444-|
D|-44444444-44444444-|-4444444444--7-7-7-7-7-7-7-7-7-7--5555555555-4444444444-|
A|-22222222-44444444-|-2222222222--5-5-5-5-5-5-5-5-5-5--5555555555-2222222222-|
E|----------22222222-|----------------------------------3333333333------------|
 |Guitar 2
E|-------------------|--------------------------------------------------------|
B|-------------------|-7777777777-10101010101010101010--8888888888-7777777777-|
G|-77777777-66666666-|-xxxxxxxxxx--x-x-x-x-x-x-x-x-x-x--xxxxxxxxxx-xxxxxxxxxx-|
D|-xxxxxxxx-xxxxxxxx-|-4444444444--7-7-7-7-7-7-7-7-7-7--5555555555-4444444444-|
A|-55555555-44444444-|--------------------------------------------------------|
E|-------------------|--------------------------------------------------------|

 |Guitar 1
E|--------------------------------------------------------|
B|--------------------------------------------------------|
G|-4444444444--7-7-7-7-7-7-7-7-7-7-------------4444444444-|
D|-4444444444--7-7-7-7-7-7-7-7-7-7--5555555555-4444444444-|
A|-2222222222--5-5-5-5-5-5-5-5-5-5--5555555555-2222222222-|
E|----------------------------------3333333333------------|
 |Guitar 2
E|--------------------------------------------------------|
B|-7777777777-10101010101010101010--8888888888-7777777777-|
G|-xxxxxxxxxx--x-x-x-x-x-x-x-x-x-x--xxxxxxxxxx-xxxxxxxxxx-|
D|-4444444444--7-7-7-7-7-7-7-7-7-7--5555555555-4444444444-|
A|--------------------------------------------------------|
E|--------------------------------------------------------|

 |Guitar 1
E|--------------------------------------------------------|
B|--------------------------------------------------------|
G|-4----4---4--7-7-7-7-7-7-7-7-7-7-------------4444444444-|
D|-4-44-4-4-4--7-7-7-7-7-7-7-7-7-7--5555555555-4444444444-|
A|-2-22-2-2-2--5-5-5-5-5-5-5-5-5-5--5555555555-2222222222-|
E|----------------------------------3333333333------------|
PM   **   *
 |Guitar 2
E|--------------------------------------------------------|
B|------------10101010101010101010--8888888888-7777777777-|
G|-------------x-x-x-x-x-x-x-x-x-x--xxxxxxxxxx-xxxxxxxxxx-|
D|-------------7-7-7-7-7-7-7-7-7-7--5555555555-4444444444-|
A|--------------------------------------------------------|
E|--------------------------------------------------------|

 |Guitar 1
E|--------------------------------------------------------|
B|--------------------------------------------------------|
G|-4444444444--7-7-7-7-7-7-7-7-7-7-------------4444444444-|
D|-4444444444--7-7-7-7-7-7-7-7-7-7--5555555555-4444444444-|
A|-2222222222--5-5-5-5-5-5-5-5-5-5--5555555555-2222222222-|
E|----------------------------------3333333333------------|
 |Guitar 2
E|--------------------------------------------------------|
B|-7777777777-10101010101010101010--8888888888-7777777777-|
G|-xxxxxxxxxx--x-x-x-x-x-x-x-x-x-x--xxxxxxxxxx-xxxxxxxxxx-|
D|-4444444444--7-7-7-7-7-7-7-7-7-7--5555555555-4444444444-|
A|--------------------------------------------------------|
E|--------------------------------------------------------|

Verse 2
 |Guitar 1
E|---------------------------------------------------------------|
B|---------------------------------------------------------------|
G|---------------------------------------------------------------|
D|-4444444444444444-44444444444444444-------------------44444444-|
A|-2222222222222222-22222222222222222-55555555-22222222-22222222-|
E|------------------------------------33333333-00000000----------|
PM **************** ***************** ******** ******** ********
 |Guitar 2
E|---------------------------------------------------------------|
B|---------------------------------------------------------------|
G|---------------------------------------------------------------|
D|---------------------------------------------------------------|
A|-2222222222222222222222222222222222-------------------22222222-|
E|------------------------------------33333333-00000000----------|

 |Guitar 1
E|--------------------------------------------------------------------|
B|--------------------------------------------------------------------|
G|------------------------------------------------------------------4-|
D|-4444444444444444-44444444444444444-------------------44444444-xx-4-|
A|-2222222222222222-22222222222222222-55555555-22222222-22222222-xx-2-|
E|------------------------------------33333333-00000000---------------|
PM **************** ***************** ******** ******** ********
 |Guitar 2
E|---------------------------------------------------------------|
B|---------------------------------------------------------------|
G|---------------------------------------------------------------|
D|---------------------------------------------------------------|
A|-2222222222222222222222222222222222-------------------22222222-|
E|------------------------------------33333333-00000000----------|

Bridge
 |Guitar 1
E|-----------------------------------------------------|
B|-----------------------------------------------------|
G|-4444444444-4444444444-------------------------------|
D|-4444444444-4444444444-4444444444--44444444-44444444-|
A|-2222222222-2222222222-4444444444--44444444-44444444-|
E|-----------------------2222222222--22222222-22222222-|
PM                                   ******** ****
 |Guitar 2
E|-----------------------------------------------------|
B|-----------------------------------------------------|
G|-7777777777-7777777777-6666666666--66666666-66666666-|
D|-xxxxxxxxxx-xxxxxxxxxx-xxxxxxxxxx--xxxxxxxx-xxxxxxxx-|
A|-5555555555-5555555555-4444444444--44444444-44444444-|
E|-----------------------------------------------------|

Outro
 |Guitar 1
E|-----------------------------------------------------------------------------------|
B|-----------------------------------------------------------------------------------|
G|4444444444444444--7-7-7-7-7-7-7-7-7-7-7-7-7-7-7-7-------------------444444444444444|
D|4444444444444444--7-7-7-7-7-7-7-7-7-7-7-7-7-7-7-7--5555555555555555-444444444444444|
A|2222222222222222--5-5-5-5-5-5-5-5-5-5-5-5-5-5-5-5--5555555555555555-222222222222222|
E|---------------------------------------------------3333333333333333----------------|
 |Guitar 2
E|-----------------------------------------------------------------------------------|
B|7777777777777777-10101010101010101010101010101010--8888888888888888-777777777777777|
G|xxxxxxxxxxxxxxxx--x-x-x-x-x-x-x-x-x-x-x-x-x-x-x-x--xxxxxxxxxxxxxxxx-xxxxxxxxxxxxxxx|
D|4444444444444444--7-7-7-7-7-7-7-7-7-7-7-7-7-7-7-7--5555555555555555-444444444444444|
A|-----------------------------------------------------------------------------------|
E|-----------------------------------------------------------------------------------|

 |Guitar 1
E|-----------------------------------------------------------------------------------|
B|-----------------------------------------------------------------------------------|
G|4444444444444444--7-7-7-7-7-7-7-7-7-7-7-7-7-7-7-7-------------------444444444444444|
D|4444444444444444--7-7-7-7-7-7-7-7-7-7-7-7-7-7-7-7--5555555555555555-444444444444444|
A|2222222222222222--5-5-5-5-5-5-5-5-5-5-5-5-5-5-5-5--5555555555555555-222222222222222|
E|---------------------------------------------------3333333333333333----------------|
 |Guitar 2
E|-----------------------------------------------------------------------------------|
B|7777777777777777-10101010101010101010101010101010--8888888888888888-777777777777777|
G|xxxxxxxxxxxxxxxx--x-x-x-x-x-x-x-x-x-x-x-x-x-x-x-x--xxxxxxxxxxxxxxxx-xxxxxxxxxxxxxxx|
D|4444444444444444--7-7-7-7-7-7-7-7-7-7-7-7-7-7-7-7--5555555555555555-444444444444444|
A|-----------------------------------------------------------------------------------|
E|-----------------------------------------------------------------------------------|

 |Guitar 1
E|---------------------------------------------------|
B|---------------------------------------------------|
G|4444444444444444--7-7-7-7-7-7-7-7-7-7-7-7-7-7-7-7--|
D|4444444444444444--7-7-7-7-7-7-7-7-7-7-7-7-7-7-7-7--|
A|2222222222222222--5-5-5-5-5-5-5-5-5-5-5-5-5-5-5-5--|
E|---------------------------------------------------|
 |Guitar 2
E|---------------------------------------------------|
B|7777777777777777-10101010101010101010101010101010--|
G|xxxxxxxxxxxxxxxx--x-x-x-x-x-x-x-x-x-x-x-x-x-x-x-x--|
D|4444444444444444--7-7-7-7-7-7-7-7-7-7-7-7-7-7-7-7--|
A|---------------------------------------------------|
E|---------------------------------------------------|

 |Guitar 1
E|---------------------------------------------------------|
B|---------------------------------------------------------|
G|4444444444444444--7-7-7-7-7-7-7-7-7-7-7-7-7-7-7-7--------|
D|4444444444444444--7-7-7-7-7-7-7-7-7-7-7-7-7-7-7-7--5~~~~-|
A|2222222222222222--5-5-5-5-5-5-5-5-5-5-5-5-5-5-5-5--5~~~~-|
E|---------------------------------------------------3~~~~-|
 |Guitar 2
E|---------------------------------------------------------|
B|7777777777777777-10101010101010101010101010101010--------|
G|xxxxxxxxxxxxxxxx--x-x-x-x-x-x-x-x-x-x-x-x-x-x-x-x--------|
D|4444444444444444--7-7-7-7-7-7-7-7-7-7-7-7-7-7-7-7--------|
A|---------------------------------------------------------|
E|---------------------------------------------------------|

Order

Intro
Pre-Chorus
Chorus
Verse 2
Pre Chorus
Chorus
Bridge
Outro






And that’s it, From under the Cork Tree guitar tab album complete, questions,
corrections and general comments are not only welcome they are encouraged!
Please rate this also, thanks guys
comments
print report bad tab
4 comments total. Showing first comments.
-1 reply
SPFan wrote on April 6 2006, 12:34 pm

its not good

0 reply
boyan89 wrote on April 6 2006, 03:43 pm

guys give the guy some slack it probably took him like like 6 hours to make this

0 reply
julioman wrote on June 4 2006, 04:18 pm

i thought most of it was pretty good, but like boyan89 said, give him some slack. these tabs arent that bad, and at least he didnt just copy and paste the best ones.

I want to post or [tab]
guest
You may want to rate the tab now too:
select rating
Please do not post tabs as comments. Select "correction" instead!