Oops, an error
Loading. Please wait.

Infinity On High Tab

ver1
ver1

Album

Interactive

More versions @911Tabs.com
44,385 views 36 this week
22 commentsread comments
1 2 3 4 5
accurate
x 31
Autoscroll
+/-
esc
set tempo
stop
Contributor
NEW! There's an official Ultimate Guitar app which is ideal
for learning songs when you're away from computer. Get the app
WARNING: You are trying to view
                                    content from Ultimate-Guitar.com
                                    in an unauthorized application,
                                    which is prohibited.

                                    Please use an official Ultimate
                                    Guitar Tabs application for iPhone,
                                    iPad or Android to access legitimate
                                    chords, guitar, bass, and drum tabs
                                    from Ultimate-Guitar.com database.

                                    Type "ultimate guitar tabs" in Apple
                                    App Store's or Android Market's
                                    search to find the application.
Artist: Fall Out Boy
Album: Infinity On High
Tabbed By: wcft01@hotmail.com

If you happen to find any mistakes in this tab (including minor issues)
Please email me at wcft01@hotmail.com 


~ = Vibrato
/ = Slide Up
\ = Slide Down
\\= Slide Out Downwards
. = Palm Mute
x = Dead Note (Mute)
> = Let Ring
h = Hammer On
p = Pull-off


CONTENTS>>>

1.Thriller
2.The Take Over, The Break's Over
3.This Ain't A Scene, It's An Arms Race
4.I'm Like A Lawyer With The Way I'm Always Trying To Get You Off (Me & You)
5.Hum Hallelujah
6.Golden
7.Thnks Fr Th Mmrs
8.Don't You Know Who I Think I Am?
9.The (After) Life Of The Party
10.The Carpal Tunnel Of Love
11.Bang The Doldrums
12.Fame < Infamy
13.You're Crashing, But You're No Wave
14.I've Got All This Ringing In My Ears And None On My Fingers



////////////////////////////////////////////////////////////////////////



TRACK 1: Thriller 


(Drop D Tuning - DADGBE)


Intro

Guitar 1
E-----0-----------0-------------0-------------0------------0-----------0-|
B--10----10-10-10----10-10--10----10--10--10-------10-10-10----10-10-10--|
G-7--7-----7--7--7-----7---6---6-----6---6---6----6--0--0-----0--0--0----|
D------------------------------------------------------------------------|
A------------------------------------------------------------------------|
D------------------------------------------------------------------------|

E------------0--------------0---------|
B-10-10--10-----10--10--10-----10--10-|  x2
G---0---------------------------------|
D-------7---7------7---7---7------7---|
A-------------------------------------|
D-------------------------------------|

Guitar 2
E----------------------------|
B----------------------------|
G----------------------------|
D---12>----11>---------------|
A-12--------------10>----12>-|
D----------------------------|


continued...


Guitar 1
E------------------------------------------------------|
B-----121212-------------------------------------------|   x2
G-777-x-x-x--14-14\1111-9--777-121212-1111111111111111-|
D-xxx-9-9-9--x--x--x-x--x--xxx-x-x-x--x-x-x-x-x-x-x-x--|
A-555--------12-12\9-9--7--555-101010-9-9-9-9-9-9-9-9--|
D------------------------------------------------------|

Guitar 2
E----------------------------|
B----------------------------|   x4
G----------------------------|
D-00000--0-0-0-0--0-0--00000-|
A-00000--0-0-0-0--0-0--00000-|
D-00000--0-0-0-0--0-0--00000-|


Verse 1

Guitar 1 (playing Intro Riff)

Guitar 2
E---------------------------------------------------------------------|
B---------------------------------------------------------------------|   
G---------------------------------------------------------------------|
D-0>------------------------------------------------------------------|
A-0>----55-555-5/10>-\9>--\7>--\5>---/10-10-1010101010101010-77777777-|
D-0>------------------------------------------------------------------|


Bridge

Guitar 1
E--------------------------------------------------------------------|
B--------------------------------------------------------------------|
G-4-6-7777777-12-12^12^12-1212121212121212-1111111111111111-77777777-|
D-x-x-xxxxxxx-x--x--x--x--x-x-x-x-x-x-x-x--x-x-x-x-x-x-x-x--xxxxxxxx-|
A-2-4-5555555-10-10-10-10-1010101010101010-1010101010101010-55555555-|
D--------------------------------------------------------------------|

E-----------------------------------------------------------------|
B-----------------------------------------------------------------|
G-7777-1112-14-77777777-77777777-7777-14-12-7777-1414141414141414-|
D-xxxx-x-x--x--xxxxxxxx-xxxxxxxx-xxxx-x--x--xxxx-x-x-x-x-x-x-x-x--|
A-5555-9-10-12-55555555-55555555-5555-12-10-5555-1212121212121212-|
D-----------------------------------------------------------------|

E------------------------------------------------------|
B------------------------------------------------------|
G-1212121212121212-77777777-77777777-77777777-77777777-|
D-x-x-x-x-x-x-x-x--xxxxxxxx-xxxxxxxx-xxxxxxxx-xxxxxxxx-|
A-1010101010101010-55555555-55555555-55555555-55555555-|
D------------------------------------------------------|

Guitar 2
E-----------------------------------------|
B-----------------------------------------|
G-2-4-44444444-22222222-------------------|
D-2-4-44444444-22222222-55555555-00000000-|
A-0-2-22222222-00000000-55555555-00000000-|
D-----------------------55555555-00000000-|

E-------------------------------------|
B-------------------------------------|
G-------------------------------------|
D-55555555-00000000-55555555-77777777-|
A-55555555-00000000-55555555-77777777-|
D-55555555-00000000-55555555-77777777-|

E-------------------------------------|
B-------------------------------------|
G-44444444-22222222-------------------|
D-44444444-22222222-55555555-00000000-|
A-22222222-00000000-55555555-00000000-|
D-------------------55555555-00000000-|

E----------------------|
B----------------------|
G-7\-------------------|
D-7\-------------------|
A-5\-------------------|
D----------------------|

                      
Chorus

Guitar 1
E------------------|
B------------------|
G------------------|
D------------------|
A-<<PICKSLIDE>>----|
D------------------|

E-------------------------------------|
B-------------------------------------|
G----------44444444-------------------|
D-00000000-44444444-44444444-77777777-|
A-00000000-22222222-44444444-77777777-|
D-00000000----------44444444-77777777-|
                                           x2
                   ..     ..      ..                                              
E---------------------------------------|
B---------------------------------------|
G---------------------------------------|
D-5555555/99999999-77-7-7-77-7-77-77-77-|
A-5555555/99999999-77-7-7-77-7-77-77-77-|
D-5555555/99999999-77-7-7-77-7-77-77-77-|
                   ..     ..      ..

Guitar 2
E-------------|
B-10-10-10-10-| <<Repeat throughout chorus
G-x--x--x--x--|
D-7--7--7--7--|
A-------------|
D-------------|


Post Chorus

E----------------------------|
B----------------------------|   x4
G----------------------------|
D-00000--0-0-0-0--0-0--00000-|
A-00000--0-0-0-0--0-0--00000-|
D-00000--0-0-0-0--0-0--00000-|


Verse 2

Guitar 1 (playing Intro Riff)

Guitar 2 
                       . .  . .  . .  . .  . .  . .  . .  . .  
E-------------------------------------------------------------|
B-------------------------------------------------------------|
G-------------------------------------------------------------|
D-0>-------------------0-0--0-0--0-0--0-0--0-0--0-0--0-0--0-0-|
A-0>-------------------0-0--0-0--0-0--0-0--0-0--0-0--0-0--0-0-|
D-0>-------------------0-0--0-0--0-0--0-0--0-0--0-0--0-0--0-0-|
                       . .  . .  . .  . .  . .  . .  . .  . .


<<REPEAT BRIDGE + CHORUS>>


Outro
E------------------------------------|
B------------------------------------|
G------------------------------------|
D-0>------------0>-------------------|
A-0>------------0>-------------------|
E-0>------------0>-------------------|

E-----0-----------0-------------0-------------0------------0-----------0-|
B--10----10-10-10----10-10--10----10--10--10-------10-10-10----10-10-10--|
G-7--7-----7--7--7-----7--11--11----11--11--11---11--0--0-----0--0--0----|
D------------------------------------------------------------------------|
A------------------------------------------------------------------------|
D------------------------------------------------------------------------|

E------------0--------------0---------|
B-10-10--10-----10--10--10-----10--10-|
G---0--11--11-----11--11--11-----11---|
D-------------------------------------|
A-------------------------------------|
D-------------------------------------|

E----------------------------|
B----------------------------|   x4
G----------------------------|
D-00000--0-0-0-0--0-0--00000-|
A-00000--0-0-0-0--0-0--00000-|
D-00000--0-0-0-0--0-0--00000-|



////////////////////////////////////////////////////////////////////////



TRACK 2: The Take Over, The Break's Over 


(Standard Tunning - EADGBE)


Intro / Verse 1

Guitar 1
E|-----------------------------------------------------|
B|-----------------------------------------------------|
G|---4----4---4-----4---------4----4---4-----4-----5---| x8
D|-----------------------5-------------------------5---|
A|-4----4---4------------5----------------22---22--3---|
E|----------------44--44-3--2----2---2-----------------|

Guitar 2
   ....... ....... ....... ........
E|----------------------------------|
B|----------------------------------|    x2
G|-6666666-----------------44444444-|
D|-6666666-6666666-4444444-44444444-|
A|-4444444-6666666-4444444-22222222-|
E|---------4444444-2222222----------|
   ....... ....... ....... ........

Chorus 1
E|-----------------------------------------------|
B|-----------------------------------------------|
G|------444--------666-4------444--------666-4-4-| 
D|-7777-444-7-6666-666-4-7777-444-7-6666-666-4-4-|
A|-7777-222-7-6666-444-2-7777-222-7-6666-444-2-2-|
E|-5555-----5-4444-------5555-----5-4444---------|


Verse 2

Guitar 1
E|-----------------------------------------------------|
B|-----------------------------------------------------|
G|---4----4---4-----4---------4----4---4-----4-----5---| x8
D|-----------------------5-------------------------5---|
A|-4----4---4------------5----------------22---22--3---|
E|----------------44--44-3--2----2---2-----------------|

Guitar 2
E|-----------------|
B|-----------------|
G|-----------------| x4
D|---------5-5-5---|
A|-7-7-7-7-------6-|
E|-----------------|

   ....... ....... ....... ........
E|----------------------------------|
B|----------------------------------|    x2
G|-6666666-----------------44444444-|
D|-6666666-6666666-4444444-44444444-|
A|-4444444-6666666-4444444-22222222-|
E|---------4444444-2222222----------|
   ....... ....... ....... ........


Chorus 2

Guitar 1
E|-----------------------------------------------|
B|-----------------------------------------------|
G|------444--------666-4------444--------666-4-4-| 
D|-7777-444-7-6666-666-4-7777-444-7-6666-666-4-4-|
A|-7777-222-7-6666-444-2-7777-222-7-6666-444-2-2-|
E|-5555-----5-4444-------5555-----5-4444---------|

Guitar 2
E|----------------------|
B|--12-12-10-10-9-9-7-7-|
G|----------------------| 
D|----------------------|
A|----------------------|
E|----------------------|


Bridge 
                                 .   .                                         
E|---------------------------------------|
B|---------------------------------------|
G|-9-99----4-44-------------6----4-4-4-4-|
D|-9-99----4-44--9-6--7-77--6----4-4-4-4-|
A|-7-77----2-22--9-6--7-77--4----2-2-2-2-|
E|---------------7-4--5-55---------------|
                                 .   .                                         
                                         .   .                                        
E|-----------------------------------------------|
B|-----------------------------------------------|
G|-9-99-99--4-44-44----------------6-----4-4-4-4-|
D|-9-99-99--4-44-44-9-6-7-77-77-7--6-----4-4-4-4-|
A|-7-77-77--2-22-22-9-6-7-77-77-7--4-----2-2-2-2-|
E|------------------7-4-5-55-55-5----------------|
                                         .   .                                        

Continued...


Guitar 1
E|-----------------------------------------------------|
B|-----------------------------------------------------|
G|---4----4---4-----4---------4----4---4-----4-----5---| 
D|-----------------------5-------------------------5---|
A|-4----4---4------------5----------------22---22--3---|
E|----------------44--44-3--2----2---2-----------------|

                                          ..........
E|-----------------------------------------------------|
B|-----------------------------------------------------|
G|---4----4---4-----4---------4----4---4---------------| 
D|-----------------------5-----------------------------|
A|-4----4---4------------5----------------2222222222---|
E|----------------44--44-3--2----2---2-----------------|
                                          ..........

E|---------------------------------|
B|---------------------------------|
G|---------4-4-4-4---------6-6-6-6-|    x4
D|-7-7-7-7-4-4-4-4-6-6-6-6-6-6-6-6-|
A|-7-7-7-7-2-2-2-2-6-6-6-6-4-4-4-4-|
E|-5-5-5-5---------4-4-4-4---------|


Guitar 2 (solo)

E|-----------------------------------------------------|
B|-----------------------------------------------------|
G|-----------------------------------------------------| 
D|-------4-7--6--4-6--9-7-6----------------4-7--6--4-6-|
A|-4-6-7--------------------6-7-4-2--4-6-7-------------|
E|-----------------------------------------------------|

E|--------------------------------------------------|
B|--------------------------------------------------|
G|--------------------------16----16-------16-------| 
D|-9-7-6--------11-9~----14----14----14\13----14^16-|
A|-------7-9-11-------------------------------------|
E|--------------------------------------------------|

E|--------------------------------------------------------|
B|--------------------------------------------------------|
G|----16----16-------16-----------16----16-------16-------| 
D|-14----14----14\13----14^18--14----14----14\13----14^18-|
A|--------------------------------------------------------|
E|--------------------------------------------------------|

E|------------------------------------|---------|
B|------------------------------------|---------|
G|------------------------------------|-4>------| 
D|-11\\--13\\--14\\---16--16-16-16-16-|-4>------|
A|------------------------------------|-2>------|
E|------------------------------------|---------|


Continued...(outro)


Guitar 1
E|------------------------------------------------|
B|------------------------------------------------|
G|-9-99-99-99-4-44-44-44--------------66-66-44-44-|   x4
D|-9-99-99-99-4-44-44-44-6-7-77-77-77-66-66-44-44-|
A|-7-77-77-77-2-22-22-22-6-7-77-77-77-44-44-22-22-|
E|-----------------------4-5-55-55-55-------------|

                                        ............ .   .
E|-----------------------------------------------------------|
B|-----------------------------------------------------------|
G|-9-99-99-99-4-44-44-44--------------66666666664444-4-4-4-4-|    
D|-9-99-99-99-4-44-44-44-6-7-77-77-77-66666666664444-4-4-4-4-|
A|-7-77-77-77-2-22-22-22-6-7-77-77-77-44444444442222-2-2-2-2-|
E|-----------------------4-5-55-55-55------------------------|
                                        ............ .   .

Guitar 2
E|-------------------------------------------|
B|-------------------------------------------|
G|-7>-------------11-13-13-14-14-13-11-------|
D|-7>----11-11-13----------------------13-11-|
A|-5>----------------------------------------|
E|-------------------------------------------|

E|------------------------------------|
B|----------------12-9~----7~----12~--|
G|--4>----6-7>------------------------|
D|--4>----6-7>------------------------|
A|--2>----4-5>------------------------|
E|------------------------------------|



////////////////////////////////////////////////////////////////////////



TRACK 3: This Ain't A Scene, It's An Arms Race 


(Standard Tunning - EADGBE)


Verse 1

Guitar 1

E|--------|
B|--5>----| >> toggle volume up (feedback noise)
G|--------|
D|--------|
A|--------|
E|--------|

E|-----------------------------------------------|
B|-----------------------------------------------|
G|-----------------------------------------------|
D|-10-12-14-12--10/12-14---10-12-14-12--10/12-14-|
A|-12-14-15-14--12/14-15---12-14-15-14--12/14-15-|
E|-----------------------------------------------|
                                                      x4
E|-----------------------------------------------|  
B|-----------------------------------------------|   
G|-----------------------------------------------|
D|-9--10-12-10--9-/10/12---9--10-12-10--9-/10/12-|
A|-11-12-14-12--11/12/14---11-12-14-12--11/12/14-|
E|-----------------------------------------------|

E|-----------|
B|-----------|
G|-----------|
D|---xxxx----|
A|---xxxx----|
E|---xxxx----|

Guitar 2 (low thumping sound)
E|--------------------|          
B|--------------------|
G|--------------------|    
D|------0--0----0--0--|   
A|------0--0----0--0--|
E|--------------------|    
                                                   
Chourus

Guitar 1
E|-----------------------------------------------------------------|
B|-----------------------------------------------------------------|
D|---------------------------------5-5-5-5-5-5-5-5-----------------|    x2
G|-7-7-7-7-7-7-7-7-3-3-3-3-3-3-3-3-5-5-5-5-5-5-5-5-6-6-6-6-6-6-6-6-|
A|-7-7-7-7-7-7-7-7-3-3-3-3-3-3-3-3-3-3-3-3-3-3-3-3-7-7-7-7-7-7-7-7-|
E|-5-5-5-5-5-5-5-5-1-1-1-1-1-1-1-1-----------------4-4-4-4-4-4-4-4-|

Guitar 2
E|-----------------------------------------------------|
B|-----------------------------------------------------|
G|--9999999999999999-10101010101010101010101010101010--|
D|--xxxxxxxxxxxxxxxx-x-x-x-x-x-x-x-x-x-x-x-x-x-x-x-x---|
A|--7777777777777777-8-8-8-8-8-8-8-8-8-8-8-8-8-8-8-8---|
E|-----------------------------------------------------|
                                                                         x2
E|---------------------------------------------------------------------|
B|---------------------------------------------------------------------|
G|--12121212121212121212121212121212-13131313131313131313131313131313--|
D|--x-x-x-x-x-x-x-x-x-x-x-x-x-x-x-x--x-x-x-x-x-x-x-x-x-x-x-x-x-x-x-x---|
A|--10101010101010101010101010101010-11111111111111111111111111111111--|
E|---------------------------------------------------------------------|


Post-Chorus

Guitar 1
E|-----------------------|
B|-----------------------|
G|-----------------------|
D|-10-12-14-12--10/12-14-|
A|-12-14-15-14--12/14-15-|
E|-----------------------|


Verse 2

Guitar 1  
E|-----------------------------------------------|
B|-----------------------------------------------|
G|-----------------------------------------------|
D|-10-12-14-12--10/12-14---10-12-14-12--10/12-14-|
A|-12-14-15-14--12/14-15---12-14-15-14--12/14-15-|
E|-----------------------------------------------|
                                                      x4
E|-----------------------------------------------|  
B|-----------------------------------------------|   
G|-----------------------------------------------|
D|-9--10-12-10--9-/10/12---9--10-12-10--9-/10/12-|
A|-11-12-14-12--11/12/14---11-12-14-12--11/12/14-|
E|-----------------------------------------------|

Guitar 2 (can be heard through out verse) 
E|-----------------|
B|-----------------|
G|-----------------|   
D|-----------------|
A|-0-0-2-2-3-3-5-5-|
E|-----------------|


Pre Chorus

Guitar 1
E|-------------|
B|-------------|
G|-2-2-4-4-5-5-|
D|-------------|
A|-------------|
E|-------------|

Guitar 2
E|------------------|
B|------------------|
G|-2-2----2-2>------|
D|-2-2----2-2>------|
A|-0-0----0-0>------|
E|------------------|


<<Repeat Chourus>>


Bridge

Guitar 1      
E|-----------------------------------------------------------------------|
B|-----------------------------------------------------------------------|
G|-10-10-10-10-10-10-10-10-10-10-10-10-10-10-10-10-----------------------|
D|-x--x--x--x--x--x--x--x--x--x--x--x--x--x--x--x--10-12-14-12--10/12-14-|
A|-8--8--8--8--8--8--8--8--8--8--8--8--8--8--8--8--12-14-15-14--12/14-15-|
E|-----------------------------------------------------------------------|

E|-----------------------------------------------------------------------|
B|-----------------------------------------------------------------------|
G|-13-13-13-13-13-13-13-13-13-13-13-13-13-13-13-13-----------------------|
D|-x--x--x--x--x--x--x--x--x--x--x--x--x--x--x--x--10-12-14-12--10/12-14-|
A|-11-11-11-11-11-11-11-11-11-11-11-11-11-11-11-11-12-14-15-14--12/14-15-|
E|-----------------------------------------------------------------------|

E|------------------------------------------------------------------|
B|------------------------------------------------------------------|
G|-17171717-16161616-14141414--10101010-----------------------------|
D|-x-x-x-x--x-x-x-x---x-x-x-x--x-x-x-x------------------------------|
A|-15151515-14141414-12121212--8-8-8-8--10-12-14-12--10/12-14>--14>-|
E|--------------------------------------12-14-15-14--12/14-15>--15>-|

Guitar 2      
E|------------------------------------------------------------------|
B|------------------------------------------------------------------|   
G|-10101010101010101010101010101010---------------------------------|
D|-10101010101010101010101010101010-7-7-7-7-7-7-7-7-7-7-7-7-7-7-7-7-| 
A|-8-8-8-8-8-8-8-8-8-8-8-8-8-8-8-8--7-7-7-7-7-7-7-7-7-7-7-7-7-7-7-7-|
E|----------------------------------5-5-5-5-5-5-5-5-5-5-5-5-5-5-5-5-|
             
E|-----------------------------------------------------------------|
B|-----------------------------------------------------------------|   
G|-9-9-9-9-9-9-9-9-9-9-9-9-9-9-9-9---------------------------------|
D|-9-9-9-9-9-9-9-9-9-9-9-9-9-9-9-9-7-7-7-7-7-7-7-7-7-7-7-7-7-7-7-7-| 
A|-7-7-7-7-7-7-7-7-7-7-7-7-7-7-7-7-7-7-7-7-7-7-7-7-7-7-7-7-7-7-7-7-|
E|---------------------------------5-5-5-5-5-5-5-5-5-5-5-5-5-5-5-5-|

E|------------------------------------------------------------------|
B|------------------------------------------------------------------|   
G|-10101010101010101010101010101010---------------------------------|
D|-10101010101010101010101010101010-7-7-7-7-7-7-7-7-7-7-7-7-7-7-7-7-| 
A|-8-8-8-8-8-8-8-8-8-8-8-8-8-8-8-8--7-7-7-7-7-7-7-7-7-7-7-7-7-7-7-7-|
E|----------------------------------5-5-5-5-5-5-5-5-5-5-5-5-5-5-5-5-|
      
E|---------------|
B|---------------|   
G|-9>-----9>-----|
D|-9>-----9>-----| 
A|-7>-----7>-----|
E|---------------|
      
   
Bridge continued...


Guitar 1
E|-----------------------------------------------|
B|-----------------------------------------------|
G|-----------------------------------------------|
D|-10-12-14-12--10/12-14---10-12-14-12--10/12-14-|
A|-12-14-15-14--12/14-15---12-14-15-14--12/14-15-|
E|-----------------------------------------------|
                                                      x4
E|-----------------------------------------------|  
B|-----------------------------------------------|   
G|-----------------------------------------------|
D|-9--10-12-10--9-/10/12---9--10-12-10--9-/10/12-|
A|-11-12-14-12--11/12/14---11-12-14-12--11/12/14-|
E|-----------------------------------------------|

E|---------------------------|
B|---------------------------|
G|---------------------------|
D|---------------------------|
A|------<<<PICKSLIDE>>>------|
E|---------------------------|

Guitar 2
E|-------------|-------------------|
B|-------------|-------------------|
G|--~----------|--x----------------|    
D|--~----------|--x-6>----\2>------|
A|--~----------|--x----------------|
E|-------------|-------------------|

E|--------------------|          
B|--------------------|
G|--------------------|   x2 
D|------0--0----0--0--|   
A|------0--0----0--0--|
E|--------------------|

E|--------------|-----------|
B|--------------|-----------|
G|--------------|-----------|   
D|--------------|------0--0-|  
A|--00-2-2-3-3--|------0--0-|
E|--------------|-----------|


<<Repeat Chourus>>


Outro/Ending

Guitar 1         End on
E|--------------|-------|
B|--------------|-------|
D|--------------|--2----| 
G|--2-2-2-2>----|--2----|
A|--2-2-2-2>----|--0----|
E|--0-0-0-0>----|-------|

Guitar 2         End on
E|--------------|-------|
B|--------------|-------|
D|---------^20--|-------|
G|--------------|--7----|
A|--------------|--7----|
E|--------------|--5----|



////////////////////////////////////////////////////////////////////////



TRACK 4: I'm Like A Lawyer With The Way I'm Always Trying To Get You Off 
(Me & You)


Standard Tuning (EADGBE)


Intro / Verse

Guitar 1
E---------------------------------|
B-6-6-----6-6-----6-6-------------|    x2
G-6-6-5-5-6-6-5-5-6-6-2-2-3-3-3-3-|    
D-6-6-6-6-6-6-6-6-6-6-3-3-4-4-4-4-|
A-4-4-6-6-4-4-6-6-4-4-3-3-4-4-4-4-|
E-----4-4-----4-4-----1-1-2-2-2-2-|

E-------------------|        |--------------------|    
B--------xx6-6xx6-6-|    x2  |----------xx6-6-6-6-|   
G-2-2-5-7xx6-6xx6-6-|        |-xx5-5-5-5xx6-6-6-6-|  
D-3-3-6-8xx6-6xx6-6-|        |-xx6-6-6-6xx6-6-6-6-|  
A-3-3-6-8xx4-4xx4-4-|        |-xx6-6-6-6xx4-4-4-4-| 
E-1-1-4-6-----------|        |-xx4-4-4-4----------|  

    ........  ....
E----------------------|
B----------------------|    
G----------------------|    
D-6\44444444xx33333333-|
A-6\44444444xx33333333-|
E-4\22222222xx11111111-|
    ........  ....

Guitar 2 (Hard to hear)
E---------------------------------------------|
B-11-11-11-11-11-11----9-9--11-11-11-11-11-11-|    
G-------------------10------------------------|    
D---------------------------------------------|
A---------------------------------------------|
E---------------------------------------------|

E-----------------------------------------------|
B-11-11-11-11-11-11----9-9------------6-----6---|    
G-------------------10-----6h7777-6-7---6-7---8-|    
D-----------------------------------------------|
A-----------------------------------------------|
E-----------------------------------------------|

(Very hard to hear)
E-------------------------------------------|
B-10-10-9-10-10-9-10-10-9-10-10-10-10-10-10-|     
G-------------------------------------------|    
D-------------------------------------------|
A-------------------------------------------|
E-------------------------------------------|


Chorus

Guitar 1
E--------------------------------------|
B--------------------------------------|     
G-666666666-33333333-------------------|    
D-666666666-33333333-44444444-44444444-|
A-444444444-11111111-44444444-44444444-|
E--------------------22222222-22222222-|

E-------------------------------|
B-------------------------------|     
G-33333333-666666666------------|    
D-33333333-666666666-44444444-6-|
A-11111111-444444444-44444444-6-|
E--------------------22222222-4-|

Guitar 2 (Comes in as chorus ends)
E-----------------------------|
B-14-12-----------------------|     
G-------14-13-11--------------|    
D----------------14-11-13-15~-|
A-----------------------------|
E-----------------------------|

<<Repeat Verse>>
 
<<Repeat Chorus Twice>>  * Guitar 2 Riff is played
                           more often during these 
                           two Choruses.
 
Bridge

Guitar 1
E-------------------------------------------------------|
B-------------------------------------------------------|     
G-33333333----------66666666----------33333333----------|    
D-33333333-44444444-66666666-33333333-33333333-44444444-|
A-11111111-44444444-44444444-33333333-11111111-44444444-|
E----------22222222----------11111111----------22222222-|

           . . . . . . . .
E-----------------------------|
B-----------------------------|     
G-----------------------------|    
D-66666666-6-6-6-6-6-6-6-6-6>-|
A-66666666-6-6-6-6-6-6-6-6-6>-| 
E-44444444-4-4-4-4-4-4-4-4-4>-|
           . . . . . . . . 

Guitar 2 (can be heard very softly)
E------11---------11---------9---------9----|
B-9-11----11-9-11----11-9-11---11-9-11---11-|   x3   
G-------------------------------------------|    
D-------------------------------------------|
A-------------------------------------------|
E-------------------------------------------|


Final Chorus / Outro

Guitar 1
E------------------------------------------------------------|
B------------------------------------------------------------|     
G----------------------33333333-666666666--------------------|    
D-xx-44444444-44444444-33333333-666666666-444444444-44444444-|
A-xx-44444444-44444444-11111111-444444444-444444444-44444444-|
E-xx-22222222-22222222--------------------222222222-22222222-|

E--------------------------------------|
B--------------------------------------|     
G-666666666-66666666-------------------|    
D-666666666-66666666-44444444-44444444-|
A-444444444-44444444-44444444-44444444-|
E--------------------22222222-22222222-|

E--------------------------------|
B--------------------------------|     
G-666666666-66666666-------------|    
D-666666666-66666666-44444444-4>-|
A-444444444-44444444-44444444-4>-| 
E--------------------22222222-2>-|

Guitar 2 (Played Throughout Chorus)
E-----------------------------|     |---------|
B-14-12-----------------------|     |---------|
G-------14-13-11--------------|     |----6----|
D----------------14-11-13-15~-|     |----x----|
A-----------------------------|     |----4----|
E-----------------------------|     |---------|



////////////////////////////////////////////////////////////////////////



TRACK 5: Hum Hallelujah


Drop D Tunning (DADGBE)


Intro

Guitar 3
E-------------------|              
B-------------------|   x8     
G-1111-9--11-9-7777-|       
D-x-x--x--x--x-xxxx-|          
A-9-9--7--9--7-5555-|       
D-------------------| 

Guitar 1
   ..       ...       ...       ...
E--------------------------------------|              
B--------------------------------------|       
G--------------------------------------|       
D-\00-00----000-00----000-00----000-00-|          
A-\00-00----000-00----000-00----000-00-|       
D-\00-00----000-00----000-00----000-00-|
   ..       ...       ...       ...

Guitar 2
E----------------------------------------|              
B-77777777-799999999-977777777-799999999-|       
G-xxxxxxxx-xxxxxxxxx-xxxxxxxxx-xxxxxxxxx-|       
D-44444444-466666666-644444444-466666666-|          
A----------------------------------------|       
D----------------------------------------| 


Verse

Guitar 1
  ...       ...       ...       ...
E--------------------------------------|        |----------|            
B--------------------------------------|   x2   |----------| 
G---------------------444-44-----------|        |----------| 
D-000-00----000-00----444-44----555-55-|        |-55555555-|  
A-000-00----000-00----222-22----555-55-|        |-55555555-|
D-000-00----000-00--------------555-55-|        |-55555555-| 
  ...       ...       ...       ...


Pre Chorus 1

Guitar 1
E-------------------------------------------------|              
B-------------------------------------------------|    x3    
G-xx-44-xx-44-------------xx-77-xx-77-------------|       
D-xx-44-xx-44-xx-77-xx-77-xx-77-xx-77-xx-55-xx-55-|          
A-xx-22-xx-22-xx-77-xx-77-xx-55-xx-55-xx-55-xx-55-|       
D-------------xx-77-xx-77-------------xx-55-xx-55-|

E-------------------|              
B-------------------|       
G-------------------|       
D-55555555-55555555-|          
A-55555555-55555555-|       
D-55555555-55555555-|

Guitar 2 
E----------------------------------------------------|              
B----------------------------------------------------|       
G-77777777-55555555-11111111111112111111111111111111-|       
D-xxxxxxxx-xxxxxxxx-x-x-x-x-x-x-x-x-x-x-x-x-x-x-x-x--|          
A-55555555-33333333-9-9-9-9-9-9-109-9-9-9-9-9-9-9-9--|       
D----------------------------------------------------| 

E-------------|              
B-------------|       
G-7-9-11-14-7-|       
D-x-x-x--x--x-|          
A-5-7-9--12-5-|       
D-------------| 


Chorus

Guitar 1
E-------------------------------------------|              
B-------------------------------------------|       
G-------------------------44444444----------|       
D-0000----5555----0000----44444444-55555555-|          
A-0000----5555----0000----22222222-55555555-|       
D-0000----5555----0000-------------55555555-|

E----------------------------------------------------------|              
B----------------------------------------------------------|       
G-----------------------------xx-xx-xxxxx44444444----------|       
D-00xx-xx-xxxxx55xx-xx-xxxxx00xx-xx-xxxxx44444444-55555555-|          
A-00xx-xx-xxxxx55xx-xx-xxxxx00xx-xx-xxxxx22222222-55555555-|       
D-00xx-xx-xxxxx55xx-xx-xxxxx00--------------------55555555-|

Guitar 2
E---------|              
B---------|       
G-7777777-|  *Played throughout chorus       
D-xxxxxxx-|          
A-5555555-|       
D---------|

E-------------------|              
B-------------------|        
G-1111-9--11-9-7777-|       
D-x-x--x--x--x-xxxx-|          
A-9-9--7--9--7-5555-|       
D-------------------| 


<<REPEAT VERSE>>


Pre Chorus 2

Guitar 1
E-------------------------------------------------|              
B-------------------------------------------------|    x3    
G-xx-44-xx-44-------------xx-77-xx-77-------------|       
D-xx-44-xx-44-xx-77-xx-77-xx-77-xx-77-xx-55-xx-55-|          
A-xx-22-xx-22-xx-77-xx-77-xx-55-xx-55-xx-55-xx-55-|       
D-------------xx-77-xx-77-------------xx-55-xx-55-|

E-------------------|              
B-------------------|       
G-------------------|       
D-55555555-55555555-|          
A-55555555-55555555-|       
D-55555555-55555555-|

Guitar 2
E----------|              
B-10-------|    x8    
G----9-8-8-|       
D----------|          
A----------|       
D----------|
 
E----------------------------------------------------|              
B----------------------------------------------------|       
G-77777777-55555555-11111111111112111111111111111111-|       
D-xxxxxxxx-xxxxxxxx-x-x-x-x-x-x-x-x-x-x-x-x-x-x-x-x--|          
A-55555555-33333333-9-9-9-9-9-9-109-9-9-9-9-9-9-9-9--|       
D----------------------------------------------------| 

E-------------|              
B-------------|       
G-7-9-11-14-7-|       
D-x-x-x--x--x-|          
A-5-7-9--12-5-|       
D-------------| 


<<REPEAT CHORUS>>


Bridge

Guitar 1      . . . . . . . . . . . . . .     . . . . . . . .
E-------|   |-------------------------------------------------|             
B-------|   |-------------------------------------------------|       
G-------|   |---------------------------------4-4-4-4---------|     
D-0>----|   |-0-0-0-0-0-0-0-0-0-0-0-0-0-0-0---4-4-4-4-7-7-7-7-|       
A-0>----|   |-0-0-0-0-0-0-0-0-0-0-0-0-0-0-0---2-2-2-2-7-7-7-7-|      
D-0>----|   |-0-0-0-0-0-0-0-0-0-0-0-0-0-0-0-----------7-7-7-7-|
              . . . . . . . . . . . . . .     . . . . . . . .
  . . . . . .
E---------------|              
B---------------|        
G---------------|       
D-5-5-5-5-2-2-2-|          
A-5-5-5-5-2-2-2-|       
D-5-5-5-5-2-2-2-|
  . . . . . .

  . . . . . . . . . . . . . . . . . . . . . . . .
E-------------------------------------------------|             
B-------------------------------------------------|       
G---------------------------------4-4-4-4---------|     
D-0-0-0-0-0-0-0-0-0-0-0-0-0-0-0-0-4-4-4-4-7-7-7-7-|       
A-0-0-0-0-0-0-0-0-0-0-0-0-0-0-0-0-2-2-2-2-7-7-7-7-|      
D-0-0-0-0-0-0-0-0-0-0-0-0-0-0-0-0---------7-7-7-7-|
  . . . . . . . . . . . . . . . . . . . . . . . .
 
 . . . . . . . . .
E-------------------|              
B-------------------|        
G-------------------|       
D-5-5-5-5-2-2-2-2-2-|          
A-5-5-5-5-2-2-2-2-2-|       
D-5-5-5-5-2-2-2-2-2-|
  . . . . . . . . .

E---------------------------|              
B---------------------------|      
G-7>------------x-7>----x-4-|       
D-7>----x-5>----x-7>----x-4-|          
A-5>----x-5>----x-5>----x-2-|       
D-------x-5>----------------|


Final Chorus

Guitar 1 
E---------------------------------------|              
B---------------------------------------|      
G-----------------------------4444------|       
D-\00000000-55555555-00000000-4444-5555-|          
A-\00000000-55555555-00000000-2222-5555-|       
D-\00000000-55555555-00000000------5555-|

E-------------------------------------------|              
B-------------------------------------------|       
G-----------------------------xx-xx-xxxxx44-|       
D-00xx-xx-xxxxx55xx-xx-xxxxx00xx-xx-xxxxx44-|          
A-00xx-xx-xxxxx55xx-xx-xxxxx00xx-xx-xxxxx22-|       
D-00xx-xx-xxxxx55xx-xx-xxxxx00--------------|

E----------------------------------------------------------|              
B----------------------------------------------------------|       
G-----------------------------xx-xx-xxxxx44444444----------|       
D-00xx-xx-xxxxx55xx-xx-xxxxx00xx-xx-xxxxx44444444-55555555-|          
A-00xx-xx-xxxxx55xx-xx-xxxxx00xx-xx-xxxxx22222222-55555555-|       
D-00xx-xx-xxxxx55xx-xx-xxxxx00--------------------55555555-|

End On
E-------|
B-------|
G-------|
D--0>---|
A--0>---|
D--0>---|

Guitar 2                                  End On
E---------|                              |--------|        
B---------|                              |--------|
G-7777777-|  *Played throughout chorus   |--11>---|    
D-xxxxxxx-|                              |--x-----|
A-5555555-|                              |--9>----|
D---------|                              |--------|



////////////////////////////////////////////////////////////////////////



TRACK 6: Golden 

The album version of this song does not contain any guitar
however Fall Out Boy do use guitar's in their live versions
of the song.


AS SEEN ON AOL LIVE: http://www.youtube.com/watch?v=Qu79nw1l5Sc


Standard Tuning (EADGBE)


Intro (Clean)

Guitar 1
  . . .   . . . . . . . . . . . . . . . .
E-----------------------------------------|
B-----------------------------------------|    
G-5-5-5-5-5-5-5-5-5-5-5-8-8-8\3-3-3/5-5-5-|    
D-5-5-5-5-5-5-5-5-5-5-5-8-8-8\4-4-4/5-5-5-|
A-3-3-3-3-3-3-3-3-3-3-3-6-6-6\1-1-1/3-3-3-|
E-----------------------------------------|
  . . .   . . . . . . . . . . . . . . . .

  . . . . . . . . . . . . . . . . . .
E-------------------------------------------------|
B-------------------------------------------------|    
G-5-5-5-5-5-5-5-5-5-5-5-5-5-5-5-5-5-5-5-5-5-5-5-5-|    
D-5-5-5-5-5-5-5-5-5-5-5-5-5-5-5-5-5-5-5-5-6-6-6-6-|
A-3-3-3-3-3-3-3-3-3-3-3-3-3-3-3-3-3-3-3-3-3-3-3-3-|
E-------------------------------------------------|
  . . . . . . . . . . . . . . . . . .


Chorus Riff  (Distrotion)

E-------------------------------|   
B-------------------------------|   x4
G----------------------8--8-8-0-|    
D-3--3-3-5--5-5-6--6-6-8--8-8-0-|
A-3--3-3-6--6-6-4--4-4-6--6-6-0-|
E-1--1-1-3--3-3-4--4-4----------|


Verse (Clean)

E--------------------------------------------|
B--------------------------------------------|    
G-5---------3--------5--------------3-3-5-55-|    
D-5--(x40)--4--(x8)--5--(x8)--5-5-5x4-4-5-55-|
A-3---------1--------3--------6-6-6x1-1-3-33-|
E-----------------------------3-3-3x---------|

E-----------------------------|
B-----------------------------|    
G-5---------3-----------------|    
D-5--(x8)---4--(x8)--3--------|
A-3---------1--------3--(x16)-|
E--------------------1--------|  

E---------------------|          |----------|
B---------------------|    x3    |----------|
G-5---------3---------|          |----------|
D-5--(x8)---4--(x8)---|          |-3--------| > Gradually build up
A-3---------1---------|          |-3--(x16)-|
E---------------------|          |-1--------|


<<REPEAT CHORUS RIFF x3 (Clean)>>


Post Chorus (Clean)

E----------|
B----------|    
G-5--------|    
D-5--(x16)-|
A-3--------|
E----------|


<<REPEAT VERSE (clean)>>


<<REPEAT CHORUS (Distortion) x3>>


Outro (Distortion)

E-----------------------------------------|
B----------6-6-6666--------------6-6-6666-|    
G-5-5-5555-5-5-5555-6-5-5-5-5555-5-5-5555-|    
D-5-5-5555-3-3-3333-----5-5-5555-3-3-3333-|
A-3-3-3333--------------3-3-3333----------|
E-----------------------------------------|



////////////////////////////////////////////////////////////////////////



TRACK 7: Thnks Fr Th Mmrs


Standard Tuning (EADGBE)


Intro

  .  .  .  .  .  .  .  .               .  .  .  . 
E-------------------------|          |-------------|      
B-------------------------|    x7    |-------------|
G-------------------------|          |-------------|
D-15-15-16-16-15-15-13-13-|          |-15-15-16-16-|
A-------------------------|          |-------------|
E-------------------------|          |-------------|
  .  .  .  .  .  .  .  .               .  .  .  .

Chorus 

E-----------------------------------------------------------------|
B-----------------------------------------------------------------|    
G-3-3-3-3-3-3-3-3-------------------------------------------------|    
D-3-3-3-3-3-3-3-3-4-4-4-4-4-4-4-4-3-3-3-3-3-3-3-3-4-4-4-4-6-6-6-6-|
A-1-1-1-1-1-1-1-1-4-4-4-4-4-4-4-4-3-3-3-3-3-3-3-3-4-4-4-4-6-6-6-6-|
E-----------------2-2-2-2-2-2-2-2-1-1-1-1-1-1-1-1-2-2-2-2-4-4-4-4-|
                                                                     x2
E---------------------------------------------------------------|
B---------------------------------------------------------------|    
G-3-3-3-3-3-3-3-3-----------------------------------------------|    
D-3-3-3-3-3-3-3-3-4-4-4-4-4-4-4-4-6-6-6-666-6-6-666-6-6-666-6-6-|
A-1-1-1-1-1-1-1-1-4-4-4-4-4-4-4-4-6-6-6-666-6-6-666-6-6-666-6-6-|
E-----------------2-2-2-2-2-2-2-2-4-4-4-444-4-4-444-4-4-444-4-4-|


Verse 1

Guitar 1
    .................. ............ ............... ...............
E-------------------------------------------------------------------|
B-------------------------------------------------------------------|    
G-33------------------3------------3---------------2----------------|    
D-33------------------3------------3---------------2----------------|
A-111111111111111111111111111111111111111111111111100000000---------|
E----------------------------------------------------------11111111-|
    .................. ............ ............... ...............

   ............... ............... ............... ................
E-------------------------------------------------------------------|
B-------------------------------------------------------------------|    
G-----------------2---------------3---------------2-----------------|    
D-3---------------2---------------3---------------2-----------------|
A-3---------------00000000000000001111111111111111000000000---------|
E-1111111111111111-----------------------------------------11111111-|
   ............... ............... ............... ................

   ........................
E---------------------------|
B---------------------------|    
G---------------------------|   
D-3-------------------------|
A-3-------------------------|
E-1111111111111111111111111-|
   ........................

Guitar 2
E-----------------------|
B-----------------------|     
G-------------16-14-13~-|    
D-15-17-18-18-----------|
A-----------------------|
E-----------------------|
 
(comes in half way through Verse)
  .  .  .  .  .  .  .  .               .  .  .  . 
E-------------------------|          |-------------|      
B-------------------------|    x7    |-------------|
G-------------------------|          |-------------|
D-15-15-16-16-15-15-13-13-|          |-15-15-16-16-|
A-------------------------|          |-------------|
E-------------------------|          |-------------|
  .  .  .  .  .  .  .  .               .  .  .  .

<<Repeat Chorus>>


Verse 2 (Both Guitar's Acoustic)

Guitar 1
     D    Dm                          C              D (Build Up strum)
E-xx-11-x-1-xx-22--x2-x-22-x-2-x-22-x-00-|         |-1111111111111111-|
B-xx-33-x-3-xx-33--x3-x-33-x-3-x-33-x-11-|   x4    |-3333333333333333-|
G-xx-22-x-2-xx-22--x2-x-22-x-2-x-22-x-00-|         |-2222222222222222-|
D-xx-00-x-0-xx-00--x0-x-00-x-0-x-00-x-22-|         |-0000000000000000-|
A-xx-xx-x-x-xx-xx--xx-x-xx-x-x-x-xx-x-33-|         |-xxxxxxxxxxxxxxxx-|
E-xx-xx-x-x-xx-xx--xx-x-xx-x-x-x-xx-x-00-|         |-xxxxxxxxxxxxxxxx-|
     D    Dm                          C

Guitar 2 (comes in half way through Verse)

 * = Tremolo Pick note eight times.
E---------------------|
B--18*--16*--14*--13*-|    
G---------------------|    
D---------------------|
A---------------------|
E---------------------|

E---------------------------------------------------|
B-11-11-13-13-14-14-16-16---16-16-16-16-18-18-18-18-|    
G---------------------------------------------------|    
D---------------------------------------------------|
A---------------------------------------------------|
E---------------------------------------------------|

E-------------------------------------------------|
B-16-18-16-18-16-18-16-18-16-18-16-18-16-18-16-18-|    
G-------------------------------------------------|    
D-------------------------------------------------|
A-------------------------------------------------|
E-------------------------------------------------|


Bridge/Pre Chorus
                         
Guitar 1                  ........
E------------------------------------------|
B------------------------------------------|    
G-3\------------3\--------3333333333333333-|    
D-3\------------3\--------3333333333333333-|
A-1\------------1\--------1111111111111111-|
E------------------------------------------|
                          ........

(Guitar 2: Pickslide)


<<Repeat Chorus>>

End on:
E----------|
B----------|   
G-----3----|    
D-----3----| & Let Ring
A-----1----|
E----------|



////////////////////////////////////////////////////////////////////////



TRACK 8: Don't You Know Who I Think I Am?


Standard Tuning (EADGBE)


Intro

Guitar 2
  . . . .  . . . .
E------------------|          |-------|
B------------------|    x2    |-------|
G------------------|          |-------|
D------------------|          |-xx-xx-|
A-1-1-0-4--6-6-0-4-|          |-xx-xx-|
E------------------|          |-xx-xx-| 
  . . . .  . . . .

E----------------------------|
B----------------------------|     x4 
G----------------------------|     
D-8-8-11-8-11--13-13-11-8-11-|
A-8-8-11-8-11--13-13-11-8-11-|
E-6-6-9--6-9---11-11-9--6-9--|


Guitar 1
E------------------------------------------|
B------------------------------------------|     x4 
G-10-10-10-10-10-10-10-11-10-10-10-10-10\\-|     
D-x--x--x--x--x--x--x--x--x--x--x--x--x----|
A-8--8--8--8--8--8--8--9--8--8--8--8--8\\--|
E------------------------------------------|


Verse 1

Guitar 1 
E--------------|         
B-----------44-|   x8   
G-x-x-6-x-x-66-|          
D--------------|          
A--------------|        
E--------------| 
  
Guitar 2
  . . . .  . . . .
E------------------|         
B------------------|   x4  
G------------------|          
D------------------|          
A-1-1-0-4--6-6-0-4-|        
E------------------|         
  . . . .  . . . .

Pre Chorus 1

Guitar 1 (Can Be Heard Very Softly)
E----------------|          |----------|       
B----------------|    x6    |----------|
G----------------|          |----------| 
D-11-12-12-15-15-|          |-15p12-13-|   
A----------------|          |----------| 
E----------------|          |----------| 
 
Guitar 2
E---------------------------------|-------------|
B---------------------------------|-------------|   
G---------------------------------|-6-x-xx-x-xx-|  
D-8----8----6----4----8----6----4-|-6-x-xx-x-xx-|
A-8----8----6----4----8----6----4-|-4-x-xx-x-xx-|
E-6----6----4----2----6----4----2-|-------------|


Chorus

Guitar 1
E-------------------------------------------------|         
B-------------------------------------------------|      
G-10-10-10-10-10-10-10-10-17-17-17-17-18-18-18-18-|          
D-x--x--x--x--x--x--x--x--x--x--x--x--x--x--x--x--|          
A-8--8--8--8--8--8--8--8--15-15-15-15-16-16-16-16-|        
E-------------------------------------------------| 

E-------------------------------------------------|         
B-------------------------------------------------|      
G-10-10-10-10-11-11-11-11-13-13-13-13-13-13-13-13-|          
D-x--x--x--x--x--x--x--x--x--x--x--x--x--x--x--x--|          
A-8--8--8--8--9--9--9--9--11-11-11-11-11-11-11-11-|        
E-------------------------------------------------| 

E-------------------------------------------------|         
B-------------------------------------------------|      
G-10-10-10-10-11-11-11-11-17-17-17-17-18-18-18-18-|          
D-x--x--x--x--x--x--x--x--x--x--x--x--x--x--x--x--|          
A-8--8--8--8--9--9--9--9--15-15-15-15-16-16-16-16-|        
E-------------------------------------------------|

E-------------------------------------------------|         
B-------------------------------------------------|      
G-10-10-10-10-11-11-11-11-13-13-13-13-13-13-13-13-|          
D-x--x--x--x--x--x--x--x--x--x--x--x--x--x--x--x--|          
A-8--8--8--8--9--9--9--9--11-11-11-11-11-11-11-11-|        
E-------------------------------------------------| 

Guitar 2
E----------------------------------------|         
B----------------------------------------|    x2  
G----------------------------------------|          
D-3333-4444-6666-8888-3333-4444-66666666-|          
A-3333-4444-6666-8888-3333-4444-66666666-|        
E-1111-2222-4444-6666-1111-2222-44444444-|

Verse 2

Guitar 1
E--------------|         
B-----------44-|   x8   
G-x-x-6-x-x-66-|          
D--------------|          
A--------------|        
E--------------|
 
E------6-4-----|                  
B----------6-4-|   x4     
G-xxxx---------|        
D--------------|       
A--------------|        
E--------------|        
                          
Guitar 2
  . . . .  . . . .
E------------------|         
B------------------|   x8
G------------------|          
D------------------|          
A-1-1-0-4--6-6-0-4-|        
E------------------|         
  . . . .  . . . .

Pre Chorus 2

Guitar 1 (Can Be Heard Very Softly)
E----------------|          |----------|       
B----------------|    x3    |----------|
G----------------|          |-6-xx-6-x-| 
D-11-12-12-15-15-|          |-6-xx-6-x-|   
A----------------|          |-4-xx-4-x-| 
E----------------|          |----------| 

E----------------|                
B----------------|    x3
G----------------|         
D-11-12-12-15-15-|         
A----------------|         
E----------------|  
       
Guitar 2
E---------------------------------|-------------|
B---------------------------------|-------------|   
G---------------------------------|-6-x-xx-x-xx-|  
D-8----8----6----4----8----6----4-|-6-x-xx-x-xx-|
A-8----8----6----4----8----6----4-|-4-x-xx-x-xx-|
E-6----6----4----2----6----4----2-|-------------|


<<Repeat Chorus Twice>>


Bridge 1     (*) = Delay effect

E--------------------------------------------------------|                  
B--------------------------------------------------------|        
G--------10-(10\6)---15-15-15-15-13-13-13-13-------------|        
D-8--xx-x--8---------------------------------------------|       
A-8--xx-x----------------------------------<<PICKSLIDE>>-|        
E-6--xx-x------------------------------------------------|  


Continued...


Guitar 1
E------------------------------------------|
B------------------------------------------|     x4 
G-10-10-10-10-10-10-10-11-10-10-10-10-10\\-|     
D-x--x--x--x--x--x--x--x--x--x--x--x--x----|
A-8--8--8--8--8--8--8--9--8--8--8--8--8\\--|
E------------------------------------------|

Guitar 2
E----------------------------|
B----------------------------|     x4 
G----------------------------|     
D-8-8-11-8-11--13-13-11-8-11-|
A-8-8-11-8-11--13-13-11-8-11-|
E-6-6-9--6-9---11-11-9--6-9--|


<<Repeat Chorus Twice>>

E-------11---------11-|
B-9p8h9----9-9-8-9----| >>>Also Played Throughout the Last two Chorus' 
G---------------------|    (hard to hear) 
D---------------------|
A---------------------|
E---------------------|


Bridge 2 / Solo

guitar 1 (Solo)
E--------------------------------------------------------8-^9-|
B--------------------------------------^8------------8~-------|      
G-------------8-10-8-10~-8-10-8-10-8-6---10-8-7---------------|     
D--------8-11-----------------------------------10-8----------|
A-\-8-10------------------------------------------------------|
E-------------------------------------------------------------|

Guitar 2 (Solo Backing)
E----------------------------------------|         
B----------------------------------------|      
G----------------------------------------|          
D-3333-4444-6666-8888-3333-4444-66666666-|          
A-3333-4444-6666-8888-3333-4444-66666666-|        
E-1111-2222-4444-6666-1111-2222-44444444-|

Outro (Verse 1 Riff)

Guitar 1
E--------------|         
B-----------44-|   x4   
G-x-x-6-x-x-66-|          
D--------------|          
A--------------|        
E--------------| 
  
Guitar 2
  . . . .  . . . .
E------------------|         
B------------------|   x2  
G------------------|          
D------------------|          
A-1-1-0-4--6-6-0-4-|        
E------------------|         
  . . . .  . . . .



////////////////////////////////////////////////////////////////////////



TRACK 9: The (After) Life Of The Party


Standard Tuning (EADGBE)


Verse

Guitar 1 (played very softly & briefly in the verse)
E-----------------------------------------|
B-8-10-10-8-10-10-8-10-10-8-10-8-10-10-10-|    
G-----------------------------------------|    
D-----------------------------------------|
A-----------------------------------------|
E-----------------------------------------|

E--------------------------------------------|
B-8h10p8h10p8h10p8h10-10-8h10p8h10p8h10p8h10-|    
G--------------------------------------------|    
D--------------------------------------------|
A--------------------------------------------|
E--------------------------------------------|


Chorus

Guitar 1
E--------------------------------------------------------------|
B--------------------------------------------------------------|    
G-3-3-3-3-5-5-5-5-7-7-7-7-10-10-10-10-1010101010101010-9999999-|    
D-x-x-x-x-x-x-x-x-x-x-x-x-x--x--x--x--x-x-x-x-x-x-x-x--xxxxxxx-|
A-1-1-1-1-3-3-3-3-5-5-5-5-8--8--8--8--8-8-8-8-8-8-8-8--7777777-|
E--------------------------------------------------------------|
                                                                          x2
E----------------------------------------------------------------------|
B----------------------------------------------------------------------|    
G-5-5-5-5-7-7-7-7-9-9-9-9-12-12-12-12-14141414141414141212121212121212-|    
D-x-x-x-x-x-x-x-x-x-x-x-x-x--x--x--x--x-x-x-x-x-x-x-x-x-x-x-x-x-x-x-x--|
A-3-3-3-3-5-5-5-5-7-7-7-7-10-10-10-10-12121212121212121010101010101010-|
E----------------------------------------------------------------------|

Guitar 2
E-----------------------------------|          |----------| 
B-----------------------------------|    x4    |----------|
G-3333333333333333------------------|          |----------| 
D-3333333333333333-3333333333333333-|          |----3>----|
A-1111111111111111-3333333333333333-|          |----3>----|
E------------------1111111111111111-|          |----1>----|


<<Repeat Verse & Chorus>>

Bridge x2

Guitar 1
E-----------------------|
B-----------------------|    x4 
G-------10-10-9-9-------|    
D-10-10-----------10-10-|
A-----------------------|
E-----------------------|

E-----------------------|
B-----------------13-13-|    x2 
G-------9-9-10-10-------|    
D-10-10-----------------|
A-----------------------|
E-----------------------|

E-----------------------|
B-----------------------|    x2 
G-------10-10-9-9-------|    
D-10-10-----------10-10-|
A-----------------------|
E-----------------------|

Guitar 2
E-------------------------------------|
B-------------------------------------|    x2
G-33333333-33333333-------------------|    
D-33333333-33333333-33333333-33333333-|
A-11111111-11111111-33333333-33333333-|
E-------------------11111111-11111111-|


Continued...

Guitar 1
E--------------------------------------------------------------|
B--------------------------------------------------------------|    
G-3-3-3-3-5-5-5-5-7-7-7-7-10-10-10-10-1010101010101010-9999999-|    
D-x-x-x-x-x-x-x-x-x-x-x-x-x--x--x--x--x-x-x-x-x-x-x-x--xxxxxxx-|
A-1-1-1-1-3-3-3-3-5-5-5-5-8--8--8--8--8-8-8-8-8-8-8-8--7777777-|
E--------------------------------------------------------------|
                                                                          x2
E----------------------------------------------------------------------|
B----------------------------------------------------------------------|    
G-5-5-5-5-7-7-7-7-9-9-9-9-12-12-12-12-14141414141414141212121212121212-|    
D-x-x-x-x-x-x-x-x-x-x-x-x-x--x--x--x--x-x-x-x-x-x-x-x-x-x-x-x-x-x-x-x--|
A-3-3-3-3-5-5-5-5-7-7-7-7-10-10-10-10-12121212121212121010101010101010-|
E----------------------------------------------------------------------|

E-----------|
B-----------|    
G----10>----|    
D----x------|
A----8>-----|
E-----------|

Guitar 2
E-----------------------------------|          
B-----------------------------------|   
G-3333333333333333------------------|         
D-3333333333333333-3333333333333333-|         
A-1111111111111111-3333333333333333-|          
E------------------1111111111111111-|
         
E-------------------------------------|           
B-------------------------------------|        
G-3333333333333333--------------------|          
D-3333333333333333-33333333-5-55-5-55-|          
A-1111111111111111-33333333-5-55-5-55-|          
E------------------11111111-3-33-3-33-|          

E-----------------------------------|          |----------| 
B-----------------------------------|    x2    |----------|
G-3333333333333333------------------|          |----------| 
D-3333333333333333-3333333333333333-|          |----3>----|
A-1111111111111111-3333333333333333-|          |----3>----|
E------------------1111111111111111-|          |----1>----|



////////////////////////////////////////////////////////////////////////



TRACK 10: The Carpal Tunnel Of Love


Standard Tuning (EADGBE)


Intro / verse
E|---------------------------------------------------------------------|
B|---------------------------------------------------------------------|
G|-xx-77-xx-77-xx-3-xx-7-xx-77-xx-33-2-x-77-xx-77-xx-3-xx-7-xx-77-33-2-|  x3
D|-xx-xx-xx-xx-xx-3-xx-x-xx-xx-xx-33-2-x-xx-xx-xx-xx-3-xx-x-xx-xx-33-2-|
A|-xx-55-xx-55-xx-1-xx-5-xx-55-xx-11-0-x-55-xx-55-xx-1-xx-5-xx-55-11-0-|
D|---------------------------------------------------------------------|

E|------------------|
B|------------------|
G|-xx-77-xx-77-xx-7-|   x8
D|-xx-xx-xx-xx-xx-x-|
A|-xx-55-xx-55-xx-5-|
D|------------------|


Guitar 2
E|-----------------------------|
B|-----------------------------|   x2
G|-----------------------------|
D|-00--7-88--7-55--5-88-810-10-|
A|-00--7-88--7-55--5-88-810-10-|
D|-00--7-88--7-55--5-88-810-10-|


Pre Chorus

Guitar 1
E|-----------------------------------------------|
B|-----------------------------------------------|   
G|-1010101010101010-99999999-1010-1010-1010-1010-|  
D|-x-x-x-x-x-x-x-x--xxxxxxxx-x-x--x-x--x-x--x-x--|
A|-8-8-8-8-8-8-8-8--77777777-8-8--8-8--8-8--8-8--|
D|-----------------------------------------------|

E|---------------------------------------------------|
B|---------------------------------------------------|   
G|-1010101010101010-99999999-1010-101010-10-10-14-14-|   
D|-x-x-x-x-x-x-x-x--xxxxxxxx-x-x--x-x--x-x--x--x--x--|
A|-8-8-8-8-8-8-8-8--77777777-8-8--8-8--8-8--8--12-12-|
D|---------------------------------------------------|

Guitar 2
E|-------------------------------|
B|-------------------------------|  
G|-------------------------------|
D|-88888888-77777777-00-00-00-00-|
A|-88888888-77777777-00-00-00-00-|
D|-88888888-77777777-00-00-00-00-|

E|----------------------------------|
B|----------------------------------|  
G|----------------------------------|
D|-88888888-77777777-00-000-0-0-0-0-|
A|-88888888-77777777-00-000-0-0-0-0-|
D|-88888888-77777777-00-000-0-0-0-0-|

Chorus

Guitar 1
E|-------------------------------------------------------|
B|-------------------------------------------------------|   
G|-1010101010101010-99999999-1010101010101010-9999-12-14-|  
D|-x-x-x-x-x-x-x-x--xxxxxxxx-x-x-x-x-x-x-x-x--xxxx-x--x--|
A|-8-8-8-8-8-8-8-8--77777777-8-8-8-8-8-8-8-8--7777-10-12-|
D|-------------------------------------------------------|

E|-------------------------------------------------------------|
B|-------------------------------------------------------------|   
G|-1010101010101010-99999999-1010101010101010-1111111110101010-|  
D|-x-x-x-x-x-x-x-x--xxxxxxxx-x-x-x-x-x-x-x-x--x-x-x-x-x-x-x-x--|
A|-8-8-8-8-8-8-8-8--77777777-8-8-8-8-8-8-8-8--9-9-9-9-8-8-8-8--|
D|-------------------------------------------------------------|

Guitar 1
E|-------------------------------------|
B|-------------------------------------|   x2
G|-------------------------------------|  
D|-88888888-77777777-77777777-77777777-|
A|-88888888-77777777-77777777-77777777-|
D|-88888888-77777777-77777777-77777777-|


<<REPEAT VERSE + PRE CHORUS + CHORUS x2>>


Bridge

Guitar 1
E|----------------------------------|
B|----------------------------------|   x2
G|-7>---1010-10-10-1010-10-10-10109-|     
D|-x----x-x--x--x--x-x--x--x--x-x-x-|
A|-5>---8-8--8--8--8-8--8--8--8-8-7-|
D|----------------------------------|

E|-----------------------------|
B|-----------------------------|   x2
G|-1010-10-10-1010-10-10-10109-|   
D|-x-x--x--x--x-x--x--x--x-x-x-|
A|-8-8--8--8--8-8--8--8--8-8-7-|

E|------------------------------------------------------|
B|------------------------------------------------------|    
G|-77-77-1212-121212121212-1414-1414-1515-1515-15151515-|   
D|-xx-xx-x-x--x-x-x-x-x-x--x-x--x-x--x-x--x-x--x-x-x-x--|
A|-55-55-1010-101010101010-1212-1212-1313-1313-13131313-|

E|----------------------------------------|
B|----------------------------------------|    
G|-77-77-1212-121212121212-1414-1414-1515-|   
D|-xx-xx-x-x--x-x-x-x-x-x--x-x--x-x--x-x--|
A|-55-55-1010-101010101010-1212-1212-1313-|

Guitar 2
E|---------|
B|---------|   x2
G|---------|     
D|-0>------|
A|-0>------|
D|-0>------|

E|-------------------------------------------------------|
B|-------------------------------------------------------|   
G|-------------------------------------------------------|     
D|-7>--------7>--------00-00-55-55-5555-77-77-99-99-9999-|
A|-7>--------7>--------00-00-55-55-5555-77-77-99-99-9999-|
D|-7>--------7>--------00-00-55-55-5555-77-77-99-99-9999-|

E|-----------------------------|
B|-----------------------------|   
G|-----------------------------|     
D|-00-00-55-555555-77-77-99-99-|
A|-00-00-55-555555-77-77-99-99-|
D|-00-00-55-555555-77-77-99-99-|


<<REPEAT CHORUS TWICE>>



////////////////////////////////////////////////////////////////////////



TRACK 11: Bang The Doldrums


Standard Tuning (EADGBE)


Intro

Guitar 1
E-----------|
B-----------|    
G-x-x-x-xxx-|    
D-x-x-x-xxx-|
A-x-x-x-xxx-|
E-----------|

E-------------------------------|        |---------------------|
B-------------------------------|   x3   |---------------------|
G-10-8-66-xx-888-xx-13-13-13-xx-|        |10-8-66-xx-888-xx-6\-|
D-x--x-xx-xx-xxx-xx-x--x--x--xx-|        |x--x-xx-xx-xxx-xx-x\-|
A-8--6-44-xx-666-xx-11-11-11-xx-|        |8--6-44-xx-666-xx-4\-|
E-------------------------------|        |---------------------|

Guitar 2
E-----------|
B-----------|    
G-----------|    
D-x-x-x-xxx-|
A-x-x-x-xxx-|
E-x-x-x-xxx-|

E-------------------------|        |---------------------|
B-------------------------|   x3   |---------------------|
G------------------666----|        |------------------6\-|
D-8-6-44-xx-666-xx-666-xx-|        |-8-6-44-xx-666-xx-6\-|
A-8-6-44-xx-666-xx-444-xx-|        |-8-6-44-xx-666-xx-4\-|
E-6-4-22-xx-444-xx-----xx-|        |-6-4-22-xx-444-xx----|


Verse


Guitar1
  .     .  . . . .    .  . . .              .     .  . . . . 
E------------------------------|          |------------------------------|
B------------------------------|    x3    |------------------------------|
G------------------------------|          |------------------------------|
D-11-11-11-------8-10-10-------|          |-11-11-11-------8-10-10-10--8-|
A----------9-9-9---------9-9-9-|          |----------9-9-9-------------8-|
E------------------------------|          |----------------------------6-|
  .     .  . . . .    .  . . .              .     .  . . . .

  .     .  . . . .    .  . . .
E------------------------------|
B------------------------------|    x4
G------------------------------|    
D-11-11-11-------8-10-10-------|
A----------9-9-9---------9-9-9-|
E------------------------------|
  .     .  . . . .    .  . . .

E-----------------------------------------------------------------|
B-----------------------------------------------------------------|  
G-----------------------------------------------------------------|    
D-8-8-888-8-8-8-10-10-1010-10-1010-10-1010-10-10-8-8-888-10-10 10-|
A-----------------------------------------------------------------|
E-----------------------------------------------------------------|

E---------------|
B---------------|  
G--------xxxxxx-|    
D-101010-xxxxxx-|
A--------xxxxxx-|
E---------------|

Guitar 2
  .  .  .  . . . . .  .  . . .              .  .  .  . . . . 
E------------------------------|          |------------------------------|
B------------------------------|    x3    |------------------------------|
G------------------------------|          |----------------------------8-|
D-11-11-11-------8-10-10-------|          |-11-11-11-------8-----------8-|
A----------9-9-9---------9-9-9-|          |----------9-9-9-------------6-|
E------------------------------|          |------------------------------|
  .  .  .  . . . . .  .  . . .              .  .  .  . . . . 

  .  .  .  . . . . .  .  . . .
E------------------------------|
B------------------------------|    x4
G------------------------------|    
D-11-11-11-------8-10-10-------|
A----------9-9-9---------9-9-9-|
E------------------------------|
  .  .  .  . . . . .  .  . . .


Chorus 1 Part 1

Guitar 1
E-------------------------------------------------------|
B-------------------------------------------------------|    
G-6-6-6-6-6-6-6-6-----------------6-6-6-6-6-6-6-6---6---|    
D-6-6-6-6-6-6-6-6-6-6-6-6-6-6-6-6-6-6-6-6-6-6-6-6-6-6-4-|
A-4-4-4-4-4-4-4-4-6-6-6-6-6-6-6-6-4-4-4-4-4-4-4-4-6-4-4-|
E-----------------4-4-4-4-4-4-4-4-----------------4---2-|

E-------------------------------------------------------|
B-------------------------------------------------------|    
G-6-6-6-6-6-6-6-6---6-----------------------------------|    
D-6-6-6-6-6-6-6-6-6-6-4-4-4-4-4-4-4-4-4-6-6-6-6-6-6-6-6-|
A-4-4-4-4-4-4-4-4-6-4-4-4-4-4-4-4-4-4-4-6-6-6-6-6-6-6-6-|
E-----------------4---2-2-2-2-2-2-2-2-2-4-4-4-4-4-4-4-4-|

Guitar 2
E----------|
B----------|    x6 
G-66666666-|    
D-xxxxxxxx-|
A-44444444-|
E----------|

Chrous 1 Part 2

Guitar 1
E-----------------------------|        |----------------------|
B-----------------------------|   x3   |----------------------|
G-8-13-6-xxx-88-xxx-13-13-xxx-|        |-8-13-6-xxx-88-xxx-6\-|
D-x-x--x-xxx-xx-xxx-x--x--xxx-|        |-x-x--x-xxx-xx-xxx-x\-|
A-6-11-4-xxx-66-xxx-11-11-xxx-|        |-6-11-4-xxx-66-xxx-4\-|
E-----------------------------|        |----------------------|

Guitar 2
E-------------------------|         |----------------------|
B-------------------------|    x3   |----------------------|
G---6----------xxx-66-xxx-|         |---6----------xxx-66\-|
D-6-6-4-xxx-66-xxx-66-xxx-|         |-6-6-4-xxx-66-xxx-66\-|
A-6-4-4-xxx-66-xxx-44-xxx-|         |-6-4-4-xxx-66-xxx-44\-|
E-4---2-xxx-44------------|         |-4---2-xxx-44---------|


<<Repeat Verse & Chorus 1>>


Bridge

Guitar 1 
           . .... . .... . .......... 
E-------------------------------------|
B-------------------------------------|     
G-------------------------------------|    
D-8-----------------------------------|
A-8-----------------------------------|
E-6--------6-6666-6-6666-6-6666666666-|
           . .... . .... . .......... 

       . .... . .... . .... . .... . .... . ....
E------------------------------------------------|
B------------------------------------------------|     
G------------------------------------------------|    
D-8\---------------------------------------------|
A-8\---------------------------------------------|
E-6\---6-6666-6-6666-6-6666-6-6666-6-6666-6-6666-|
       . .... . .... . .... . .... . .... . ....

Guitar 2
E----------------------------|
B----------------------------|   x4   
G-10-10-10-10-10-10-10101011-|    
D-x--x--x--x--x--x--x-x-x-x--|
A-8--8--8--8--8--8--8-8-8-9--|
E----------------------------|


Continued...

Guitar 1
E-----------------------------------------------------|
B-----------------------------------------------------|     
G-66666666-88888888-11-11-11-11-13-13-13-13-6666-10---|    
D-xxxxxxxx-xxxxxxxx-x--x--x--x--x--x--x--x--xxxx-x----|
A-44444444-66666666-9--9--9--9--11-11-11-11-4444-8----|
E-----------------------------------------------------|

E------------------------------------------------------------------|
B------------------------------------------------------------------|     
G-11-11-11-11-11-11-11-11-11-11-11-11-11-11-11-11-6-8-10-12-6--6-5-|    
D-x--x--x--x--x--x--x--x--x--x--x--x--x--x--x--x--x-x-x--x--x--x-x-|
A-9--9--9--9--9--9--9--9--9--9--9--9--9--9--9--9--4-6-8--10-4--4-3-|
E------------------------------------------------------------------|

E-----------------------------------------------------|
B-----------------------------------------------------|     
G-66666666-88888888-11-11-11-11-13-13-13-13-6666-10---|    
D-xxxxxxxx-xxxxxxxx-x--x--x--x--x--x--x--x--xxxx-x----|
A-44444444-66666666-9--9--9--9--11-11-11-11-4444-8----|
E-----------------------------------------------------|

E-------------------------------------------------|
B-------------------------------------------------|     
G-11-11-11-11-11-11-11-11-13-13-13-13-13-13-13-13-|    
D-x--x--x--x--x--x--x--x--x--x--x--x--x--x--x--x--|
A-9--9--9--9--9--9--9--9--11-11-11-11-11-11-11-11-|
E-------------------------------------------------|

Guitar 2
E------------------------------------|
B------------------------------------|    x3
G------------------------------------|    
D-44444444-66666666-8888888888888888-|
A-44444444-66666666-8888888888888888-|
E-22222222-44444444-6666666666666666-|

E---------------------|
B---------------------|    
G---------------------|    
D-44444444-66666666-8-|
A-44444444-66666666-8-|
E-22222222-44444444-6-|


Final Chorus

Guitar 1
E--------------------------------------------------|
B--------------------------------------------------|    
G---6---6-6-6-6-6-6-6-6---6------------------------|    
D-6-6-4-6-6-6-6-6-6-6-6-6-6-4-4-4-4-4-4-4-4-4-6----|
A-6-4-4-4-4-4-4-4-4-4-4-6-4-4-4-4-4-4-4-4-4-4-6----|
E-4---2-----------------4---2-2-2-2-2-2-2-2-2-4----|

Guitar 2
E--------------|
B--------------|  x2  
G-6-13-10-9-10-|    
D-x-x--x--x-x--|
A-4-11-8--7-8--|
E--------------|

<<Repeat Chorus 1 Part 2 (twice)>>



////////////////////////////////////////////////////////////////////////



TRACK 12: Fame < Infamy


Standard Tuning (EADGBE)


Intro

Guitar 1
E-------------------------------------------------|
B-------------------------------------------------|    
G-12-12-12-12-12-12-12-13-12-12-12-12-12-12-12-13-|    
D-x--x--x--x--x--x--x--x--x--x--x--x--x--x--x--x--|
A-10-10-10-10-10-10-10-11-10-10-10-10-10-10-10-11-|
E-------------------------------------------------|

E------------------------------------------------------------|
B------------------------------------------------------------|    
G-12-12-12-12-12-12-12-8-8-8-7-7-7-7-7-7-7-7-5-5-5-5-5-5-5-5-|    
D-x--x--x--x--x--x--x--x-x-x-x-x-x-x-x-x-x-x-x-x-x-x-x-x-x-x-|
A-10-10-10-10-10-10-10-6-6-6-5-5-5-5-5-5-5-5-3-3-3-3-3-3-3-3-|
E------------------------------------------------------------|

E-------------------------------|
B-------------------------------|    
G-8-8-8-8-8-8-8-8-7-8-7-8-7-8-7-|    
D-x-x-x-x-x-x-x-x-x-x-x-x-x-x-x-|
A-6-6-6-6-6-6-6-6-5-6-5-6-5-6-5-|
E-------------------------------|

E-------------------------------------------------------------|
B-------------------------------------------------------------|    
G-12-12-12-12-12-12-12-13-12-12-12-12-12-12-12-13-12-12-13/15-|    
D-x--x--x--x--x--x--x--x--x--x--x--x--x--x--x--x--x--x--x--x--|
A-10-10-10-10-10-10-10-11-10-10-10-10-10-10-10-11-10-10-11/13-|
E-------------------------------------------------------------|

E-------------------------------------------------------------|
B-------------------------------------------------------------|    
G-12-10-10-10-12-13-12-10-10-8-8-8-10-10-10-10-8-8-8-12-10-10-|    
D-x--x--x--x--x--x--x--x--x--x-x-x-x--x--x--x--x-x-x-x--x--x--|
A-10-8--8--8--10-11-10-8--8--6-6-6-8--8--8--8--6-6-6-10-8--8--|
E-------------------------------------------------------------|

E-------------------|
B-------------------|    
G-7-7-7-8-7-8-7-8-7-|    
D-x-x-x-x-x-x-x-x-x-|
A-5-5-5-6-5-6-5-6-5-|
E-------------------|

Guitar 2
E---------------------------------------------------------------------|
B---------------------------------------------------------------------| x2 
G-55555555----------33333333------------------------------------------|    
D-55555555-66666666-33333333-55555555-66666666-33333333-5-6-5-6-5-6-5-|
A-33333333-66666666-11111111-55555555-66666666-33333333-5-6-5-6-5-6-5-|
E----------44444444----------33333333-44444444-11111111-3-4-3-4-3-4-3-|


Verse (1) x2

E-------------------------------------------------------------|
B-------------------------------------------------------------|    
G-5-55-5-55-----------3-33-3-33-------------------------------|    
D-5-55-5-55-6-66-6-66-3-33-3-33-5-55-5-55-6-66-6-66-3-33-3-33-|
A-3-33-3-33-6-66-6-66-1-11-1-11-5-55-5-55-6-66-6-66-3-33-3-33-|
E-----------4-44-4-44-----------3-33-3-33-4-44-4-44-1-11-1-11-|

then...

(On First Time)
E---------------|
B---------------|    
G---------------|    
D-5-6-5-6-5-6-5-|
A-5-6-5-6-5-6-5-|
E-3-4-3-4-3-4-3-|

(On Second Time)
E-----------|
B-----------|    
G-----------|    
D-5-6-5-6-x-|
A-5-6-5-6-x-|
E-3-4-3-4-x-|

Guitar 2 (Comes In on the second time)
E---------------------------------------------------------------|
B---------------------------------------------------------------|    
G-12-1212-12-1212-8-88-8-88-10-1010-10-1010-5-55-5-55-8-88-8-88-|    
D-x--x-x--x--x-x--x-xx-x-xx-x--x-x--x--x-x--x-xx-x-xx-x-xx-x-xx-|
A-10-1010-10-1010-6-66-6-66-8--8-8--8--8-8--3-33-3-33-6-66-6-66-|
E---------------------------------------------------------------|

E-----------------------|
B-----------------------|    
G-5-55-5-55-8-7-8-7-8-7-|    
D-x-xx-x-xx-x-x-x-x-x-x-|
A-3-33-3-33-6-5-6-5-6-5-|
E-----------------------|

Chorus

E-----------------------------------------|
B-----------------------------------------|  x2   
G---------------------5-55-5-55-5-55-5-55-|    
D-3-33-3-33-3-33-3-33-5-55-5-55-5-55-5-55-|
A-3-33-3-33-3-33-3-33-3-33-3-33-3-33-3-33-|
E-1-11-1-11-1-11-1-11---------------------|

E------------------------------------------------------|
B------------------------------------------------------|     
G----------33333333---------------------------33333333-|    
D-66666666-33333333-3333333333333333-66666666-33333333-|
A-66666666-11111111-3333333333333333-66666666-11111111-|
E-44444444----------1111111111111111-44444444----------|


Bridge (1) ( 1/2 of Intro Riff)

Guitar 1
E-------------------------------------------------|
B-------------------------------------------------|    
G-12-12-12-12-12-12-12-13-12-12-12-12-12-12-12-13-|    
D-x--x--x--x--x--x--x--x--x--x--x--x--x--x--x--x--|
A-10-10-10-10-10-10-10-11-10-10-10-10-10-10-10-11-|
E-------------------------------------------------|

E------------------------------------------------------------|
B------------------------------------------------------------|    
G-12-12-12-12-12-12-12-8-8-8-7-7-7-7-7-7-7-7-5-5-5-5-5-5-5-5-|    
D-x--x--x--x--x--x--x--x-x-x-x-x-x-x-x-x-x-x-x-x-x-x-x-x-x-x-|
A-10-10-10-10-10-10-10-6-6-6-5-5-5-5-5-5-5-5-3-3-3-3-3-3-3-3-|
E------------------------------------------------------------|

E-------------------------------|
B-------------------------------|    
G-8-8-8-8-8-8-8-8-7-8-7-8-7-8-7-|    
D-x-x-x-x-x-x-x-x-x-x-x-x-x-x-x-|
A-6-6-6-6-6-6-6-6-5-6-5-6-5-6-5-|
E-------------------------------|

Guitar 2
E---------------------------------------------------------------------|
B---------------------------------------------------------------------|  
G-55555555----------33333333------------------------------------------|    
D-55555555-66666666-33333333-55555555-66666666-33333333-5-6-5-6-5-6-5-|
A-33333333-66666666-11111111-55555555-66666666-33333333-5-6-5-6-5-6-5-|
E----------44444444----------33333333-44444444-11111111-3-4-3-4-3-4-3-|

Verse (2) x2

Guitar 1
E-------------------------------------------------------------|
B-------------------------------------------------------------|    
G-5-55-5-55-----------3-33-3-33-------------------------------|    
D-5-55-5-55-6-66-6-66-3-33-3-33-5-55-5-55-6-66-6-66-3-33-3-33-|
A-3-33-3-33-6-66-6-66-1-11-1-11-5-55-5-55-6-66-6-66-3-33-3-33-|
E-----------4-44-4-44-----------3-33-3-33-4-44-4-44-1-11-1-11-|

then...

(On First Time)
E---------------|
B---------------|    
G---------------|    
D-5-6-5-6-5-6-5-|
A-5-6-5-6-5-6-5-|
E-3-4-3-4-3-4-3-|

(On Second Time)
E-----------|
B-----------|    
G-----------|    
D-5-6-5-6-5-|
A-5-6-5-6-5-|
E-3-4-3-4-3-|

Guitar 2 (Comes In on the second time)
E---------------------------------------------------------------|
B---------------------------------------------------------------|    
G-12-1212-12-1212-8-88-8-88-10-1010-10-1010-5-55-5-55-8-88-8-88-|    
D-x--x-x--x--x-x--x-xx-x-xx-x--x-x--x--x-x--x-xx-x-xx-x-xx-x-xx-|
A-10-1010-10-1010-6-66-6-66-8--8-8--8--8-8--3-33-3-33-6-66-6-66-|
E---------------------------------------------------------------|

E-----------------------|
B-----------------------|    
G-5-55-5-55-8-7-8-7-8-7-|    
D-x-xx-x-xx-x-x-x-x-x-x-|
A-3-33-3-33-6-5-6-5-6-5-|
E-----------------------|


<<<Then Repeat Chorus>>>


Bridge (2)
 
Guitar 1
E-----0-------0-------3-------3---------0---------0-------0----------|
B-0h1---1-0-1---1-0h1---1-0-1---1-1-0-1---1-0h1-1---1-0-1---1-1-0--1-| x2   
G--------------------------------------------------------------------|    
D--------------------------------------------------------------------|
A--------------------------------------------------------------------|
E--------------------------------------------------------------------|

Guitar 2

E-0----2----3----3-|
B-0----3----3----3-|   x2  
G-0----2----0----0-|    
D-2----0----2----0-|
A-2----x----3----2-|
E-0----x----x----3-|


Chorus/Outro

E-----------------------------------------|
B-----------------------------------------|  x2   
G---------------------5-55-5-55-5-55-5-55-|    
D-3-33-3-33-3-33-3-33-5-55-5-55-5-55-5-55-|
A-3-33-3-33-3-33-3-33-3-33-3-33-3-33-3-33-|
E-1-11-1-11-1-11-1-11---------------------|

E-------------------------------------------------------|
B-------------------------------------------------------|     
G----------33333333-55555555-------------------33333333-|    
D-66666666-33333333-55555555-55555555-66666666-33333333-|
A-66666666-11111111-33333333-55555555-66666666-11111111-|
E-44444444-------------------33333333-44444444----------|

E---------------------|
B---------------------|     
G-55555555------------|    
D-55555555-5555-3-5-6-|
A-33333333-5555-3-5-6-|
E----------3333-1-3-4-|

E-------------------------------------------------------|
B-------------------------------------------------------|     
G----------33333333-55555555-------------------33333333-|    
D-66666666-33333333-55555555-55555555-66666666-33333333-|
A-66666666-11111111-33333333-55555555-66666666-11111111-|
E-44444444-------------------33333333-44444444----------|

E----------------------------------------------------------------|
B----------------------------------------------------------------|    
G-xx-5-55-5-55-----------3-33-3-33-------------------------------|    
D-xx-5-55-5-55-6-66-6-66-3-33-3-33-5-55-5-55-6-66-6-66-3-33-3-33-|
A-xx-3-33-3-33-6-66-6-66-1-11-1-11-5-55-5-55-6-66-6-66-3-33-3-33-|
E--------------4-44-4-44-----------3-33-3-33-4-44-4-44-1-11-1-11-|

E-------------|
B-------------|    
G-------------|    
D-5-6-5-6-5-6-|
A-5-6-5-6-5-6-|
E-3-4-3-4-3-4-|



////////////////////////////////////////////////////////////////////////



TRACK 13: You're Crashing, But You're No Wave


Standard Tuning (EADGBE)


Intro/Verse 1

Guitar 1
E--------------------------------------------------------|
B--------------------------------------------------------|    
G-x-x-7-77-77-7-777-9-99-99-9-999-12-1212-1212-12-121212-|    
D-x-x-x-xx-xx-x-xxx-x-xx-xx-x-xxx-x--x-x--x-x--x--x-x-x--|
A-x-x-5-55-55-5-555-7-77-77-7-777-10-1010-1010-10-101010-|
E--------------------------------------------------------|

E------------------------|
B------------------------|    
G-14-1414-1414-14-141414-|    
D-x--x-x--x-x--x--x-x-x--|
A-12-1212-1212-12-121212-|
E------------------------|

Guitar 2
E---------------|
B---------------|  x12     * on 7th and 8th time Guitar 
G-7-77-77-7-777-|            is played softer (hard to hear)
D-x-xx-xx-x-xxx-|
A-5-55-55-5-555-|
E---------------|

E-------------------|
B-----6-------------|   x2 
G-7p5---7-5h7p5h7p5-|    
D-------------------|
A-------------------|
E-------------------|

E------------|
B------------|    
G-------xxxx-|    
D-7~----xxxx-|
A-------xxxx-|
E------------|


Pre Chorus

E------------------|
B------------------|    x3
G-7777777777-------|    
D-7777777777-------|
A-5555555555-^7----|
E------------------|
                                  x2
E--------------------|
B--------------------|    
G--------------------|    
D--55555555-33333333-|
A--55555555-33333333-|
E--33333333-11111111-|


Chorus

E-----------------------------------------|
B-----------------------------------------|    
G-33333333--------------------------------|    
D-33333333-33333333-55555555-8888---------|
A-11111111-33333333-55555555-8888-----5-8-|
E----------11111111-33333333-6666-3-5-----|

E-----------------------------------------|
B-----------------------------------------|    
G-33333333--------------------------------|    
D-33333333-33333333-555555-7-8888---------|
A-11111111-33333333-555555-7-8888-5p3h5p3-|
E----------11111111-333333-5-6666---------|


Verse 2

Guitar 1
E----------------------------------------------------|
B----------------------------------------------------|    
G-7-77-77-7-777-9-99-99-9-999-12-1212-1212-12-121212-|    
D-x-xx-xx-x-xxx-x-xx-xx-x-xxx-x--x-x--x-x--x--x-x-x--|
A-5-55-55-5-555-7-77-77-7-777-10-1010-1010-10-101010-|
E----------------------------------------------------|

E------------------------|
B------------------------|    
G-14-1414-1414-14-141414-|    
D-x--x-x--x-x--x--x-x-x--|
A-12-1212-1212-12-121212-|
E------------------------|

Guitar 2
E---------------|      |---------|
B---------------|  x7  |---------|  
G-7-77-77-7-777-|      |-7----xx-|    
D-x-xx-xx-x-xxx-|      |-x----xx-|
A-5-55-55-5-555-|      |-5----xx-|
E---------------|      |---------|

E---------------|      
B---------------|  x4  
G-7-77-77-7-777-|         
D-x-xx-xx-x-xxx-|      
A-5-55-55-5-555-|      
E---------------|

E-------------------|
B-----6-------------|   x2 
G-7p5---7-5h7p5h7p5-|    
D-------------------|
A-------------------|
E-------------------|

E------------|
B------------|    
G-------xxxx-|    
D-7~----xxxx-|
A-------xxxx-|
E------------|


Pre Chorus

E------------------|
B------------------|    x3
G-7777777777-------|    
D-7777777777-------|
A-5555555555-^7----|
E------------------|
                                  x2
E--------------------|
B--------------------|    
G--------------------|    
D--55555555-33333333-|
A--55555555-33333333-|
E--33333333-11111111-|


Chorus 2

E-----------------------------------------|
B-----------------------------------------|    
G-33333333--------------------------------|    
D-33333333-33333333-55555555-8888---------|
A-11111111-33333333-55555555-8888-----5-8-|
E----------11111111-33333333-6666-3-5-----|

E----------------------------------|
B----------------------------------|    
G-33333333-------------------------|    
D-33333333-33333333-555555-7-8888--|
A-11111111-33333333-555555-7-8888--|
E----------11111111-333333-5-6666--|


Bridge

E-----------------------------------|
B-----------------------------------|    
G-------------5-7xx7-7--5xx---------|    
D-5xx5-3-8xx8-5-7xx7-7--5xx---------|
A-5xx5-3-8xx8-3-5xx5-5--3xx-7-8-7---|
E-3xx3-1-6xx6---------------------8-|

E-----------------------------|
B-----------------------------|    
G-------------5-7xx7-7-5xx5-5-|    
D-5xx5-3-8xx8-5-7xx7-7-5xx5-5-|
A-5xx5-3-8xx8-3-5xx5-5-3xx3-3-|
E-3xx3-1-6xx6-----------------|

E---------------------------------|
B---------------------------------|    
G-x77x77x77x3\--xx-5-7-9-10-9-7-5-|    
D-x77x77x77x----xx-x-x-x-x--x-x-x-|
A-x55x55x55x----xx-3-5-7-8--7-5-3-|
E---------------------------------|


Chorus 3

Guitar 1
E----------------------------------------|
B----------------------------------------|    
G-33333333-------------------------------|    
D-33333333-33333333-5555555-8888---------|
A-11111111-33333333-5555555-8888-----5-8-|
E----------11111111-3333333-6666-3-5-----|

E--------------------------------------|
B--------------------------------------|    
G-33333333-----------------------------|    
D-33333333-33333333-555555-7-8888-xxxx-|
A-11111111-33333333-555555-7-8888-xxxx-|
E----------11111111-333333-5-6666-xxxx-|

E-----------------------------------------|
B-----------------------------------------|    
G-33333333--------------------------------|    
D-33333333-33333333-55555555-8888---------|
A-11111111-33333333-55555555-8888-----5-8-|
E----------11111111-33333333-6666-3-5-----|

E-----------------------------------------|
B-----------------------------------------|    
G-33333333--------------------------------|    
D-33333333-33333333-555555-7-8888---------|
A-11111111-33333333-555555-7-8888---------|
E----------11111111-333333-5-6666-5p3h5p3-|


Guitar 2
E------------------------------|
B-6-6-6-6-6-6-6-6-6-6-6-6-6-6--|    
G--7-7-7-7-5-5-5-5-7-7-7-7-5-5-|    
D------------------------------|
A------------------------------|
E------------------------------|
                                      x2
E--------------------------------|
B-6-6-6-6-6-6-6-6-6-6-6-6-6-6-6\-|    
G--7-7-7-7-5-5-5-5-7-7-7-7-5-5---|    
D--------------------------------|
A--------------------------------|
E--------------------------------|



////////////////////////////////////////////////////////////////////////



TRACK 14: I've Got All This Ringing In My Ears And None On My Fingers


Standard Tuning (EADGBE)


Verse
E-----------------------------------------------------------|              
B-----------------------------------------------------------|       
G-8-88-8-88-8-88-8-88-11-10-1010-10-1010-10-1010-10-1010-13-|       
D-----------------------------------------------------------|          
A-----------------------------------------------------------|       
E-----------------------------------------------------------| 

E----------------------------------------------------|              
B----------------------------------------------------|       
G--13-1313-13-1313-13-1111-11-1111-11-8>----\6>------|       
D----------------------------------------------------|          
A----------------------------------------------------|       
E----------------------------------------------------| 


Chorus x2

Guitar 1
E-------------------------------------------------|              
B-------------------------------------------------|       
G-4-4-4-4-4-4-4-4-9-9-9-9-9-9-9-9-4-4-4-4-4-4-4-4-|       
D-x-x-x-x-x-x-x-x-x-x-x-x-x-x-x-x-x-x-x-x-x-x-x-x-|          
A-2-2-2-2-2-2-2-2-7-7-7-7-7-7-7-7-2-2-2-2-2-2-2-2-|       
E-------------------------------------------------|

E-------------------------------------------------|              
B-------------------------------------------------|       
G-4-4-4-4-4-4-4-4-3-3-3-3-3-3-3-3-4-4-4-4-4-4-4-4-|       
D-x-x-x-x-x-x-x-x-x-x-x-x-x-x-x-x-x-x-x-x-x-x-x-x-|          
A-2-2-2-2-2-2-2-2-1-1-1-1-1-1-1-1-2-2-2-2-2-2-2-2-|       
E-------------------------------------------------|

Guitar 2           
E-------------------------------------------------|              
B-------------------------------------------------|       
G-----------------9-9-9-9-9-9-9-9-----------------|       
D-9-9-9-9-9-9-9-9-9-9-9-9-9-9-9-9-9-9-9-9-9-9-9-9-|          
A-9-9-9-9-9-9-9-9-7-7-7-7-7-7-7-7-9-9-9-9-9-9-9-9-|       
E-7-7-7-7-7-7-7-7-----------------7-7-7-7-7-7-7-7-|         
  
E-------------------------------------------------|              
B-------------------------------------------------|       
G-------------------------------------------------|       
D-6-6-6-6-6-6-6-6-4-4-4-4-4-4-4-4-2-2-2-2-2-2-2-2-|          
A-6-6-6-6-6-6-6-6-4-4-4-4-4-4-4-4-2-2-2-2-2-2-2-2-|       
E-4-4-4-4-4-4-4-4-2-2-2-2-2-2-2-2-0-0-0-0-0-0-0-0-| 


Bridge  <effect>          
E------------------------------------------------------------|              
B------------------------------------------------------------|       
G--6-6-6-6-6-6h8p6\5---6-6-6-6-6-6h8p6\5----------------8-11-|       
D--------------------6-------------------6--9~-----9-11------|          
A------------------------------------------------9-----------|       
E------------------------------------------------------------|   
 
E----------------------------------------------------|              
B----------------------------------------------------|       
G--6-6-6-6-6-6h8p6\5---6-6-6-6-6-6h8p6\5-------------|       
D--------------------6-------------------6--9~-------|          
A----------------------------------------------------|       
E----------------------------------------------------| 


Pre Chorus
        .. . . . . .
E--------------------|              
B--------------------|       
G-4-----44-4-4-4-4-4-|      
D-4-----44-4-4-4-4-4-|          
A-2-----22-2-2-2-2-2-|       
E--------------------|
        .. . . . . .


<<Repeat Chorus + Bridge(with <effect> greater)>>


<<Repeat Chorus>>


Ending

Guitar 1
E-----------------------------|              
B-----------------------------|       
G-4-4-4-4-4-4-4-4-------------|       
D-x-x-x-x-x-x-x-x--2--1-------|          
A-2-2-2-2-2-2-2-2------2>-----|       
E-----------------------------|

Guitar 2
E-----------------------------|              
B-----------------------------|       
G-----------------------------|       
D-2-2-2-2-2-2-2-2>------------|          
A-2-2-2-2-2-2-2-2>------------|       
E-0-0-0-0-0-0-0-0>------------| 


////////////////////////////////////////////////////////////////////////
comments
print report bad tab
22 comments total. Showing first comments.
0 reply
pratt14 wrote on January 29 2007, 12:10 pm

Big time meh

0 reply
Whatsernamex wrote on January 29 2007, 02:34 pm

Hehe.. But i think its cool that you tabbed the whole cd. =) Ill try it out later;

0 reply
sharpestlives42 wrote on January 29 2007, 03:40 pm

Wow, you tabbed this so quickly, it's almost as if it was finished a week before the album came out (lol jk, i know its leaked)

I want to post or [tab]
guest
You may want to rate the tab now too:
select rating
Please do not post tabs as comments. Select "correction" instead!