Oops, an error
Loading. Please wait.

Take This To Your Grave Bass Tab

ver1
ver1

Album

Interactive

More versions @911Tabs.com
6,855 views 9 this week
1 commentread comment
1 2 3 4 5
accurate
x 4
Autoscroll
+/-
esc
set tempo
stop
Contributor
Hey! There's an official Ultimate Guitar app which is ideal
for learning songs when you're away from computer. Get the app
WARNING: You are trying to view
                                    content from Ultimate-Guitar.com
                                    in an unauthorized application,
                                    which is prohibited.

                                    Please use an official Ultimate
                                    Guitar Tabs application for iPhone,
                                    iPad or Android to access legitimate
                                    chords, guitar, bass, and drum tabs
                                    from Ultimate-Guitar.com database.

                                    Type "ultimate guitar tabs" in Apple
                                    App Store's or Android Market's
                                    search to find the application.
1."Tell That Mick He Just Made My List Of Things To Do Today"
Tuning = Standard EADG

INTRO (0.03)
G|-------------------------------------------------------------------|
D|-------------------------------------------------------------------|
A|-------------------------------------------------------------------|
E|-00000000000000000---------------00~~~~~~~~~~~~~~~00000000/99999999|

VERSE
G|----------------------------------|
D|----------------------------------|
A|---------44444444-----------------|
E|-00000000--------4444444455555777-|  X2
(3rd time)
G|----------------------------------|
D|----------------------------------|
A|---------44444444-----------------|
E|-00000000--------444444445-55-577-|
(4th time)
G|----------------------------------|
D|----------------------------------|
A|---------44444444-----------------|
E|-00000000--------4444444455555777-|

PRE CHORUS 
G|----------------------------------|
D|----------------------------------|
A|----------------------------------|
E|-0--------------------------------|

G|------------------------------------------------------------------|
D|------------------------------------------------------------------|
A|-----------------4~~~~~~~~~~~~~~~---------------------------------|
E|-0~~~~~~~~~~~~~~~----------------5~~~~~~~~~~~~~~~4~~~~~~~~~~~~~~~-|

CHORUS
G|----------------------------------|
D|----------------------------------|
A|-----------------44444444---------|
E|-5555555555555555--------77777797-|

G|----------------------------------|
D|----------------------------------|
A|-----------------4444-------------|
E|-5555555555555555------7777--7797-|

G|----------------------------------|
D|----------------------------------|
A|-----------------44444444---------|
E|-5555555555555555--------77777797-|

G|----------------------------------|
D|----------------------------------|
A|-----------------4444-------------|
E|-5555555555555555------7777--7797-|

PRE VERSE
G|----------------------------------|
D|----------------------------------|
A|-------44-------------------------|
E|-00----------44----55-55777-------| X2

G|----------------------------------|
D|----------------------------------|
A|---------44444444-----------------|
E|-00000000--------4444444455555777-| 

G|----------------------------------|
D|----------------------------------|
A|---------44444444-----------------|
E|-00000000--------444444445-55-577-|

VERSE
G|----------------------------------|
D|----------------------------------|
A|---------44444444-----------------|
E|-00000000--------4444444455555777-| X4

CHORUS
G|----------------------------------|
D|----------------------------------|
A|-----------------44444444---------|
E|-5555555555555555--------77777797-|

G|----------------------------------|
D|----------------------------------|
A|-----------------4444-------------|
E|-5555555555555555------7777--7797-|

G|----------------------------------|
D|----------------------------------|
A|-----------------44444444---------|
E|-5555555555555555--------77777797-|

G|----------------------------------|
D|----------------------------------|
A|-----------------4444-------------|
E|-5555555555555555------7777--7797-|

BRIDGE
G|----------------------------------|
D|----------------------------------|
A|-------44-------------------------|
E|-00----------44----55-55777-------| X2

G|----------------------------------|
D|----------------------------------|
A|---------44444444-----------------|
E|-00000000--------4444444455555777-| 

G|----------------------------------|
D|----------------------------------|
A|---------44444444-----------------|
E|-00000000--------4444444455555577-|

OUTRO
G|----------------------------------|
D|----------------------------------|
A|----------------------------------|
E|-0~~~~~~~~~~~~~~~~~~~~~~~~~~~~~~~~| X2

G|----------------------------------|
D|----------------------------------|
A|---------44444444-----------------|
E|-00000000--------4444444455555577-| X4
_____________________________________________________________
2.Dead On Arrival
Tuning = Standard

Standard Tuning

Intro - 4x                         
G |---------------------|-----------|
D |---------------------|-----------|
A |---------------------|-----------|
E |-1-1-1--5-5-5--3-3-3-|-0-4-5-4-0-|

Verse - 2x
G |----------------------------------------------------------------------|
D |----------------------------------------------------------------------|
A |3-3-3-3-3-3-3-3-------------------------------------------------------|
E |-----------------0-0--1-5--5-5-5--3--1-1-1-1-1-1-1-1-1-1-1-1--3-3-3-3-|

Pre Chorus
G |----------------------------------------------------------------|
D |----------------------------------------------------------------|
A |----------------------------------------------------------------|
E |-5-5-5-5-5-5-5-5--1-1-1-1-1-1-1-1--5-5-5-5-5-5-5-5--1-1--1--3-3-|

Chorus - 4x
G |-------------------------------------|
D |-------------------------------------|
A |-3-3--3------------------------------|
E |---------3-3--5-5--1-1--1--5-5---3-3-|

                                  3x
G |----------------------------------|
D |----------------------------------|
A |------------------3-3-3-3-3-3-3-3-|
E |-1-1-1-1-1-1-1-1------------------|

G |----------------------------------|
D |----------------------------------|
A |------------------3-3-3-3---------|
E |-1-1-1-1-1-1-1-1----------3-3-3-3-|

Verse 2x
Pre Chorus 
Chorus - 4x

G |----|-----|
D |----|-----|
A |----|-----|
E |-1~-|-1-1-|

                        4x
G |-------------------------|
D |-------------------------|
A |-------------------------|
E |--1-1--5-5--3-3-3--3-3-3-|

G |--|----------------------------------------------------------------|
D |--|----------------------------------------------------------------|
A |3~|----------------------------------------------------------------|
E |--|1-1-1-1-1-1-1-1-1-1-1-1-1-1-1-1-1-1-1-1-1-1-1-1-3-3-3-3-3-3-3-3-|

Bridge - 2x
G |-----|--------------------------|
D |-----|--------------------------|
A |-3-3-|--------------------------|
E |-----|-1-1--5-5-5--3-3-3--5-5-5-|

End Chorus - 6x
G |-------------------------------------|
D |-------------------------------------|
A |3-3-3-3------------------------------|
E |---------3-3--5-5--1-1-1-1--5-5--3-3-|

Outro
G |-------------|
D |-------------|
A |-----3-3-----|
E |-------------|
____________________________________________________________________
3.Grand Theft Autumn
Tuning = Drop D 

Intro
G --------------------------------------|
D --------------------------------------|
A -55555555--55555555--22222222--00000x-|
D --------------------------------------|

Verse
G --------------------------|------------------------|
D --------------------------|------------------------|
A -55-----------------------|-55---------------------|
D ----4-55--4-22--4-55-55-7-|----4-55--4-22--4-55-55-|

Pre Chorus 1
G ---------------------------------------|------------------------|
D ---------------------------------------|------------------------|
A -55555555--77777777--------------------|------------------------|
D --------------------00000000--55555555-|-55-55--77-77--00-00-0x-|

Chorus
G --------------------------------------------------------------|
D --------------------------------------------------------------|
A -22-----------------------------------------------------------|
D ----55--00--44--55--77--00--44--55--77-00000000-22222222/4h5--|

Intro
Verse

G ---------------------------------------|-------------------------|
D ---------------------------------------|-------------------------|
A -55555555--77777777--------------------|-------------------------|
D --------------------00000000--55555555-|-55-55--77-77--00-00-5-5-|

Chorus

Then
G --------|
D --------|
A -5~--5x-|
D --------|

Pre Bridge
G -------|
D -------|
A -9h10\-
D -------

Bridge - 4x
G -----------------------------------------------|
D ------7-5---5-------7-5---5--------------------|
A -2222-----7----0000-----7----------------------|
D -----------------------------00000000-55555555-|

Then
G ----
D ----
A -5x-
D ----

Post Bridge
G ------------------------------------------|
D ------------------------------------------|
A -5555--7777-------------------------------|
D ------------0000--5555--00000000-22222222-|

Last Chorus
G -------------------------------------------------------------------|
D -------------------------------------------------------------------|
A -55--------------------55----5555-------------------------------5x-|
D ----55--00--44--55--77----44------7777--00000000-22222222/4h5------|
_______________________________________________________________________
4.Saturday
Tuning = Standard

Intro
G ---------------------------------------|
D ---------------------------------------|
A ---------------------------------------|
E -44444444-77777777-0-00-00-00-99999999-|

G ---------------------------------------------|
D ---------------------------------------------|
A ---------------------------------------------|
E -00000000--44-66-77-7777--00000000--00000000-|

Verse 2x
G -------------------------------------|
D -------------------------------------|
A -------------------------------------|
E -44444444-77777777-99999999-77777777-|

G ------------|
D ------------|
A ---------7~-|
E -2~--4~-----|

Chorus 2x
G -----------------------------|
D -----------------------------|
A -----------------------------|
E -77777777-99999999-2222-0000-|

Post Chorus 2x
G --------------------------------|
D --------------------------------|
A --------------------------------|
E -7777x-6666x-9999x-12-12-12-12x-|

Verse 2x
Pre Chorus
Chorus 2x
Post Chorus 2x

G -------------------------------------------|
D -------------------------------------------|
A -----------------7~------------------------|
E -7~--0~--2~--4~-----7~--4~--0~--2~--4~--7x-|

Bridge 4x
G ------------------------|
D ------------------------|
A ------------------------|
E -0000--2222--4444--7777-|

Bridge Ending
G -----------------------|
D -----------------------|
A -----------------------|
E -7~--9999--12-12-12-12-|

Chorus
Post Chorus

Outro
G -------------|
D -------------|
A ----------7~-|
E -2--4--7-----|
__________________________________________________________________
5.Homesick At Space Camp
Tuning = Standard

Intro
G --------------------------------------------|
D --------------------------------------------|
A ------------22--4-5555--------------22--4-5-|
E -22--4-5555-------------22--4-5555----------|

Verse 2x
G ----------------------------------------|
D ----------------------------------------|
A ---------------------22222222--55555555-|
E -22222222--55555555---------------------|

Chorus 2x
G --------------------|
D --------------------|
A -----------222--555-|
E -555--222-----------|

Post Chorus
G --------------------------------------|
D --------------------------------------|
A --------------------------------------|
E -22222222--55555555--22222222--5-4-2X-|

Verse

Verse Part 2
G --------------------------------------|
D --------------------------------------|
A ---------------------22222222-----4-5-|
E -22222222--55555555------------5------|

Chorus 2x
Post Chorus

Bridge 5x
G ---------------------------------------|
D ---------------------------------------|
A ---------------------55555555-55555555-|
E -55555555--22222222--------------------|

Bridge Ending
G ----------------------------|
D ----------------------------|
A -------------------55-555---|
E -5555555--22222222--------5-|

Chorus 6x

End
E -5~--5-5--5-
___________________________________________________________
6.Sending Postcards From A Planecrash
Tuning = Standard 

Intro
G -------------------------------------------------------------------------|
D -------------------------------------------------------------------------|
A ---------------------------------5h7p5-----------------------------------|
E 0x--0000--2222--44-55-0000--2222-------7-0000--2222--44-55--0000--55555~-|

Pre Verse
G ----------------------------------|
D ----------------------------------|
A ----------------------------------|
E -00--22--44--55--00--22--44--5555-|

Verse 2x
G ------------------------|
D ------------------------|
A ------------------------|
E -0000--2222--4444--5555-|

Pre Chorus
G -------------------------------------------------------------------------|
D -------------------------------------------------------------------------|
A ------------------------------444-222-2h44-------------------------------|
E 55555555--22222222-4-55555555--------------55555555--22222222-4-55555555-|

Chorus 4x
G ------------------|
D ------------------|
A ------------------|
E -0--02--25--44-55-|

Verse 4x
Pre Chorus
Chorus 4x

Bridge
G ----------------------------------------------------------------|
D ----------------------------------------------------------------|
A ----------------------------------------------------------------|
E -22222222-44444444-55555555-00000000-22222222-44444444-55555555-|

G -------------------------------------------------|
D -------------------------------------------------|
A --------------5--8-7-6---------------------------|
E -000-2~--2-4------------7-5--000--2~--4~--5~--5x-|

Outro
G ---------------------------------------------|
D ---------------------------------------------|
A -444-222-2h44--------------------------------|
E --------------55555555--22222222-4-55555555/-|
____________________________________________________________________
7.Chicago Is So Two Years Ago 
Tuning = Standard

INTRO 1X

G---------------------------------------|----------------------------------|
D---------------------------------------|----------------------------------|
A---------------------------------------|----------------------------------|
E-1-1-1-1-1-3-3-3-3-3-0-0-0-0-0-1-1-1-1-1|1-1-1-1-1-3-3-3-3-3-0-0-0-0-0-1---|

VERSE 4X
G--------------------------------------------------------------------------|
D---------------------------------------------------------------------------|
A------3(X)-------------3(X)-----------------------------------------------|
E-1(X)------3(X)---0-0-------3(X)--1(X)------------------------------------|

PRE-CHORUS 3X
G--------------------------------------------------------------------------|
D--------------------------------------------------------------------------|
A--------------------------------------------------------------------------|
E-1-1-1-1-1-1-1-1-3-3-3-3-3-3-3-3-0-0-0-0-0-0-0-0-1-1-1-1-1-1-1-1-----------|

end on...
G--------------------------------------------------------------------------|
D--------------------------------------------------------------------------|
A--------------------------------------------------------------------------|
E-1-1-1-1-1-1-1-1-3-3-3-3-3-3-3-3-0-0-0-0-0-0-0-0---------------------------|

CHORUS 3X
G--------------------------------------------------------------------------|
D--------------------------------------------------------------------------|
A-----------------3-3-------------------------------------------------------
E-55(X)-5(X)-5(X)------11(X)-1(X)-1(X)-3-3----------------------------------|

CHORUS CONT'D 1X
G---------------------------------------------------------------------------
D---------------------------------------------------------------------------
A-------22(X)---------------------------------------------------------------
E-55(X)-------11(X)--1-1-1-1-1-1-1-1----------------------------------------

BRIDGE 3X
G---------------------------------------------------------------------------
D---------------------------------------------------------------------------
A---------------------------------------------------------------------------
E-1-1-1-1-1-1-1-1-3-3-3-3-3-3-3-3-0-0-0-0-0-0-0-0-0-0-0-0-0-0-0-0-----------

G---------------------------------------------------------------------------
D---------------------------------------------------------------------------
A---------------------------------------------------------------------------
E-1-1-1-1-1-1-1-1-3-3-3-3-3-3-3-3-0-0-0-0-0-0-0-0-0(X)----------------------
________________________________________________________________________
8.The Pros And Cons Of Breathing 
Tuning = Standard

Intro:


G---------------------------------------|
D---------------------------------------|   x2
A---------2-----------------------------|
E---4--0-----2--0--2--------------------|


Verse:


G---------------------------------------|
D---------------------------------------|   x3
A---------------------------------------|
E---44444--00000--22222--0000--2--------|


G---------------------------------------|
D---------------------------------------|   x1
A---------------------------------------|
E---444444--666666--000000000000--------|


Chorus:


G---------------------------------------|
D---------------------------------------|   x1
A---------------------------------------|
E---444--000000--22222--000000--2-------|


G---------------------------------------|
D---------------------------------------|   x1
A---------------------------------------|
E---44444--66666--00000000000-----------|


G---------------------------------------|
D---------------------------------------|   x2
A----------------22222--444--666--------|
E---00000000000-------------------------|


G---------------------------------------|
D---------------------------------------|   x2
A---------------------2-2-222--444--666-|
E---0-0-000-0-0--0-0--------------------|


(play everything over again)


Bridge:


G---------------------------------------|
D---------------------------------------|   x4
A---------------------------------------|
E---4--44--4444--6666--7777--0000-------|


Outro:


G---------------------------------------|
D---------------------------------------|   x2
A---------------------------------------|
E---44444--00000--22222--0000--2--------|


G---------------------------------------|
D---------------------------------------|   x2
A---------------------------------------|
E---44444--66666--00000--22222----------|
______________________________________________________________
9.Grenade Jumper
Tuning = Standard

Intro 2x
G -------------------------------------|
D -------------------------------------|
A -555---------------------------------|
E -----5--333--5--777--222--33333333-5-|

Verse 2x
G ----------------------------------|
D ----------------------------------|
A ----------------------------------|
E -7777--6666--5555--4444--33333333-|

G --------------------------|
D --------------------------|
A --------------------------|
E -/12-12-12-12-12-12-12-12-|

Pre Chorus
G --------------------------------|----------|
D --------------------------------|----------|
A --------------------------------|----------|
E -000-2-3333-5-777-222--33333--5-|-000-2-3~-|

Chorus 2x
G ------------------------------|
D ------------------------------|
A -5555-------------------------|
E ------5--3333--5--77-22--3333-|

Post Chorus 2x
G -----------------------|
D -----------------------|
A -5555------------------|
E ------3333--5555--5555-|

G ----------------|
D -4--------------|
A ----7-5-7-5-----|
E ------------7-5-|

Verse 2x

G ----------|
D ----------|
A ----------|
E -33333333-

Pre Chorus
Chorus 4x
Post Chorus 4x

Bridge
G ----|-------------------|--------|
D ----|-------------------|--------|
A -5~-|-55555555-55555555-|-55555x-|
E ----|-------------------|--------|

Chorus Variation 3x
G ------------------------|
D ------------------------|
A -5555-------------------|
E ------3333--77-22--3333-|

Last Chorus
G ----------------------------|
D ----------------------------|
A -5555-----------------------|
E ------3333--77-22--3333--5~-|
_________________________________________________
10.Calm Before The Storm
Tuning = Standard

Intro
G |---------|   
D |---------|                           
A |-5~---5x-| 
E |---------|

Verse 1 - 2x
G |------------------------|-----------------------------------|
D |------------------------|-----------------------------------|
A |------------------------|-----------------------2-4-2-------|
E |-5555--0000--2222--0000-|-5555--4444--2222--2-4-------4-2-4-|

Chorus 3x
G |-----------------------------|
D |-------7------11------9------|
A |-55555---5/99----9\77---7\---|
E |-----------------------------|

Chorus Ending
G |-----------------------------|
D |-------7------11---------7-9-|
A |555555---5/99----9--7-9------|
E |-----------------------------|

Post Chorus - 2x
G |---------------------------------|
D |---------------------------------|
A |---------------------------------|
E |-55-55--00-00--22-22--5555--0000-|

Verse 2 - 4x
G |-----------------------|
D |-----------------------|
A |------------55-44-2222-|
E |-5555--2222------------|

Verse 1 - 2x
Chorus - 3x
Chorus Ending
Post Chorus - 2x
                    3x
G |---------------------|
D |---------------------|
A |-55555555------------|
E |----------2222--0000-|

Then
G |-----------|
D |-----------|
A |-55555555--|
E |-----------|

Bridge 4x different rythym
G |-----------------------------------|
D |-----------------------------------|
A |-5-5-5-5-5-5-5-5-------------------|
E |------------------2-2-2-2--0-0-0-0-|

G |----------|
D |----------|
A |----------|
E |----5~----|

Bridge
G |---------------------|
D |---------------------|
A |---------------------|
E |-22222222--5555-0000-|

G |---------------------|
D |---------------------|  x3
A |---------------------|
E |-55555555--00000000--|

Outro
G |----------------------|
D |----------------------|
A |----------------------|
E |-55555555--5~--0~--5~-|

________________________________________________________
11.Reinventing The Wheel To Run Myself Over 
Tuning = Standard

Intro
G|--------------------------------------------------------|
D|--------------------------------------------------------|
A|--------------------------------------------------------|
E|-777555777777999999000000000000777777999999000000000000-|

Verse
G|--------------------------------------------------------------|
D|--------------------------------------------------------------|
A|--------------------------------------------------------------|
E|-777777779999999900000000000000007777777799999999-00-00-00-00-|

G|--------------------------------------------------------------|
D|--------------------------------------------------------------|
A|--------------------------------------------------------------|
E|-777777779999999900000000000000007777777799999999-00-00-00-45-|

Pre-chorus
G|-----------------------------------------------------------------------------------------------|
D|-----------------------------------------------------------------------------------------------|
A|-----------------------------------------------------------------------------------------------|
E|-22222222222222220000000000000000444444444444444400000000000000002222222222222222-0-0-0-0-0000-|

Chorus
G|-----------------------------------------------------------------|
D|-----------------------------------------------------------------|
A|-----------------------------------------------------------------|
E|-7-------9-------0-------444-222-7-------5-------9-------444-222-|

G|-----------------------------------------------------------------|
D|-----------------------------------------------------------------|
A|-----------------------------------------------------------------|
E|-7-------9-------0-------444-222-7-------5-------9-------444-222-|

Next bit
G|------------------------------------------------------------------|
D|------------------------------------------------------------------|
A|------------------------------------------------------------------|
E|-7777777799999999000000000000000077777777999999990000000000000000-|

G|------------------------------------------------------------------|
D|------------------------------------------------------------------|
A|------------------------------------------------------------------|
E|-7777777799999999000000000000000077777777999999990000000000000045-|

Pre Chorus
G|------------------------------------------------------------------------------------------------|
D|------------------------------------------------------------------------------------------------|
A|------------------------------------------------------------------------------------------------|
E|222222222222222200000000000000004444444444444444000000000000000022222222222222220000000000000000|

Chorus
G|-----------------------------------------------------------------|
D|-----------------------------------------------------------------|
A|-----------------------------------------------------------------|
E|-7-------9-------0-------444-222-7-------5-------9-------444-222-|

G|-----------------------------------------------------------------|
D|-----------------------------------------------------------------|
A|-----------------------------------------------------------------|
E|-7-------9-------0-------444-222-7-------5-------9-------7775557-|

Bridge (after guitar bit)
G|---------------------------|
D|---------------------------|
A|---------------------------|
E|-7-------9\0~~~~~~~444-222-|

Outro
G|-----------------------------------------------------------------|
D|-----------------------------------------------------------------|
A|-----------------------------------------------------------------|
E|-777777779999999900000000444-222-777777779999999900000000444-222-|

G|---------------------------------------------------------|
D|---------------------------------------------------------|
A|---------------------------------------------------------|
E|-777777779999999900000000444-222-77777777999999990-0-0-0-|

____________________________________________________________
12.The Patron Saint Of Liars And Fakes
Tuning = Drop D


Intro
G|------------------------------------------|
D|------------------------------------------| x3
A|------------------------------------------|
D|0-0-0--0-0-8-8-8-8-3-3-3-3-3-3-2-2-2-2-2-2|

G|-------|
D|-------|
A|-------|
D|0-0-0-0|

Verse 1

"I'm holding..."
G|-----------------------------------------------|
D|-----------------------------------------------|
A|-----------------------------------------------|
D|3-3-3-3-3-3-0-0-0-0-0-0-7-7-7-7-7-7-8-8-8-8-8-8|

"Too every..."
G|-----------------------------------------------|
D|-----------------------------------------------|
A|-----------------------------------------------|
D|2-2-2-2-2-2-3-3-3-3-3-3-8-8-8-8-8-8-8-8-8-8-8-8|

"I pulled..."
G|-----------------------------------------------|
D|-----------------------------------------------|
A|-----------------------------------------------|
D|3-3-3-3-3-3-0-0-0-0-0-0-7-7-7-7-7-7-8-8-8-8-8-8|

"You through..."
G|-----------------------------------------------|
D|-----------------------------------------------|
A|-----------------------------------------------|
D|2-2-2-2-2-2-3-3-3-3-3-3-8-8-8-8-8-8-8-8-8-8-8-8|

Chorus

"And when..."
G|-----------------------------------------------------|
D|-----------------------------------------------------|
A|------------8-8-8-8-8-8------------------------------|
D|8-8-8-8-8-8-------------0-0-0-0-0-0-10-10-10-10-10-10|

"Me your..."
G|-----------------------------------------------------------|
D|-----------------------------------------------------------|
A|------------8-8-8-8-8-8------------------------------------|
D|8-8-8-8-8-8-------------10-10-10-10-10-10-10-10-10-10-10-10|

"And when..."
G|-----------------------------------------------------|
D|-----------------------------------------------------|
A|------------8-8-8-8-8-8------------------------------|
D|8-8-8-8-8-8-------------0-0-0-0-0-0-10-10-10-10-10-10|

"Me your..."
G|-----------------------------------------------------------|
D|-----------------------------------------------------------|
A|------------8-8-8-8-8-8------------------------------------|
D|8-8-8-8-8-8-------------10-10-10-10-10-10-10-10-10-10-10-10|

Pre-Verse
G|------------------------------------------|
D|------------------------------------------|
A|------------------------------------------|
D|0-0-0--0-0-8-8-8-8-3-3-3-3-3-3-2-2-2-2-2-2|

G|--------------------------------|
D|--------------------------------|
A|--------------------------------|
D|0-0-0--0-0-8-8-8-8-3-3-3-3-3-3-2|


Verse 2

"I'm all..."
G|-----------------------------------------------|
D|-----------------------------------------------|
A|-----------------------------------------------|
D|3-3-3-3-3-3-0-0-0-0-0-0-7-7-7-7-7-7-8-8-8-8-8-8|

"Too hear..."
G|-----------------------------------------------|
D|-----------------------------------------------|
A|-----------------------------------------------|
D|2-2-2-2-2-2-3-3-3-3-3-3-8-8-8-8-8-8-8-8-8-8-8-8|

"Too look..."
G|-----------------------------------------------|
D|-----------------------------------------------|
A|-----------------------------------------------|
D|3-3-3-3-3-3-0-0-0-0-0-0-7-7-7-7-7-7-8-8-8-8-8-8|

"But I..."
G|-----------------------------------------------|
D|-----------------------------------------------|
A|-----------------------------------------------|
D|2-2-2-2-2-2-3-3-3-3-3-3-8-8-8-8-8-8-8-8-8-8-8-8|

Chorus

"And when..."
G|-----------------------------------------------------|
D|-----------------------------------------------------|
A|------------8-8-8-8-8-8------------------------------|
D|8-8-8-8-8-8-------------0-0-0-0-0-0-10-10-10-10-10-10|

"Me your..."
G|-----------------------------------------------------------|
D|-----------------------------------------------------------|
A|------------8-8-8-8-8-8------------------------------------|
D|8-8-8-8-8-8-------------10-10-10-10-10-10-10-10-10-10-10-10|

"And when..."
G|-----------------------------------------------------|
D|-----------------------------------------------------|
A|------------8-8-8-8-8-8------------------------------|
D|8-8-8-8-8-8-------------0-0-0-0-0-0-10-10-10-10-10-10|

"Me your..."
G|-----------------------------------------------------------|
D|-----------------------------------------------------------|
A|------------8-8-8-8-8-8------------------------------------|
D|8-8-8-8-8-8-------------10-10-10-10-10-10-10-10-10-10-10-10|

"And when..."
G|-----------------------------------------------------|
D|-----------------------------------------------------|
A|------------8-8-8-8-8-8------------------------------|
D|8-8-8-8-8-8-------------0-0-0-0-0-0-10-10-10-10-10-10|

"Me your..."
G|-----------------------------------------------------------|
D|-----------------------------------------------------------|
A|------------8-8-8-8-8-8------------------------------------|
D|8-8-8-8-8-8-------------10-10-10-10-10-10-10-10-10-10-10-10|

"Take this..."
G|-----------------------------------------------------|
D|-----------------------------------------------------|
A|------------8-8-8-8-8-8------------------------------|
D|8-8-8-8-8-8-------------0-0-0-0-0-0-10-10-10-10-10-10|

"I'll take..."
G|-----------------------------------------------------------|
D|-----------------------------------------------------------|
A|------------8-8-8-8-8-8------------------------------------|
D|8-8-8-8-8-8-------------10-10-10-10-10-10-10-10-10-10-10-10|

Bridge
G|-----------------------|
D|-----------------------| x4
A|------8-8-8-------7-7-7|
D|0-0-0-------3-3-3------|

Outro
"and when it all goes to hell!"
G|------------------------------------------|
D|------------------------------------------| x3
A|------------------------------------------|
D|0-0-0--0-0-8-8-8-8-3-3-3-3-3-3-2-2-2-2-2-2|

"And when its all goes!"
G|------------------------------------------|
D|------------------------------------------|
A|------------------------------------------|
D|0-0-0--0-0-8-8-8-8-3-3-3-3-3-3-2-2-2-2-2-2|

G|---------------|
D|---------------|
A|---------------|
D|0-0-0-0---8-8-0|
comments
print report bad tab
1 comment total.
0 reply
ryanplaysbass wrote on October 21 2009, 06:26 pm

dude i played the whole cd with this tab and it's perfect

I want to post or [tab]
guest
You may want to rate the tab now too:
select rating
Please do not post tabs as comments. Select "correction" instead!