Oops, an error
Loading. Please wait.

Born To Lead Tab

5,527 views 63 this week
2 commentsread comments
1 2 3 4 5
excellent!
x 4
Autoscroll
+/-
esc
set tempo
stop
Contributor
Difficulty
Tuning
advanced
C G C F A D
WARNING: You are trying to view
                                    content from Ultimate-Guitar.com
                                    in an unauthorized application,
                                    which is prohibited.

                                    Please use an official Ultimate
                                    Guitar Tabs application for iPhone,
                                    iPad or Android to access legitimate
                                    chords, guitar, bass, and drum tabs
                                    from Ultimate-Guitar.com database.

                                    Type "ultimate guitar tabs" in Apple
                                    App Store's or Android Market's
                                    search to find the application.
----------------------------------------------------------------------------
                          Born To Lead
                        Falling In Reverse
----------------------------------------------------------------------------

Falling In Reverse went all out on this song. “Born To Lead” is, instrumentally, a 
hard-hitting, fast paced monster of a song that will make most guitar players question their 
playing abilities (including myself). I advise all amateur/novice players to avoid 
the guitar solo. Enjoy!

Username: dkm817 (same on X box live)
Youtube Cover: http://www.youtube.com/watch?v=iQx1Z7m__Uk
Email: guitardrums@rockfan.com

Guitar 1 Rhythmic (C G C F A D)
Guitar 2 Lead     (C G C F A D)
Guitar 3 Lead     (C G C F A D)

NOTE: This was exported off of guitar pro.


Guitar 1

                                                      H        Q    E  E
D||-------|-------|-------|-------|-------|-------|-----------------------|
A||-------|-------|-------|-------|-------|-------|-----------------------|
F||-------|-------|-------|-------|-------|-------|--10--------3----7--7--|
C||-------|-------|-------|-------|-------|-------|--10--------3----7--7--|
G||-------|-------|-------|-------|-------|-------|---8--------1----5--5--|
C||-------|-------|-------|-------|-------|-------|-----------------------|


             Pickslide
  H          X         X    X    X    X    X    X    X    X    X    X    X    X
-----------(30)------(29)-(28)-(27)-(26)-(25)-(24)-(23)-(22)-(21)-(20)-(19)-(18--|
-----------(30)------(29)-(28)-(27)-(26)-(25)-(24)-(23)-(22)-(21)-(20)-(19)-(18--|
--5------------------------------------------------------------------------------|
--5------------------------------------------------------------------------------|
--3------------------------------------------------------------------------------|
---------------------------------------------------------------------------------|


  S S S S S S S S S S S S S S S S    S S S S S S S S S S S S S S S S
----------------------------------|----------------------------------|
----------------------------------|----------------------------------|
--7-7-7-7-7-7-7-7-7-7-7-7-7-7-7-7-|--5-5-5-5-5-5-5-5-5-5-5-5-5-5-5-5-|
--7-7-7-7-7-7-7-7-7-7-7-7-7-7-7-7-|--5-5-5-5-5-5-5-5-5-5-5-5-5-5-5-5-|
--5-5-5-5-5-5-5-5-5-5-5-5-5-5-5-5-|--3-3-3-3-3-3-3-3-3-3-3-3-3-3-3-3-|
----------------------------------|----------------------------------|


                                                              \1/
   S  S  S  S  S  S  S  S S S S S S S S S    S S S S S S S S  Q    E  E
------------------------------------------|------------------------------|
------------------------------------------|------------------------------|
--10-10-10-10-10-10-10-10-3-3-3-3-7-7-7-7-|--5-5-5-5-5-5-5-5-10----L-----|
--10-10-10-10-10-10-10-10-3-3-3-3-7-7-7-7-|--5-5-5-5-5-5-5-5-------------|
---8--8--8--8--8--8--8--8-1-1-1-1-5-5-5-5-|--3-3-3-3-3-3-3-3-------------|
------------------------------------------|------------------------------|


    PM PM PM PM PM PM PM PM PM PM PM PM PM PM PM PM PM PM PM PM PM PM PM PM PM P
  S T  T  T  T  T  T  T  T  T  T  T  T  T  T  T  T  T  T  T  T  T  T  T  T  T  T
---------------------------------------------------------------------------------|
---------------------------------------------------------------------------------|
--7------------------------------------------------------------------------------|
--7------------------------------------------------------------------------------|
--5-5--5--5--5--5--5--5--5--5--5--5--5--5--5--5--5--5--5--5--5--5--5--5--5--5--5-|
---------------------------------------------------------------------------------|


    PM PM PM PM PM PM PM PM PM PM PM PM PM PM PM PM PM PM PM PM PM PM PM PM PM P
  S T  T  T  T  T  T  T  T  T  T  T  T  T  T  T  T  T  T  T  T  T  T  T  T  T  T
---------------------------------------------------------------------------------|
---------------------------------------------------------------------------------|
--5------------------------------------------------------------------------------|
--5------------------------------------------------------------------------------|
--3-3--3--3--3--3--3--3--3--3--3--3--3--3--3--3--3--3--3--3--3--3--3--3--3--3--3-|
---------------------------------------------------------------------------------|


     PM PM PM PM PM PM PM PM PM PM PM PM PM PM   PM PM PM PM PM PM   PM PM PM PM
   S T  T  T  T  T  T  T  T  T  T  T  T  T  T  S T  T  T  T  T  T  S T  T  T  T
--------------------------------------------------------------------------------|
--------------------------------------------------------------------------------|
--10-------------------------------------------3-------------------7------------|
--10-------------------------------------------3-------------------7------------|
---8-8--8--8--8--8--8--8--8--8--8--8--8--8--8--1-1--1--1--1--1--1--5-5--5--5--5-|
--------------------------------------------------------------------------------|


    PM PM PM PM PM PM PM PM PM PM PM PM PM PM
  S T  T  T  T  T  T  T  T  T  T  T  T  T  T  Q      Q
-----------------------------------------------------------|
-----------------------------------------------------------|
--5-------------------------------------------5------------|
--5-------------------------------------------5----/12\----|
--3-3--3--3--3--3--3--3--3--3--3--3--3--3--3--3----/12\----|
---------------------------------------------------/12\----|


    PM PM PM PM PM PM PM PM PM PM PM PM PM PM   PM PM PM PM   PM PM   PM PM
  S T  T  T  T  T  T  T  T  T  T  T  T  T  T  S T  T  T  T  S T  T  S T  T  S
------------------------------------------------------------------------------|
------------------------------------------------------------------------------|
--7-------------------------------------------7-------------7-----------------|
--7-------------------------------------------7-------------7-------7-------7-|
--5-5--5--5--5--5--5--5--5--5--5--5--5--5--5--5-5--5--5--5--5-5--5----5--5----|
------------------------------------------------------------------------------|


    PM PM PM PM PM PM PM PM PM PM PM PM PM PM   PM PM PM PM   PM PM   PM PM
  S T  T  T  T  T  T  T  T  T  T  T  T  T  T  S T  T  T  T  S T  T  S T  T  S
------------------------------------------------------------------------------|
------------------------------------------------------------------------------|
--5-------------------------------------------5-------------5-------5-------5-|
--5-------------------------------------------5-------------5-------5-------5-|
--3-3--3--3--3--3--3--3--3--3--3--3--3--3--3--3-3--3--3--3--3-3--3--3-3--3--3-|
------------------------------------------------------------------------------|


     PM PM PM PM PM PM PM PM PM PM PM PM PM PM   PM PM PM PM PM PM   PM PM PM PM
   S T  T  T  T  T  T  T  T  T  T  T  T  T  T  S T  T  T  T  T  T  S T  T  T  T
--------------------------------------------------------------------------------|
--------------------------------------------------------------------------------|
--10-------------------------------------------3-------------------7------------|
--10-------------------------------------------3-------------------7------------|
---8-8--8--8--8--8--8--8--8--8--8--8--8--8--8--1-1--1--1--1--1--1--5-5--5--5--5-|
--------------------------------------------------------------------------------|


    PM PM PM PM PM PM PM PM PM PM PM PM PM PM PM PM PM PM PM PM PM PM PM PM PM P
  S T  T  T  T  T  T  T  T  T  T  T  T  T  T  T  T  T  T  T  T  T  T  T  T  T  T
---------------------------------------------------------------------------------|
---------------------------------------------------------------------------------|
--5------------------------------------------------------------------------------|
--5------------------------------------------------------------------------------|
--3-3--3--3--3--3--3--3--3--3--3--3--3--3--3--3--3--3--3--3--3--3--3--3--3--3--3-|
---------------------------------------------------------------------------------|


  H        H
--------------------|
--------------------|
--3-----------------|
--3--------0--------|
--1--------0--------|
-----------0--------|


    PM PM PM PM PM PM PM PM PM PM PM PM PM PM   PM PM PM PM PM PM
  S T  T  T  T  T  T  T  T  T  T  T  T  T  T  S T  T  T  T  T  T  E  E
------------------------------------------------------------------------|
------------------------------------------------------------------------|
--5-------------------------------------------7-------------------7--2--|
--5-------------------------------------------7-------------------7--2--|
--3-3--3--3--3--3--3--3--3--3--3--3--3--3--3--5-5--5--5--5--5--5--5--0--|
------------------------------------------------------------------------|


  H        H
--------------------|
--------------------|
--3-----------------|
--3--------0--------|
--1--------0--------|
-----------0--------|


  PM PM PM PM PM PM PM PM PM PM PM PM PM PM PM PM
  T  T  T  T  T  T  T  T  T  T  T  T  T  T  T  T   S S S S S S S S
-------------------------------------------------------------------|
-------------------------------------------------------------------|
--------------------------------------------------10---------------|
--------------------------------------------------10---------------|
--8--8--8--8--8--8--8--8--8--8--8--8--8--8--8--8---8---------------|
-------------------------------------------------------------------|


   E   E   E   E   E   E   E   E     E  E  E  E  E  E  E  E
----------------------------------|--------------------------|
----------------------------------|--------------------------|
--10--10--10--10--10--10--12--12--|--9--9--9--9--5--5--5--5--|
---x---x---x---x---x---x---x---x--|--x--x--x--x--x--x--x--x--|
---8---8---8---8---8---8--10--10--|--7--7--7--7--3--3--3--3--|
----------------------------------|--------------------------|


   E   E   E   E   E   E   E   E     E  E  E  E  S S E   E   E
----------------------------------|-----------------------------|
----------------------------------|-----------------------------|
--10--10--10--10--10--10--12--12--|--9--9--9--9--9-9-9--10--10--|
---x---x---x---x---x---x---x---x--|--x--x--x--x--x-x-x---x---x--|
---8---8---8---8---8---8--10--10--|--7--7--7--7--7-7-7---8---8--|
----------------------------------|-----------------------------|


   E   E   E   E  E  E  E  E      E   E   E   E  E  E  E  E
------------------------------|------------------------------|
------------------------------|------------------------------|
--14--14--14--14--9--9--9--9--|--10--10--10--10--3--3--3--3--|
---x---x---x---x--x--x--x--x--|---x---x---x---x--x--x--x--x--|
--12--12--12--12--7--7--7--7--|---8---8---8---8--1--1--1--1--|
------------------------------|------------------------------|


   E   E   E   E   E   E   E   E
----------------------------------|
----------------------------------|
--10--10--10--10--12--12--10--10--|
---x---x---x---x---x---x---x---x--|
---8---8---8---8--10--10---8---8--|
----------------------------------|


                PM PM   PM PM   PM PM   PM PM    \1/
  E  E  E  E  S T  T  S T  T  S T  T  S T  T     H
----------------------------------------------|-----------|
----------------------------------------------|-----------|
--9--9--9--9--5-------5-------5-------5-------|-----------|
--x--x--x--x--5-------5-------5-------5-------|--5--------|
--7--7--7--7--3-3--3--3-3--3--3-3--3--3-3--3--|-----------|
----------------------------------------------|-----------|


    PM PM PM PM PM PM PM PM PM PM PM PM PM PM PM PM PM PM PM PM PM PM PM PM PM P
  S T  T  T  T  T  T  T  T  T  T  T  T  T  T  T  T  T  T  T  T  T  T  T  T  T  T
---------------------------------------------------------------------------------|
---------------------------------------------------------------------------------|
--7------------------------------------------------------------------------------|
--7------------------------------------------------------------------------------|
--5-5--5--5--5--5--5--5--5--5--5--5--5--5--5--5--5--5--5--5--5--5--5--5--5--5--5-|
---------------------------------------------------------------------------------|


    PM PM PM PM PM PM PM PM PM PM PM PM PM PM PM PM PM PM PM PM PM PM PM PM PM P
  S T  T  T  T  T  T  T  T  T  T  T  T  T  T  T  T  T  T  T  T  T  T  T  T  T  T
---------------------------------------------------------------------------------|
---------------------------------------------------------------------------------|
--5------------------------------------------------------------------------------|
--5------------------------------------------------------------------------------|
--3-3--3--3--3--3--3--3--3--3--3--3--3--3--3--3--3--3--3--3--3--3--3--3--3--3--3-|
---------------------------------------------------------------------------------|


     PM PM PM PM PM PM PM PM PM PM PM PM PM PM   PM PM PM PM PM PM   PM PM PM PM
   S T  T  T  T  T  T  T  T  T  T  T  T  T  T  S T  T  T  T  T  T  S T  T  T  T
--------------------------------------------------------------------------------|
--------------------------------------------------------------------------------|
--10-------------------------------------------3-------------------7------------|
--10-------------------------------------------3-------------------7------------|
---8-8--8--8--8--8--8--8--8--8--8--8--8--8--8--1-1--1--1--1--1--1--5-5--5--5--5-|
--------------------------------------------------------------------------------|


    PM PM PM PM PM PM PM PM PM PM PM PM PM PM
  S T  T  T  T  T  T  T  T  T  T  T  T  T  T  Q      Q
-----------------------------------------------------------|
-----------------------------------------------------------|
--5-------------------------------------------5------------|
--5-------------------------------------------5----/12\----|
--3-3--3--3--3--3--3--3--3--3--3--3--3--3--3--3----/12\----|
---------------------------------------------------/12\----|


    PM PM PM PM PM PM PM PM PM PM PM PM PM PM   PM PM PM PM   PM PM   PM PM
  S T  T  T  T  T  T  T  T  T  T  T  T  T  T  S T  T  T  T  S T  T  S T  T  S
------------------------------------------------------------------------------|
------------------------------------------------------------------------------|
--7-------------------------------------------7-------------7-----------------|
--7-------------------------------------------7-------------7-------7-------7-|
--5-5--5--5--5--5--5--5--5--5--5--5--5--5--5--5-5--5--5--5--5-5--5----5--5----|
------------------------------------------------------------------------------|


    PM PM PM PM PM PM PM PM PM PM PM PM PM PM   PM PM PM PM   PM PM   PM PM
  S T  T  T  T  T  T  T  T  T  T  T  T  T  T  S T  T  T  T  S T  T  S T  T  S
------------------------------------------------------------------------------|
------------------------------------------------------------------------------|
--5-------------------------------------------5-------------5-------5-------5-|
--5-------------------------------------------5-------------5-------5-------5-|
--3-3--3--3--3--3--3--3--3--3--3--3--3--3--3--3-3--3--3--3--3-3--3--3-3--3--3-|
------------------------------------------------------------------------------|


     PM PM PM PM PM PM PM PM PM PM PM PM PM PM   PM PM PM PM PM PM   PM PM PM PM
   S T  T  T  T  T  T  T  T  T  T  T  T  T  T  S T  T  T  T  T  T  S T  T  T  T
--------------------------------------------------------------------------------|
--------------------------------------------------------------------------------|
--10-------------------------------------------3-------------------7------------|
--10-------------------------------------------3-------------------7------------|
---8-8--8--8--8--8--8--8--8--8--8--8--8--8--8--1-1--1--1--1--1--1--5-5--5--5--5-|
--------------------------------------------------------------------------------|


    PM PM PM PM PM PM PM PM PM PM PM PM PM PM PM PM PM PM PM PM PM PM PM PM PM P
  S T  T  T  T  T  T  T  T  T  T  T  T  T  T  T  T  T  T  T  T  T  T  T  T  T  T
---------------------------------------------------------------------------------|
---------------------------------------------------------------------------------|
--5------------------------------------------------------------------------------|
--5------------------------------------------------------------------------------|
--3-3--3--3--3--3--3--3--3--3--3--3--3--3--3--3--3--3--3--3--3--3--3--3--3--3--3-|
---------------------------------------------------------------------------------|


  H        H
--------------------|
--------------------|
--3-----------------|
--3--------0--------|
--1--------0--------|
-----------0--------|


    PM PM PM PM PM PM PM PM PM PM PM PM PM PM   PM PM PM PM PM PM
  S T  T  T  T  T  T  T  T  T  T  T  T  T  T  S T  T  T  T  T  T  E  E
------------------------------------------------------------------------|
------------------------------------------------------------------------|
--5-------------------------------------------7-------------------7--2--|
--5-------------------------------------------7-------------------7--2--|
--3-3--3--3--3--3--3--3--3--3--3--3--3--3--3--5-5--5--5--5--5--5--5--0--|
------------------------------------------------------------------------|


  H        H
--------------------|
--------------------|
--3-----------------|
--3--------0--------|
--1--------0--------|
-----------0--------|


  PM PM PM PM PM PM PM PM PM PM PM PM PM PM PM PM
  T  T  T  T  T  T  T  T  T  T  T  T  T  T  T  T   S S S S  E  E
-------------------------------------------------------------------|
-------------------------------------------------------------------|
--------------------------------------------------10---------------|
--------------------------------------------------10-------10--L\--|
--8--8--8--8--8--8--8--8--8--8--8--8--8--8--8--8---8-------10--L\--|
-----------------------------------------------------------10--L\--|


   E   E   E   E   E   E   E   E     E  E  E  E  E  E  E  E
----------------------------------|--------------------------|
----------------------------------|--------------------------|
--10--10--10--10--10--10--12--12--|--9--9--9--9--5--5--5--5--|
---x---x---x---x---x---x---x---x--|--x--x--x--x--x--x--x--x--|
---8---8---8---8---8---8--10--10--|--7--7--7--7--3--3--3--3--|
----------------------------------|--------------------------|


   E   E   E   E   E   E   E   E     E  E  E  E  S S E   E   E
----------------------------------|-----------------------------|
----------------------------------|-----------------------------|
--10--10--10--10--10--10--12--12--|--9--9--9--9--9-9-9--10--10--|
---x---x---x---x---x---x---x---x--|--x--x--x--x--x-x-x---x---x--|
---8---8---8---8---8---8--10--10--|--7--7--7--7--7-7-7---8---8--|
----------------------------------|-----------------------------|


   E   E   E   E  E  E  E  E      E   E   E   E  E  E  E  E
------------------------------|------------------------------|
------------------------------|------------------------------|
--14--14--14--14--9--9--9--9--|--10--10--10--10--3--3--3--3--|
---x---x---x---x--x--x--x--x--|---x---x---x---x--x--x--x--x--|
--12--12--12--12--7--7--7--7--|---8---8---8---8--1--1--1--1--|
------------------------------|------------------------------|


   E   E   E   E   E   E   E   E
----------------------------------|
----------------------------------|
--10--10--10--10--12--12--10--10--|
---x---x---x---x---x---x---x---x--|
---8---8---8---8--10--10---8---8--|
----------------------------------|


                PM PM   PM PM   PM PM   PM PM
  E  E  E  E  S T  T  S T  T  S T  T  S T  T     E  E  E  E  E  E  E  E
----------------------------------------------|--------------------------|
----------------------------------------------|--------------------------|
--9--9--9--9--5-------5-------5-------5-------|--------------------------|
--x--x--x--x--5-------5-------5-------5-------|--0-----------------------|
--7--7--7--7--3-3--3--3-3--3--3-3--3--3-3--3--|--0-----------------------|
----------------------------------------------|--0-----------------------|


   T        T        T        T        T        T        T        T        T
   |--3--|  |--3--|  |--3--|  |--3--|  |--3--|  |--3--|  |--3--|  |--3--|  |--3-
   T  T  T  T  T  T  T  T  T  T  T  T  T  T  T  T  T  T  T  T  T  T  T  T  T  T
--22-17-15-22-17-15-------------------------------------------------------------|
--------------------22-18-15-22-18-15-------------------------------------------|
--------------------------------------19-15-12-19-15-12-------------------------|
--------------------------------------------------------19-15-12-19-15-12-------|
--------------------------------------------------------------------------19-15-|
--------------------------------------------------------------------------------|


  E  E  E  E  E  E  E  E     E  E  E  E  E  E  E  E
--------------------------|--------------------------|
--------------------------|--------------------------|
-----------------------5--|--------------------------|
--0--------------------5--|--0-----------7--5--3--2--|
--0--------------------3--|--0-----------7--5--3--2--|
--0-----------------------|--0-----------7--5--3--2--|


                PH
  E  E  E  E    H            S S S S S S S S S S S S S S S S
--------------------------|----------------------------------|
--------------------------|----------------------------------|
--------------------------|--7-7-7-7-7-7-7-7-7-7-7-7-7-7-7-7-|
--------------<>5b--------|--7-7-7-7-7-7-7-7-7-7-7-7-7-7-7-7-|
--------------------------|--5-5-5-5-5-5-5-5-5-5-5-5-5-5-5-5-|
--------------------------|----------------------------------|


  S S S S S S S S S S S S S S S S    S S S S S S S S S S S S S S S S
----------------------------------|----------------------------------|
----------------------------------|----------------------------------|
--5-5-5-5-5-5-5-5-5-5-5-5-5-5-5-5-|--3-3-3-3-3-3-3-3-2-2-2-2-2-2-2-2-|
--5-5-5-5-5-5-5-5-5-5-5-5-5-5-5-5-|--3-3-3-3-3-3-3-3-2-2-2-2-2-2-2-2-|
--3-3-3-3-3-3-3-3-3-3-3-3-3-3-3-3-|--1-1-1-1-1-1-1-1-0-0-0-0-0-0-0-0-|
----------------------------------|----------------------------------|


  S S S S S S S S S S S S S S S S
----------------------------------|
----------------------------------|
----------------------------------|
--0-0-0-0-0-0-0-0-0-0-0-0-0-0-0-0-|
--0-0-0-0-0-0-0-0-0-0-0-0-0-0-0-0-|
--0-0-0-0-0-0-0-0-0-0-0-0-0-0-0-0-|


    PM PM PM PM PM PM PM PM PM PM PM PM PM PM PM PM PM PM PM PM PM PM PM PM PM P
  S T  T  T  T  T  T  T  T  T  T  T  T  T  T  T  T  T  T  T  T  T  T  T  T  T  T
---------------------------------------------------------------------------------|
---------------------------------------------------------------------------------|
--7------------------------------------------------------------------------------|
--7------------------------------------------------------------------------------|
--5-5--5--5--5--5--5--5--5--5--5--5--5--5--5--5--5--5--5--5--5--5--5--5--5--5--5-|
---------------------------------------------------------------------------------|


    PM PM PM PM PM PM PM PM PM PM PM PM PM PM PM PM PM PM PM PM PM PM PM PM PM P
  S T  T  T  T  T  T  T  T  T  T  T  T  T  T  T  T  T  T  T  T  T  T  T  T  T  T
---------------------------------------------------------------------------------|
---------------------------------------------------------------------------------|
--5------------------------------------------------------------------------------|
--5------------------------------------------------------------------------------|
--3-3--3--3--3--3--3--3--3--3--3--3--3--3--3--3--3--3--3--3--3--3--3--3--3--3--3-|
---------------------------------------------------------------------------------|


    PM PM PM PM PM PM PM PM PM PM PM PM PM PM   PM PM PM PM PM PM PM PM PM PM PM
  S T  T  T  T  T  T  T  T  T  T  T  T  T  T  S T  T  T  T  T  T  T  T  T  T  T
--------------------------------------------------------------------------------|
--------------------------------------------------------------------------------|
--3-------------------------------------------2---------------------------------|
--3-------------------------------------------2---------------------------------|
--1-1--1--1--1--1--1--1--1--1--1--1--1--1--1--0-0--0--0--0--0--0--0--0--0--0--0-|
--------------------------------------------------------------------------------|


    PM PM PM PM PM PM PM PM PM PM PM PM PM PM  PM PM PM PM PM PM PM PM PM PM PM
  S T  T  T  T  T  T  T  T  T  T  T  T  T  T   T  T  T  T  T  T  T  T  T  T  T
---------------------------------------------------------------------------------|
---------------------------------------------------------------------------------|
---------------------------------------------------------------------------------|
--0-------------------------------------------12-12-12-12-12-12-12-12-12-12-12-1-|
--0------------------------------------------------------------------------------|
--0-0--0--0--0--0--0--0--0--0--0--0--0--0--0-------------------------------------|


  S S S S S S S S S S S S S S S S    S S S S S S S S S S S S S S S S
----------------------------------|----------------------------------|
----------------------------------|----------------------------------|
------------------5-5-5-5-5-5-5-5-|--7-7-7-7-7-7-7-7-3-3-3-3-3-3-3-3-|
--3-3-3-3-3-3-3-3-5-5-5-5-5-5-5-5-|--7-7-7-7-7-7-7-7-3-3-3-3-3-3-3-3-|
--3-3-3-3-3-3-3-3-3-3-3-3-3-3-3-3-|--5-5-5-5-5-5-5-5-1-1-1-1-1-1-1-1-|
--3-3-3-3-3-3-3-3-----------------|----------------------------------|


  S S S S S S S S S S S S S S S S    S S S S S S S S S S S S S S S S
----------------------------------|----------------------------------|
----------------------------------|----------------------------------|
--7-7-7-7-7-7-7-7-5-5-5-5-5-5-5-5-|--3-3-3-3-3-3-3-3-2-2-2-2-2-2-2-2-|
--7-7-7-7-7-7-7-7-5-5-5-5-5-5-5-5-|--3-3-3-3-3-3-3-3-2-2-2-2-2-2-2-2-|
--5-5-5-5-5-5-5-5-3-3-3-3-3-3-3-3-|--1-1-1-1-1-1-1-1-0-0-0-0-0-0-0-0-|
----------------------------------|----------------------------------|


    PM PM PM PM PM PM PM PM PM PM PM PM PM PM PM PM PM PM PM PM PM PM PM PM PM P
  S T  T  T  T  T  T  T  T  T  T  T  T  T  T  T  T  T  T  T  T  T  T  T  T  T  T
---------------------------------------------------------------------------------|
---------------------------------------------------------------------------------|
--7------------------------------------------------------------------------------|
--7------------------------------------------------------------------------------|
--5-5--5--5--5--5--5--5--5--5--5--5--5--5--5--5--5--5--5--5--5--5--5--5--5--5--5-|
---------------------------------------------------------------------------------|


    PM PM PM PM PM PM PM PM PM PM PM PM PM PM PM PM PM PM PM PM PM PM PM PM PM P
  S T  T  T  T  T  T  T  T  T  T  T  T  T  T  T  T  T  T  T  T  T  T  T  T  T  T
---------------------------------------------------------------------------------|
---------------------------------------------------------------------------------|
--5------------------------------------------------------------------------------|
--5------------------------------------------------------------------------------|
--3-3--3--3--3--3--3--3--3--3--3--3--3--3--3--3--3--3--3--3--3--3--3--3--3--3--3-|
---------------------------------------------------------------------------------|


    PM PM PM PM PM PM PM PM PM PM PM PM PM PM   PM PM PM PM PM PM PM PM PM PM PM
  S T  T  T  T  T  T  T  T  T  T  T  T  T  T  S T  T  T  T  T  T  T  T  T  T  T
--------------------------------------------------------------------------------|
--------------------------------------------------------------------------------|
--3-------------------------------------------2---------------------------------|
--3-------------------------------------------2---------------------------------|
--1-1--1--1--1--1--1--1--1--1--1--1--1--1--1--0-0--0--0--0--0--0--0--0--0--0--0-|
--------------------------------------------------------------------------------|


    PM PM PM PM PM PM PM PM PM PM PM PM PM PM                             PM
  S T  T  T  T  T  T  T  T  T  T  T  T  T  T  T T T T T T T T T T T T T T S
-----------------------------------------------------------------------------|
-----------------------------------------------------------------------------|
----------------------------------------------7-7-7-7-7-7-7-7-7-7-7-7-7-7----|
--0-------------------------------------------7-7-7-7-7-7-7-7-7-7-7-7-7-7-0--|
--0-------------------------------------------5-5-5-5-5-5-5-5-5-5-5-5-5-5-0--|
--0-0--0--0--0--0--0--0--0--0--0--0--0--0--0------------------------------0--|


  PM
  E  E  E  E  E  E  S S E
---------------------------|
---------------------------|
--------------------5------|
--0-----------------5------|
--0-----------------3------|
--0------------------------|


  PM PM     PM PM     PM PM     PM PM PM     PM PM PM         PM PM PM PM PM PM
  T  T  T T T  T  T T T  T  T T T  T  T  S T S  T  T  T T T T T  T  T  T  T  T
--------------------------------------------------------------------------------|
--------------------------------------------------------------------------------|
--------------------------------------------------------------------------------|
--0--0------0--0------0--0------0--0--0------0--0--0----------0--0--0--0--0--0--|
--0--0------0--0------0--0------0--0--0------0--0--0----------0--0--0--0--0--0--|
--0--0------0--0------0--0------0--0--0--3-L-0--0--0----------0--0--0--0--0--0--|


  PM PM     PM PM         PM PM PM PM     PM   PM PM       PM PM PM
  T  T  T T T  T  T T T T S  T  T  T  S T T  T T  T  T T S S  T  T  T T
------------------------------------------------------------------------|
------------------------------------------------------------------------|
------------------------------------------------------------------------|
--5--5------5--5----------5--5--5--5--3-L-3----3--3--------3--3--3------|
--5--5------5--5----------5--5--5--5--3-L-3----3--3------5-3--3--3------|
--5--5------5--5----------5--5--5--5--3-L-3----3--3--------3--3--3------|


  PM PM     PM PM     PM PM     PM PM PM     PM PM PM         PM PM PM PM PM PM
  T  T  T T T  T  T T T  T  T T T  T  T  S T S  T  T  T T T T T  T  T  T  T  T
--------------------------------------------------------------------------------|
--------------------------------------------------------------------------------|
--------------------------------------------------------------------------------|
--0--0------0--0------0--0------0--0--0------0--0--0----------0--0--0--0--0--0--|
--0--0------0--0------0--0------0--0--0------0--0--0----------0--0--0--0--0--0--|
--0--0------0--0------0--0------0--0--0--3-L-0--0--0----------0--0--0--0--0--0--|


  PM PM     PM PM         PM PM PM PM     PM   PM PM       PM PM PM
  T  T  T T T  T  T T T T S  T  T  T  S T T  T T  T  T T S S  T  T  T T
------------------------------------------------------------------------|
------------------------------------------------------------------------|
------------------------------------------------------------------------|
--5--5------5--5----------5--5--5--5--3-L-3----3--3--------3--3--3------|
--5--5------5--5----------5--5--5--5--3-L-3----3--3------5-3--3--3------|
--5--5------5--5----------5--5--5--5--3-L-3----3--3--------3--3--3------|


  PM PM PM PM PM PM PM PM PM PM PM PM PM PM PM PM  PM PM PM PMPM PM PM PM PM PM
  T  T  T  T  T  T  T  T  T  T  T  T  T  T  T  T   T  T  T  T T  T  T  T  T  T
--------------------------------------------------------------------------------|
--------------------------------------------------------------------------------|
--------------------------------------------------------------------------------|
--------------------------------------------------------------------------------|
--------------------------------------------------------------------------------|
--8--8--8--8--7--7--7--7--5--5--5--5--3--3--3--3--10-10-10-10-8--8--8--8--7--7--|


  |--3--|  |--3--|
  E  E  E  E  E  E  E  E  E   E
---------------------------------|
---------------------------------|
-----------------------7--L\-----|
-----------------------7--L\-----|
--1--------3-----4--5------------|
-----2--3-----3------------------|


  PM PM PM PM PM PM         PM PM PM PM PM   PM PM PM PM PM   PM PM PM PM PM   P
  |--3--|  |--3--|
  S  S  S  S  S  S  S S S S X  X  X  X  T  T X  X  X  X  T  T X  X  X  X  T  T X
---------------------------------------------------------------------------------|
---------------------------------------------------------------------------------|
---------------------------------------------------------------------------------|
--0--0--0--0--0--0--0------------------------------------------------------------|
--0--0--0--0--0--0--0------------------------------------------------------------|
--0--0--0--0--0--0--0-------0--0--0--0--0----0--0--0--0--0----0--0--0--0--0----0-|


  PM PM PM PM PM PM PM PM PM PM PM PM PM PM PM PM PM PM PM PM PM
  |----3---|  |--3--|  |--3--|  |--3--|                          |--3--|
  T  T  S  S  S  S  S  S  S  S  S  S  S  T  T  T  T  T  T  T  T  E  E  E
--------------------------------------------------------------------------|
--------------------------------------------------------------------------|
--------------------------------------------------------------------------|
--0--0--0--0--0--0--0--0--0--0--0--0--0-----------------------------------|
--0--0--0--0--0--0--0--0--0--0--0--0--0--------------------------1--------|
--0--0--0--0--0--0--0--0--0--0--0--0--0--8--8--8--8--7--7--7--7-----2--3--|


            PM PM PM PM       PM PM     PM PM   PM
            |--3--|
  E  E  E   T  T  T  S  E  E  T  T  T T T  T  T T
---------------------------------------------------|
---------------------------------------------------|
-----7--L\-----------------------------------------|
-----7--L\--0--0--0--0-----------------------------|
--3---------0--0--0--0-----------------------------|
------------0--0--0--0--------0--0------0--0----0--|


  PM PM PM                                  \1/
  S  S  S  S S S S S S S S E  E   S         W
------------------------------------|----|-------------------|
------------------------------------|----|-------------------|
------------------------------------|----|-------------------|
------------------------------------|----|-------------------|
---------------------------5--L\----|----|-------------------|
--0--0--0----3-2-3-5-3-2-0----------|----|--1----------------|


  PM PM PM PM PM PM PM PM PM PM PM PM PM PM PM PM PM PM PM PM PM PM PM PM PM PM
                                                  |--3--|  |--3--|  |--3--|  |--
  T  T  T  T  T  T  T  T  T  T  T  T  T  T  T  T  S  S  S  S  S  S  S  S  S  S
--------------------------------------------------------------------------------|
--------------------------------------------------------------------------------|
--------------------------------------------------------------------------------|
--0--0--0--0--0--0--0--0--0--0--0--0--0--0--0--0--0--0--0--0--0--0--0--0--0--0--|
--0--0--0--0--0--0--0--0--0--0--0--0--0--0--0--0--0--0--0--0--0--0--0--0--0--0--|
--0--0--0--0--0--0--0--0--0--0--0--0--0--0--0--0--0--0--0--0--0--0--0--0--0--0--|


  PM PM PM PM PM PM PM    PM
  |--3--|  |--3--|                 |--3--|  |--3--|
  E  E  E  E  E  E  E  E  E  E     E  E  E  E  E  E  E  E   Q
--------------------------------|--------------------------------|
--------------------------------|--------------------------------|
--------------------------------|--------------------------------|
--------------------------------|--------------------------------|
--0--0--0--0--0--0--0--L--0--L--|--1--------3-----4--5--L\-------|
--1--1--1--1--1--1--1--L--1--L--|-----2--3-----3-----------------|


   S  S  S  S  S  S  S  S  S  S  S  S  S  S  S  S
--------------------------------------------------|
--------------------------------------------------|
--10-10-10-10-10-10-10-10-10-10-10-10-12-12-12-12-|
---x--x--x--x--x--x--x--x--x--x--x--x--x--x--x--x-|
---8--8--8--8--8--8--8--8--8--8--8--8-10-10-10-10-|
--------------------------------------------------|


  S S S S S S S S S S S S S S S S
----------------------------------|
----------------------------------|
--9-9-9-9-9-9-9-9-5-5-5-5-5-5-5-5-|
--x-x-x-x-x-x-x-x-x-x-x-x-x-x-x-x-|
--7-7-7-7-7-7-7-7-3-3-3-3-3-3-3-3-|
----------------------------------|


   S  S  S  S  S  S  S  S  S  S  S  S  S  S  S  S
--------------------------------------------------|
--------------------------------------------------|
--10-10-10-10-10-10-10-10-10-10-10-10-12-12-12-12-|
---x--x--x--x--x--x--x--x--x--x--x--x--x--x--x--x-|
---8--8--8--8--8--8--8--8--8--8--8--8-10-10-10-10-|
--------------------------------------------------|


  S S S S S S S S S S S S  S  S  S  S
--------------------------------------|
--------------------------------------|
--9-9-9-9-9-9-9-9-9-9-9-9-10-10-10-10-|
--x-x-x-x-x-x-x-x-x-x-x-x--x--x--x--x-|
--7-7-7-7-7-7-7-7-7-7-7-7--8--8--8--8-|
--------------------------------------|


   S  S  S  S  S  S  S  S S S S S S S S S
------------------------------------------|
------------------------------------------|
--14-14-14-14-14-14-14-14-9-9-9-9-9-9-9-9-|
---x--x--x--x--x--x--x--x-x-x-x-x-x-x-x-x-|
--12-12-12-12-12-12-12-12-7-7-7-7-7-7-7-7-|
------------------------------------------|


   S  S  S  S  S  S  S  S S S S S S S S S
------------------------------------------|
------------------------------------------|
--10-10-10-10-10-10-10-10-3-3-3-3-3-3-3-3-|
---x--x--x--x--x--x--x--x-x-x-x-x-x-x-x-x-|
---8--8--8--8--8--8--8--8-1-1-1-1-1-1-1-1-|
------------------------------------------|


   S  S  S  S  S  S  S  S  S  S  S  S  S  S  S  S
--------------------------------------------------|
--------------------------------------------------|
--10-10-10-10-10-10-10-10-12-12-12-12-10-10-10-10-|
---x--x--x--x--x--x--x--x--x--x--x--x--x--x--x--x-|
---8--8--8--8--8--8--8--8-10-10-10-10--8--8--8--8-|
--------------------------------------------------|


  S S S S S S S S S S S S S S S S
----------------------------------|
----------------------------------|
--9-9-9-9-9-9-9-9-2-0-------------|
--x-x-x-x-x-x-x-x-----3-2-3-2-----|
--7-7-7-7-7-7-7-7-------------5-3-|
----------------------------------|


   S  S  S  S  S  S  S  S  S  S  S  S  S  S  S  S
--------------------------------------------------|
--------------------------------------------------|
--10-10-10-10-10-10-10-10-10-10-10-10-12-12-12-12-|
---x--x--x--x--x--x--x--x--x--x--x--x--x--x--x--x-|
---8--8--8--8--8--8--8--8--8--8--8--8-10-10-10-10-|
--------------------------------------------------|


                    PM PM   PM PM   PM PM   PM PM
  S S S S S S S S S T  T  S T  T  S T  T  S T  T
--------------------------------------------------|
--------------------------------------------------|
--9-9-9-9-9-9-9-9-5-------5-------5-------5-------|
--x-x-x-x-x-x-x-x-5-------5-------5-------5-------|
--7-7-7-7-7-7-7-7-3-3--3--3-3--3--3-3--3--3-3--3--|
--------------------------------------------------|


   S  S  S  S  S  S  S  S  S  S  S  S  S  S  S  S
--------------------------------------------------|
--------------------------------------------------|
--10-10-10-10-10-10-10-10-10-10-10-10-12-12-12-12-|
---x--x--x--x--x--x--x--x--x--x--x--x--x--x--x--x-|
---8--8--8--8--8--8--8--8--8--8--8--8-10-10-10-10-|
--------------------------------------------------|


                    PM PM   PM PM   PM PM   PM PM
  S S S S S S S S S T  T  S T  T  S T  T  S T  T
--------------------------------------------------|
--------------------------------------------------|
--9-9-9-9-9-9-9-9-5-------5-------5-------5-------|
--x-x-x-x-x-x-x-x-5-------5-------5-------5-------|
--7-7-7-7-7-7-7-7-3-3--3--3-3--3--3-3--3--3-3--3--|
--------------------------------------------------|


   S  S  S  S  S  S  S  S S S S S S S S S
------------------------------------------|
------------------------------------------|
--14-14-14-14-14-14-14-14-9-9-9-9-9-9-9-9-|
---x--x--x--x--x--x--x--x-x-x-x-x-x-x-x-x-|
--12-12-12-12-12-12-12-12-7-7-7-7-7-7-7-7-|
------------------------------------------|


   S  S  S  S  S  S  S  S S S S S S S S S
------------------------------------------|
------------------------------------------|
--10-10-10-10-10-10-10-10-3-3-3-3-3-3-3-3-|
---x--x--x--x--x--x--x--x-x-x-x-x-x-x-x-x-|
---8--8--8--8--8--8--8--8-1-1-1-1-1-1-1-1-|
------------------------------------------|


   S  S  S  S  S  S  S  S  S  S  S  S  S  S  S  S
--------------------------------------------------|
--------------------------------------------------|
--10-10-10-10-10-10-10-10-12-12-12-12-10-10-10-10-|
---x--x--x--x--x--x--x--x--x--x--x--x--x--x--x--x-|
---8--8--8--8--8--8--8--8-10-10-10-10--8--8--8--8-|
--------------------------------------------------|


                    PM PM   PM PM   PM PM   PM PM
  S S S S S S S S S T  T  S T  T  S T  T  S T  T
--------------------------------------------------|
--------------------------------------------------|
--9-9-9-9-9-9-9-9-5-------5-------5-------5-------|
--x-x-x-x-x-x-x-x-5-------5-------5-------5-------|
--7-7-7-7-7-7-7-7-3-3--3--3-3--3--3-3--3--3-3--3--|
--------------------------------------------------|


  S S S S S S S S S S S S S S S S    S S S S S S S S S S S S S S S S
----------------------------------|----------------------------------|
----------------------------------|----------------------------------|
----------------------------------|--5-5-5-5-5-5-5-5-5-5-5-5-5-5-5-5-|
--0-0-0-0-0-0-0-0-0-0-0-0-0-0-0-0-|--5-5-5-5-5-5-5-5-5-5-5-5-5-5-5-5-|
--0-0-0-0-0-0-0-0-0-0-0-0-0-0-0-0-|--3-3-3-3-3-3-3-3-3-3-3-3-3-3-3-3-|
--0-0-0-0-0-0-0-0-0-0-0-0-0-0-0-0-|----------------------------------|


  S S S S S S S S S S S S S S S S    S S S S S S S S S S S S S S S S
----------------------------------|----------------------------------|
----------------------------------|----------------------------------|
----------------------------------|--5-5-5-5-5-5-5-5-5-5-5-5-5-5-5-5-|
--0-0-0-0-0-0-0-0-0-0-0-0-0-0-0-0-|--5-5-5-5-5-5-5-5-5-5-5-5-5-5-5-5-|
--0-0-0-0-0-0-0-0-0-0-0-0-0-0-0-0-|--3-3-3-3-3-3-3-3-3-3-3-3-3-3-3-3-|
--0-0-0-0-0-0-0-0-0-0-0-0-0-0-0-0-|----------------------------------|


   S  S  S  S  S  S  S  S S S S S S S S S    S S S S S S S S S S S S S S S S
------------------------------------------|----------------------------------|
------------------------------------------|----------------------------------|
--10-10-10-10-10-10-10-10-5-5-5-5-5-5-5-5-|--7-7-7-7-7-7-7-7-3-3-3-3-3-3-3-3-|
--10-10-10-10-10-10-10-10-5-5-5-5-5-5-5-5-|--7-7-7-7-7-7-7-7-3-3-3-3-3-3-3-3-|
---8--8--8--8--8--8--8--8-3-3-3-3-3-3-3-3-|--5-5-5-5-5-5-5-5-1-1-1-1-1-1-1-1-|
------------------------------------------|----------------------------------|


  S S S S S S S S S S S S S S S S    S S S S S S S S S S S S S S S S
----------------------------------|----------------------------------|
----------------------------------|----------------------------------|
----------------------------------|--5-5-5-5-5-5-5-5-5-5-5-5-5-5-5-5-|
--0-0-0-0-0-0-0-0-0-0-0-0-0-0-0-0-|--5-5-5-5-5-5-5-5-5-5-5-5-5-5-5-5-|
--0-0-0-0-0-0-0-0-0-0-0-0-0-0-0-0-|--3-3-3-3-3-3-3-3-3-3-3-3-3-3-3-3-|
--0-0-0-0-0-0-0-0-0-0-0-0-0-0-0-0-|----------------------------------|


  S S S S S S S S S S S S S S S S    S S S S S S S S S S S S S S S S
----------------------------------|----------------------------------||
----------------------------------|----------------------------------||
----------------------------------|--5-5-5-5-5-5-5-5-5-5-5-5-5-5-5-5-||
--0-0-0-0-0-0-0-0-0-0-0-0-0-0-0-0-|--5-5-5-5-5-5-5-5-5-5-5-5-5-5-5-5-||
--0-0-0-0-0-0-0-0-0-0-0-0-0-0-0-0-|--3-3-3-3-3-3-3-3-3-3-3-3-3-3-3-3-||
--0-0-0-0-0-0-0-0-0-0-0-0-0-0-0-0-|----------------------------------||


Guitar 2

                                                      H        Q    E  E
D||-------|-------|-------|-------|-------|-------|-----------------------|
A||-------|-------|-------|-------|-------|-------|-----------------------|
F||-------|-------|-------|-------|-------|-------|--10--------3----7--7--|
C||-------|-------|-------|-------|-------|-------|--10--------3----7--7--|
G||-------|-------|-------|-------|-------|-------|---8--------1----5--5--|
C||-------|-------|-------|-------|-------|-------|-----------------------|


  H          H             S  S  S  S  S  S  S  S  S  S  S  S  S  S  S  S
-----------------------|--13-10-------------------------------------------|
-----------<>5b--------|--------11-10-------------------------------------|
--5--------------------|--------------10----------------------------------|
--5--------------------|-----------------12----------12-14-15-14-12----12-|
--3--------------------|--------------------13-12-13----------------13----|
-----------------------|--------------------------------------------------|


   S  S  S S  S S S S S S S S E  E      S S S S S S S S S S S S S S S S
-------------------------------------|--5---------------6-3-------------|
--13-10-11-8-10-6-8-5-6--------------|----6-----------------5-3---------|
------------------------2-5-2--------|------7-5-----------------3-0-----|
------------------------------5--L\--|----------7-------------------2-0-|
-------------------------------------|------------8-7-5-----------------|
-------------------------------------|----------------------------------|


                                         T
   S  S  S S  S S S S  T  T  T  T  T  T  T  T  T  T  T  T  S S
----------------------------------13-17-22-17-13---------------|
-------------------------------15----------------15------------|
--14-10-12-9-10-7-9-5-------14----------------------14---------|
-------------------------15----------------------------15------|
----------------------17----------------------------------17---|
---------------------------------------------------------------|


    PM PM PM PM PM PM PM PM PM PM PM PM PM PM PM PM PM PM PM PM PM PM PM PM PM P
  S T  T  T  T  T  T  T  T  T  T  T  T  T  T  T  T  T  T  T  T  T  T  T  T  T  T
---------------------------------------------------------------------------------|
---------------------------------------------------------------------------------|
--7------------------------------------------------------------------------------|
--7------------------------------------------------------------------------------|
--5-5--5--5--5--5--5--5--5--5--5--5--5--5--5--5--5--5--5--5--5--5--5--5--5--5--5-|
---------------------------------------------------------------------------------|


    PM PM PM PM PM PM PM PM PM PM PM PM PM PM PM PM PM PM PM PM PM PM PM PM PM P
  S T  T  T  T  T  T  T  T  T  T  T  T  T  T  T  T  T  T  T  T  T  T  T  T  T  T
---------------------------------------------------------------------------------|
---------------------------------------------------------------------------------|
--5------------------------------------------------------------------------------|
--5------------------------------------------------------------------------------|
--3-3--3--3--3--3--3--3--3--3--3--3--3--3--3--3--3--3--3--3--3--3--3--3--3--3--3-|
---------------------------------------------------------------------------------|


     PM PM PM PM PM PM PM PM PM PM PM PM PM PM   PM PM PM PM PM PM   PM PM PM PM
   S T  T  T  T  T  T  T  T  T  T  T  T  T  T  S T  T  T  T  T  T  S T  T  T  T
--------------------------------------------------------------------------------|
--------------------------------------------------------------------------------|
--10-------------------------------------------3-------------------7------------|
--10-------------------------------------------3-------------------7------------|
---8-8--8--8--8--8--8--8--8--8--8--8--8--8--8--1-1--1--1--1--1--1--5-5--5--5--5-|
--------------------------------------------------------------------------------|


    PM PM PM PM PM PM PM PM PM PM PM PM PM PM
  S T  T  T  T  T  T  T  T  T  T  T  T  T  T    H
----------------------------------------------------------|
----------------------------------------------<>7b--------|
--5-------------------------------------------------------|
--5-------------------------------------------------------|
--3-3--3--3--3--3--3--3--3--3--3--3--3--3--3--------------|
----------------------------------------------------------|


    PM PM PM PM PM PM PM PM PM PM PM PM PM PM PM PM PM PM PM PM PM PM PM PM PM P
  S T  T  T  T  T  T  T  T  T  T  T  T  T  T  T  T  T  T  T  T  T  T  T  T  T  T
---------------------------------------------------------------------------------|
---------------------------------------------------------------------------------|
---------------------------------------------------------------------------------|
---------------------------------------------------------------------------------|
--8-8--8--8--8--8--8--8--8--8--8--8--8--8--8--8--8--8--8--8--8--8--8--8--8--8--8-|
---------------------------------------------------------------------------------|


  PM PM PM PM PM PM PM PM PM PM PM PM PM PM PM PM PM PM PM PM PM PM PM PM  PM PM
  T  T  T  T  T  T  T  T  T  T  T  T  T  T  T  T  T  T  T  T  T  T  T  T   T  T
--------------------------------------------------------------------------------|
--------------------------------------------------------------------------------|
--------------------------------------------------------------------------------|
--------------------------------------------------------------------------------|
--7--7--7--7--7--7--7--7--7--7--7--7--7--7--7--7--3--3--3--5--5--5--7--7--10-10-|
--------------------------------------------------------------------------------|


   PM PM PM PM PM PM PM PM PM PM PM PM PM PM PM PM PM PM PM PM PM PM PM PM PM PM
   T  T  T  T  T  T  T  T  T  T  T  T  T  T  T  T  T  T  T  T  T  T  T  T  T  T
--------------------------------------------------------------------------------|
--------------------------------------------------------------------------------|
--------------------------------------------------------------------------------|
--------------------------------------------------------------------------------|
--12-12-12-12-12-12-12-12-12-12-12-12-12-12-12-12-13-13-13-13-13-13-13-13-12-12-|
--------------------------------------------------------------------------------|


   PM PM PM PM PM PM PM PM PM PM PM PMPM PM PM PM PM PM PM PM PM PM PM PM PM PM
   T  T  T  T  T  T  T  T  T  T  T  T T  T  T  T  T  T  T  T  T  T  T  T  T  T
--------------------------------------------------------------------------------|
--------------------------------------------------------------------------------|
--------------------------------------------------------------------------------|
--------------------------------------------------------------------------------|
--10-10-10-10-10-10-10-10-10-10-10-10-5--5--5--5--3--3--3--3--3--3--3--3--3--3--|
--------------------------------------------------------------------------------|


   >        >        >        >
   S S S S  S S S S  S S S S  S S S S
--------------------------------------|
--10-------10-------10-------11-------|
-----7---7----7---7----7---7----7---7-|
-------7--------7--------7--------7---|
--------------------------------------|
--------------------------------------|


   >           >          >          >
   S  S  S  S  S  S  S  S S  S  S  S S  S  S  S
------------------------------------------------|
------------------------------------------------|
--12----------12----------9----------9----------|
-----10----10----10----10---10----10---10----10-|
--------10----------10---------10---------10----|
------------------------------------------------|


   >        >       >       >    >  >
   S S S S  S S S S S S S S S S  S  S
--------------------8-------8---10-12-|
--10-------10-------------------------|
-----7---7----7---7---7---7-----------|
-------7--------7-------7-----7-------|
--------------------------------------|
--------------------------------------|


   >           >           >
   S  S  S  S  S  S  S  S  S S S S S S S S     E   E   E   E   E   E   E   E
--13----------13----------13---------------|----------------------------------|
-----10----10----10----10------------------|--10--10--10--10--10--10--11--11--|
--------10----------10---------------------|---x---x---x---x---x---x---x---x--|
-------------------------------------------|---7---7---7---7---7---7---8---8--|
-------------------------------------------|----------------------------------|
-------------------------------------------|----------------------------------|


  E  E  E  E  E  E  E  E      E   E   E   E   E   E   E   E
--------------------------|----------------------------------|
--8--8--8--8--5--5--5--5--|--10--10--10--10--10--10--11--11--|
--x--x--x--x--x--x--x--x--|---x---x---x---x---x---x---x---x--|
--5--5--5--5--2--2--2--2--|---7---7---7---7---7---7---8---8--|
--------------------------|----------------------------------|
--------------------------|----------------------------------|


  E  E  E  E  S S E   E   E      E   E   E   E  E  E  E  E
-----------------------------|------------------------------|
--8--8--8--8--8-8-8--10--10--|--13--13--13--13--8--8--8--8--|
--x--x--x--x--x-x-x---x---x--|---x---x---x---x--x--x--x--x--|
--5--5--5--5--5-5-5---7---7--|--10--10--10--10--5--5--5--5--|
-----------------------------|------------------------------|
-----------------------------|------------------------------|


   E   E   E   E  E  E  E  E      E   E   E   E   E   E   E   E
------------------------------|----------------------------------|
--10--10--10--10--8--8--8--8--|--10--10--10--10--11--11--10--10--|
---x---x---x---x--x--x--x--x--|---x---x---x---x---x---x---x---x--|
---7---7---7---7--5--5--5--5--|---7---7---7---7---8---8---7---7--|
------------------------------|----------------------------------|
------------------------------|----------------------------------|


                PM PM   PM PM   PM PM   PM PM      \1/
  E  E  E  E  S T  T  S T  T  S T  T  S T  T       H
----------------------------------------------|-------------|
--8--8--8--8----------------------------------|-------------|
--x--x--x--x--5-------5-------5-------5-------|--<>5--------|
--5--5--5--5--5-------5-------5-------5-------|-------------|
--------------3-3--3--3-3--3--3-3--3--3-3--3--|-------------|
----------------------------------------------|-------------|


    PM PM PM PM PM PM PM PM PM PM PM PM PM PM PM PM PM PM PM PM PM PM PM PM PM P
  S T  T  T  T  T  T  T  T  T  T  T  T  T  T  T  T  T  T  T  T  T  T  T  T  T  T
---------------------------------------------------------------------------------|
---------------------------------------------------------------------------------|
--7------------------------------------------------------------------------------|
--7------------------------------------------------------------------------------|
--5-5--5--5--5--5--5--5--5--5--5--5--5--5--5--5--5--5--5--5--5--5--5--5--5--5--5-|
---------------------------------------------------------------------------------|


    PM PM PM PM PM PM PM PM PM PM PM PM PM PM PM PM PM PM PM PM PM PM PM PM PM P
  S T  T  T  T  T  T  T  T  T  T  T  T  T  T  T  T  T  T  T  T  T  T  T  T  T  T
---------------------------------------------------------------------------------|
---------------------------------------------------------------------------------|
--5------------------------------------------------------------------------------|
--5------------------------------------------------------------------------------|
--3-3--3--3--3--3--3--3--3--3--3--3--3--3--3--3--3--3--3--3--3--3--3--3--3--3--3-|
---------------------------------------------------------------------------------|


     PM PM PM PM PM PM PM PM PM PM PM PM PM PM   PM PM PM PM PM PM   PM PM PM PM
   S T  T  T  T  T  T  T  T  T  T  T  T  T  T  S T  T  T  T  T  T  S T  T  T  T
--------------------------------------------------------------------------------|
--------------------------------------------------------------------------------|
--10-------------------------------------------3-------------------7------------|
--10-------------------------------------------3-------------------7------------|
---8-8--8--8--8--8--8--8--8--8--8--8--8--8--8--1-1--1--1--1--1--1--5-5--5--5--5-|
--------------------------------------------------------------------------------|


    PM PM PM PM PM PM PM PM PM PM PM PM PM PM
  S T  T  T  T  T  T  T  T  T  T  T  T  T  T  Q      Q
-----------------------------------------------------------|
-----------------------------------------------------------|
--5-------------------------------------------5------------|
--5-------------------------------------------5----/12\----|
--3-3--3--3--3--3--3--3--3--3--3--3--3--3--3--3----/12\----|
---------------------------------------------------/12\----|


    PM PM PM PM PM PM PM PM PM PM PM PM PM PM PM PM PM PM PM PM PM PM PM PM PM P
  S T  T  T  T  T  T  T  T  T  T  T  T  T  T  T  T  T  T  T  T  T  T  T  T  T  T
---------------------------------------------------------------------------------|
---------------------------------------------------------------------------------|
---------------------------------------------------------------------------------|
---------------------------------------------------------------------------------|
--8-8--8--8--8--8--8--8--8--8--8--8--8--8--8--8--8--8--8--8--8--8--8--8--8--8--8-|
---------------------------------------------------------------------------------|


  PM PM PM PM PM PM PM PM PM PM PM PM PM PM PM PM PM PM PM PM PM PM PM PM  PM PM
  T  T  T  T  T  T  T  T  T  T  T  T  T  T  T  T  T  T  T  T  T  T  T  T   T  T
--------------------------------------------------------------------------------|
--------------------------------------------------------------------------------|
--------------------------------------------------------------------------------|
--------------------------------------------------------------------------------|
--7--7--7--7--7--7--7--7--7--7--7--7--7--7--7--7--3--3--3--5--5--5--7--7--10-10-|
--------------------------------------------------------------------------------|


   PM PM PM PM PM PM PM PM PM PM PM PM PM PM PM PM PM PM PM PM PM PM PM PM PM PM
   T  T  T  T  T  T  T  T  T  T  T  T  T  T  T  T  T  T  T  T  T  T  T  T  T  T
--------------------------------------------------------------------------------|
--------------------------------------------------------------------------------|
--------------------------------------------------------------------------------|
--------------------------------------------------------------------------------|
--12-12-12-12-12-12-12-12-12-12-12-12-12-12-12-12-13-13-13-13-13-13-13-13-12-12-|
--------------------------------------------------------------------------------|


   PM PM PM PM PM PM PM PM PM PM PM PMPM PM PM PM PM PM PM PM PM PM PM PM PM PM
   T  T  T  T  T  T  T  T  T  T  T  T T  T  T  T  T  T  T  T  T  T  T  T  T  T
--------------------------------------------------------------------------------|
--------------------------------------------------------------------------------|
--------------------------------------------------------------------------------|
--------------------------------------------------------------------------------|
--10-10-10-10-10-10-10-10-10-10-10-10-5--5--5--5--3--3--3--3--3--3--3--3--3--3--|
--------------------------------------------------------------------------------|


   >        >        >        >
   S S S S  S S S S  S S S S  S S S S
--------------------------------------|
--10-------10-------10-------11-------|
-----7---7----7---7----7---7----7---7-|
-------7--------7--------7--------7---|
--------------------------------------|
--------------------------------------|


   >           >          >          >
   S  S  S  S  S  S  S  S S  S  S  S S  S  S  S
------------------------------------------------|
------------------------------------------------|
--12----------12----------9----------9----------|
-----10----10----10----10---10----10---10----10-|
--------10----------10---------10---------10----|
------------------------------------------------|


   >        >       >       >    >  >     >           >
   S S S S  S S S S S S S S S S  S  S     S  S  S  S  S  S  S  S    H
--------------------8-------8---10-12-|--13----------13--L--L--L-<>13b--------|
--10-------10-------------------------|-----10----10----10--L-10--------------|
-----7---7----7---7---7---7-----------|--------10----------10--L--------------|
-------7--------7-------7-----7-------|---------------------------------------|
--------------------------------------|---------------------------------------|
--------------------------------------|---------------------------------------|


   E   E   E   E   E   E   E   E     E  E  E  E  E  E  E  E
----------------------------------|--------------------------|
--10--10--10--10--10--10--11--11--|--8--8--8--8--5--5--5--5--|
---x---x---x---x---x---x---x---x--|--x--x--x--x--x--x--x--x--|
---7---7---7---7---7---7---8---8--|--5--5--5--5--2--2--2--2--|
----------------------------------|--------------------------|
----------------------------------|--------------------------|


   E   E   E   E   E   E   E   E     E  E  E  E  S S E   E   E
----------------------------------|-----------------------------|
--10--10--10--10--10--10--11--11--|--8--8--8--8--8-8-8--10--10--|
---x---x---x---x---x---x---x---x--|--x--x--x--x--x-x-x---x---x--|
---7---7---7---7---7---7---8---8--|--5--5--5--5--5-5-5---7---7--|
----------------------------------|-----------------------------|
----------------------------------|-----------------------------|


   E   E   E   E  E  E  E  E      E   E   E   E  E  E  E  E
------------------------------|------------------------------|
--13--13--13--13--8--8--8--8--|--10--10--10--10--8--8--8--8--|
---x---x---x---x--x--x--x--x--|---x---x---x---x--x--x--x--x--|
--10--10--10--10--5--5--5--5--|---7---7---7---7--5--5--5--5--|
------------------------------|------------------------------|
------------------------------|------------------------------|


   E   E   E   E   E   E   E   E
----------------------------------|
--10--10--10--10--11--11--10--10--|
---x---x---x---x---x---x---x---x--|
---7---7---7---7---8---8---7---7--|
----------------------------------|
----------------------------------|


                PM PM   PM PM   PM PM   PM PM
  E  E  E  E  S T  T  S T  T  S T  T  S T  T
----------------------------------------------|
--8--8--8--8----------------------------------|
--x--x--x--x--5-------5-------5-------5-------|
--5--5--5--5--5-------5-------5-------5-------|
--------------3-3--3--3-3--3--3-3--3--3-3--3--|
----------------------------------------------|


   |--3--|  |--3--|  |--3--|  |--3--|  |--3--|  |--3--|  |--3--|  |--3--|  |--3-
   T  T  T  T  T  T  T  T  T  T  T  T  T  T  T  T  T  T  T  T  T  T  T  T  T  T
--------------13-17-13----------13-17-13----------------------13-17-22-17-13----|
-----------15----------15----15----------15----------------15----------------15-|
--------14----------------14----------------14----------14----------------------|
-----15----------------------------------------15----15-------------------------|
--17----------------------------------------------17----------------------------|
--------------------------------------------------------------------------------|


  E  E  E  E  E  E  E  E     E  E  E  E  E  E  E  E
--------------------------|--------------------------|
--------------------------|--------------------------|
-----------------------5--|--------------------------|
--0--------------------5--|--0-----------------------|
--0--------------------3--|--0-----------------------|
--0-----------------------|--0-----------------------|


                                                                           ^  ^
   |--3--|  |--3--|  |--3--|  |--3--|  |--3--|  |--3--|  |--3--|  |--3--|
   T  T  T  T  T  T  T  T  T  T  T  T  T  T  T  T  T  T  T  T  T  T  T  T  T  T
--------22-18-------------20-17-------------18-15-------------15-12-------22-22-|
-----20-------20-------18-------18-------17-------17-------13-------13----20-20-|
--19-------------19-17-------------17-15-------------15-12-------------12-------|
--
2 comments total.
0 reply
'lil pig wrote on August 10 2013, 06:32 am

dude, this tab is awesome!!!

0 reply
dkm817 wrote on August 11 2013, 02:41 pm

I'm glad you liked it!

I want to post or [tab]
guest
You may want to rate the tab now too:
select rating
Please do not post tabs as comments. Select "correction" instead!