Oops, an error
Loading. Please wait.

Demanufacture Tab

ver1
ver1

Album

Whole song

Interactive

More versions @911Tabs.com
1,886 views 9 this week
no commentswrite comment
1 2 3 4 5
worth learning
x 1
Autoscroll
+/-
esc
set tempo
stop
Contributor
Hey! There's an official Ultimate Guitar app which is ideal
for learning songs when you're away from computer. Get the app
WARNING: You are trying to view
                                    content from Ultimate-Guitar.com
                                    in an unauthorized application,
                                    which is prohibited.

                                    Please use an official Ultimate
                                    Guitar Tabs application for iPhone,
                                    iPad or Android to access legitimate
                                    chords, guitar, bass, and drum tabs
                                    from Ultimate-Guitar.com database.

                                    Type "ultimate guitar tabs" in Apple
                                    App Store's or Android Market's
                                    search to find the application.
OK, so here is the entire Demanufacture album for guitar.
It should all be there, just make sure to set the margins in word
to 0.5" and the font to courier new. you may need to adjust the
size of the text for a couple of the songs.

Enjoy!


Fear Factory-Demanufacture

Rest 12 bars

Intro
B |----------------||
F#|----------------||
D |----------------||
A |----------------||
E |-R--------------||
B |--------33333333||
           ........

Riff 1                                    |1.                                 |
B |-----------------|-----------------|   |-----------------|-----------------|
F#|-----------------|-----------------|   |-----------------|-----------------|
D |-----------------|-----------------|---|-----------------|-----------------|
A |-----------------|-----------------|---|-----------------|-----------------|
E |---------R-------|-R-------R-------|   |---------R-------|-R---------------|
B |-2-2-3-2---2-3-2-|---2-3-2---2-3-5-|   |-222-3-2---2-3-2-|-----------------|
    . . . .   . . .     . . .   . . .       ... . .   . . .
  |2.                                 |   |3.                                 |
B |-----------------|-----------------|   |-----------------|-----------------|
F#|-----------------|-----------------|   |-----------------|-----------------|
D |-----------------|-----------------|   |-----------------|-----------------|
A |-----------------|-----------------|   |-----------------|-----------------|
E |---------R-------|-R---------------|   |---------R-------|-R---------------|
B |-222-3-2---2-3-2-|---------333-333-|   |-222-3-2---2-3-2-|---------33333333|
    ... . .   . . .           ... ...       ... . .   . . .           ........
  |4.                                 |
B |-----------------|-----------------||
F#|-----------------|-----------------||
D |-----------------|-----------------||
A |-----------------|-----------------||
E |---------R-------|-R---------R-----||
B |-222-3-2---2-3-2-|---2-3-2-3-------||
    ... . .   . . .     . . . .

Riff 1a
B |-----------------|-----------------|-----------------|-----------------|2x this row
F#|-----------------|-----------------|-----------------|-----------------|
D |-----------------|-----------------|-----------------|-----------------|
A |---------R-------|-R-------R-------|---------R-------|-R---------------|
E |-4-4-5-4---4-5-4-|---4-5-4---4-5-7-|-444-5-4---4-5-4-|---4-5-4---------|
B |-2-2-3-2---2-3-2-|---2-3-2---2-3-5-|-222-3-2---2-3-2-|---2-3-2-33333333|
                                                                  ........
B |-----------------|-----------------|-----------------|-----------------|2x this row
F#|-----------------|-----------------|-----------------|-----------------|
D |-----------------|-----------------|-----------------|-----------------|
A |-----------------|-----------------|-----------------|-----------------|
E |---------R-------|-R-------R-------|---------R-------|-R---------------|
B |-2-2-3-2---2-3-2-|---2-3-2---2-3-5-|-222-3-2---2-3-2-|---2-3-2-33333333|
    . . . .   . . .     . . .   . . .   ... . .   . . .     . . . ........
B |-----------------|-----------------|-----------------|-----------------||2x this row
F#|-----------------|-----------------|-----------------|-----------------||
D |-----------------|-----------------|-----------------|-----------------||
A |-----------------|-----------------|-----------------|-----------------||
E |-4-4-5-4-4-4-5-4-|-4-4-5-4-4-4-5-7-|-4-4-5-4-4-4-5-4-|-4-4-5-4---------||
B |-2-2-3-2-2-2-3-2-|-2-2-3-2-2-2-3-5-|-2-2-3-2-2-2-3-2-|-2-2-3-2-33333333||
                                                                  ........

Lead Into Riff 1b
B |-----------------|-----------------||
F#|-----------------|-----------------||
D |-----------------|-----------------||
A |-----------------|-----------------||
E |---------R-------|-----------------||
B |-2-2-3-2---------|-----------------||


Riff 1b
B |-----------------|-----------------|-----------------|-----------------||
F#|-----------------|-----------------|-----------------|-----------------||
D |-----------------|-----------------|-----------------|-----------------||
A |---------R-------|-R-------R-------|-R-------R-------|-R---------------||
E |-4-4-5-4---4-5-4-|---4-5-4---4-5-4-|---4-5-4---4-5-4-|---4-5-4---------||
B |-2-2-3-2---2-3-2-|---2-3-2---2-3-2-|---2-3-2---2-3-2-|---2-3-2-55332233||
                                                                  ........

Play Last Two Rows Of Riff 1a

Riff 2
B |-----------------|-----------------|-----------------|-----------------||2x
F#|-----------------|-----------------|-----------------|-----------------||
D |-----------------|-----------------|-----------------|-----------------||
A |-----------------|-----------------|-----R-----------|-----R-----------||
E |-----------------|-----------------|-4444--4444------|-4444--4444------||
B |-5555335555335533|-6666335555553333|-2222--22222-3-5-|-2222--22222-3-0-||
    ................  ................            . . .             . . .

Riff 2a
B |-----------------|-----------------||4x
F#|-----------------|-----------------||
D |-----------------|-----------------||
A |-----R-----------|-----R-----------||
E |-4444--4444------|-4444--4444------||
B |-2222--22222-3-5-|-2222--22222-3-0-||
              . . .             . . .

Riff 3
B |-----------------|-----------------|-----------------|-----------------|2x this row
F#|-----------------|-----------------|-----------------|-----------------|
D |-----------------|-----------------|-----------------|-----------------|
A |-5-5---4-5-5---5-|-8-8-----6-6-----|-5-5---4-5-5---5-|-8-8-----1010----|
E |-5-5---4-5-5---5-|-8-8-----6-6-----|-5-5---4-5-5---5-|-8-8-----1010----|
B |-3-3---2-3-3---3-|-6-6-----4-4-----|-3-3---2-3-3---3-|-6-6-----8-8-----|

B |-----------------|-----------------|-----------------|-----------------||2x this row
F#|-----------------|-----------------|-----------------|-----------------||
D |-13--------------|-15--------------|-13----13--------|-15--------------||
A |-13----------0---|-15--------------|-13----13----0---|-15----------8888||-don’t play
E |-11--------------|-13--------------|-11----11--------|-13--------------|| these 2nd
B |-----------------|-----------------|-----------------|-----------------|| time
                                                                      ....

Bass Break
B |-----------------|-----------------|-----------------|-----------------||
F#|----R------------|-----------------|-----------------|-----------------||
D |-13--------------|-----------------|-----------------|-----------------||
A |-13--------------|-----------------|-----------------|-----------------||
E |-11--------------|-----------------|-----------------|-----------------||
B |-----------------|-----------------|-----------------|-333333333-3-3-3-||
                                                          ......... . . .

Play Riff 3 (play all notes)

Riff 3a
B |-----------------|-----------------|-----------------|-----------------|
F#|-----------------|-----------------|-----------------|-----------------|
D |-13--------------|-15--------------|-13----13--------|-15--------------|
A |-13----------0---|-15--------------|-13----13----0---|-15------88888888|
E |-11--------------|-13--------------|-11----11--------|-13--------------|
B |-----------------|-----------------|-----------------|-----------------|
                                                                  ........
  |1.                                                                     |
B |-----------------|-----------------|-----------------|-----------------|
F#|-----------------|-----------------|-----------------|-----------------|
D |-13--------------|-15--------------|-13----13--------|-15----------15--|
A |-13----------0---|-15--------------|-13----13----0---|-15------888815--|
E |-11--------------|-13--------------|-11----11--------|-13----------13--|
B |-----------------|-----------------|-----------------|-----------------|
                                                                  ....
  |2.                                                                     |
B |-----------------|-----------------|-----------------|-----------------||
F#|-----------------|-----------------|-----------------|-----------------||
D |-13--------------|-15--------------|-13--------------|-15--------------||
A |-13----------0---|-15------88888888|-13----------0---|-15------88888888||
E |-11--------------|-13--------------|-11--------------|-13--------------||
B |-----------------|-----------------|-----------------|-----------------||
                              ........                            ........

Another Break
B |-----------------|-----------------|--|--|---------------------||
F#|-----------------|-----------------|-4x--|---------------------||
D |-----------------|-----------------|--|--|---------------------||
A |---------R-------|-----------------|--|--|---------R-----R-----||
E |-4-4-5-4-----4---|(4)--------------|--|--|-4-4-5-4-----4-------||
B |-2-2-3-2-----2---|(2)--------------|--|--|-2-2-3-2-----2-------||

Play Last Row Of Riff 1a
Play Riff 2a - 4x

Outro
B |-----------------|-----------------|-----------------|-----------------|
F#|-----------------|-----------------|-----------------|-----------------|
D |-----------------|-----------------|-----------------|-----------------|
A |-----------------|-----------------|-----------------|-----------------|
E |---R-------------|-----------------|-----------------|-----------------|
B |-2---------------|-----------------|-----------------|-----------------|
    .
B |-----------------|-----------------|--|--|-----------------|-----------------|--|--|
F#|-----------------|-----------------|-4x--|-----------------|-----------------|-2x--|
D |-----------------|-----------------|--|--|-----------------|-----------------|--|--|
A |-----------------|-----------------|--|--|-----------------|-----------------|--|--|
E |---R-----R-------|---R-----R-------|--|--|-----------------|-----------------|--|--|
B |-2-----2-----3-5-|-2-----2-----3-0-|--|--|-222222222-2-3-5-|-222222222-2-3-0-|--|--|
    .     .     . .   .     .     . .         ......... . . .   ......... . . .
B |-----------------|-----------------|-----------------|-----------------|
F#|-----------------|-----------------|-----------------|-----------------|
D |-----------------|-----------------|-----------------|-----------------|
A |-4---------------|(4)--------------|-5---------------|(5)--------------|
E |-4---------------|(4)--------------|-5---------------|(5)--------------|
B |-2---------------|(2)--------------|-3---------------|(3)------33333333|
                                                                  ........
B |-----------------|-----------------|-----------------|-----------------|
F#|-----------------|-----------------|-----------------|-----------------|
D |-----------------|-----------------|-----------------|-----------------|
A |-4---------------|(4)--------------|-10--------------|-9-------7-------|
E |-4---------------|(4)--------------|-10--------------|-9-------7-------|
B |-2---------------|(2)--------------|-8---------------|-7-------5-------|

B |-----------------|-----------------|-----------------|-----------------|2x this row
F#|-----------------|-----------------|-----------------|-----------------|
D |-----------------|-----------------|-----------------|-----------------|
A |-----------------|-----------------|-----------------|-----------------|
E |-----------------|-----------------|-----------------|-----------------|
B |-2222322222223222|-222232222-2-3-5-|-2222322222223222|-2222322233333333|
    ................  ......... . . .   ................  ................
B |-----------||
F#|-----------||
D |-----------||
A |---------R-||
E |-4-4-5-4---||
B |-2-2-3-2---||


----------------------------------------------------------------------------


Fear Factory-Self Bias Resistor

Intro
B |-----------------|----|-----------------|--|--|---------||
F#|-----------------|-3x-|-----------------|-2x--|---------||
D |-----------------|----|-----------------|--|--|---------||
A |---------|  3  |-|----|-|  3  |-|  3  |-|--|--|---------||
E |---R-------------|----|-----------------|--|--|---R-----||
B |-3-------3--3-33-|----|-3--3-33-3--3-33-|--|--|-3-------||
    .       .  . ..        .  . .. .  . ..         .

Riff 1
B |-----------------|----|-----------------|-----------------|----|-----------------|
F#|-----------------|-7x-|-----------------|-----------------|-7x-|-----------------|
D |-----------------|----|-----------------|-----------------|----|-----------------|
A |-----------------|----|-|  3  |-|  3  |-|-----------------|----|-----------------|
E |---------------R-|----|-----------------|---------------R-|----|-R---------------|
B |-22222-22--2-2---|----|-3--3-33-3--3-33-|-22222-22--2-2---|----|-----------------|
    ..... ..  . .          .  . .. .  . ..   ..... ..  . .
B |-----------------|----|-----------------|----|-----------------|
F#|-----------------|-8x-|-----------------|-7x-|-----------------|
D |-----------------|----|-----------------|----|-----------------|
A |-----------------|----|-----------------|----|-|  3  |-|  3  |-|
E |---------------R-|----|-----------------|----|-----------------|
B |-22222-22--2-2---|----|-333333333-33-33-|----|-3--3--3-3--3--3-|
    ..... ..  . .          ......... .. ..        .  .  . .  .  .
B |-----------------|----|-----------------||
F#|-----------------|-7x-|-----------------||
D |-----------------|----|-----------------||
A |-----------------|----|-----------------||
E |---------------R-|----|-R---------------||
B |-22222-22--2-2---|----|-----------------||
    ..... ..  . .

Riff 2
B |-----------------|-----------------|-----------------|-----------------|
F#|-----------------|-----------------|-----------------|-----------------|
D |-9---9---9---9-9-|---------------7-|(7)--7---7---7-7-|-----------------|
A |-9---9---9---9-9-|-9---9---9---9-7-|(7)--7---7---7-7-|-7---7-----------|
E |-7---7---7---7-7-|-9---9---9---9-5-|(5)--5---5---5-5-|-7---7-----------|
B |-----------------|-7---7---7---7---|-----------------|-5---5---55553333|
                                                                  ........
B |-----------------|-----------------|-----------------|-----------------||3x this row
F#|-----------------|-----------------|-----------------|-----------------||
D |-----9---9---9-9-|---------------7-|(7)--7---7---7---|-----------------||
A |-----9---9---9-9-|-9---9---9---9-7-|(7)--7---7---7-7-|(7)--7-----------||
E |-----7---7---7-7-|-9---9---9---9-5-|(5)--5---5---5-7-|(7)--7-----------||
B |-0000------------|-7---7---7---7---|---------------5-|(5)--5---55553333||
    ....                                                          ........

Riff 1a
B |-----------------|----|-----------------|--|--|-----------------|----|
F#|-----------------|-3x-|-----------------|-2x--|-----------------|-8x-|
D |-----------------|----|-----------------|--|--|-----------------|----|
A |-----------------|----|-|  3  |-|  3  |-|--|--|-----------------|----|
E |-----------------|----|-----------------|--|--|---------------R-|----|
B |-333333333-33-33-|----|-3--3--3-3--3--3-|--|--|-22222-22--2-2---|----|
    ......... .. ..        .  .  . .  .  .         ..... ..  . .

Play Riff 2

Riff 3
B |-----------------|-----------------|-----------------|-----------------|2x this row
F#|-----------------|-----------------|-----------------|-----------------|
D |-----------------|-----------------|-----------------|-----------------|
A |-----------------|-----------------|-----------------|-----------------|
E |-2-------7---5---|-2---7---7/8-7---|-2-------7---5---|-2---7---7/8-----|
B |-0-------5---3---|-0---5-0-5/6-5-0-|-0-------5---3---|-0---5-0-5/6-5500|
                            .       .                           .
B |-----------------|-----------------|-----------------|-----------------|2x this row
F#|-----------------|-----------------|-----------------|-----------------|
D |-----------------|-----------------|-----------------|-----------------|
A |-----------------|-----------------|-----------------|-----------------|
E |---------7---5---|-9---7---7/8-8---|---------7---5---|-2---7---7/8-----|
B |-0-0-0-0-5-0-3-0-|-7-0-5-0-5/6-6-0-|-0-0-0-0-5-0-3-0-|-0-0-5-0-5/6-5500|
    . . . .   .   .     .   .       .   . . . .   .   .     .   .

Riff 4
B |-----------------|----|-----------------||3x
F#|-----------------|-3x-|-----------------||
D |-----------------|----|-----------------||
A |-----------------|----|-------------5---||
E |-------------R---|----|-------------3---||
B |-222222220-2-----|----|-222222220-2-----||
    ......... .            ......... .

Riff 4a
B |-----------------|----|-----------------||
F#|-----------------|-3x-|-----------------||
D |-----------------|----|-----------------||
A |-----------------|----|-----------------||
E |-------------R---|----|-------------3333||
B |-222222220-2-----|----|-222222220022----||
    ......... .            ................

Play Riff 4 - 2x

Riff 5
B |-----------------|-----------------|-----------------|-----------------||
F#|-----------------|-----------------|-----------------|-----------------||
D |-----------------|-----------------|-----------------|-----------------||
A |-----------------|-----------------|-----------------|-----------------||
E |-----------------|---------7---7---|-----------------|---------6---6---||
B |-55550-5-4-0-5555|-0-5-4-0-5---5---|-55550-5-4-0-5555|-0-5-4-0-4---4---||
    ..... . . . ....  . . . .           ..... . . . ....  . . . .

Play Riff 4 - 2x
Play Riff 5 - 2x

Riff 1b
B |-----------------|-----|---------||
F#|-----------------|-12x-|---------||
D |-----------------|-----|---------||
A |-----------------|-----|---------||
E |-----------------|-----|---R-----||
B |-333333333-33-33-|-----|-3-------||
    ......... .. ..         .

Play Riff 2 (last bar 4x)

Continuation
B |-----------------|-----------------|-----------------|-----------------||
F#|-----------------|-----------------|-----------------|-----------------||
D |-----9---9---9-9-|---------------7-|(7)--7---7---7---|-----------------||
A |-----9---9---9-9-|-9---9---9---9-7-|(7)--7---7---7-7-|-|  3  |-|  3  |-||
E |-----7---7---7-7-|-9---9---9---9-5-|(5)--5---5---5-7-|-5--5-55-5--5-55-||
B |-0000------------|-7---7---7---7---|---------------5-|-3--3-33-3--3-33-||
    ....

Play Riff 2 (last bar 1x)
Play Riff 3 (last bar 7x)

End
B |-----------------|-----------------|-----------------|-----------------|
F#|-----------------|-----------------|-----------------|-----------------|
D |-----------------|-----------------|-----------------|-----------------|
A |-----------------|-----------------|-----------------|-----------------|
E |---------7---5---|-9---7---7/8-8---|---------7---5---|-2---7---7/8-----|
B |-0-0-0-0-5-0-3-0-|-7-0-5-0-5/6-6-0-|-0-0-0-0-5-0-3-0-|-0-0-5-0-5/6-7777|
    . . . .   .   .     .   .       .   . . . .   .   .     .   .
B |---------||
F#|---------||
D |---------||
A |---R-----||
E |-2-------||
B |-0-------||


----------------------------------------------------------------------------


Fear Factory-Zero Signal

Intro
B |-----------------|-----------------|-----------------|-----------------||4x
F#|-----------------|-----------------|-----------------|-----------------||
D |-----------------|-----------------|-----------------|-----------------||
A |-2---------------|(2)--------------|(2)--------------|(2)--------------||
E |-2---------------|(2)--------------|(2)--------------|(2)--------------||
B |-0---------------|(0)--------------|(0)--------------|(0)--------------||

Riff 1
B |-----------------|-----------------|-----------------|-----------------|3x this row
F#|-----------------|-----------------|-----------------|-----------------|
D |-----------------|-----------------|-----------------|-----------------|
A |-----------------|-----------------|-----------------|-----------------|
E |-----------------|-----------------|-----------------|-----------------|
B |-444-444-444-444-|-444-444-444-444-|-444-444-444-444-|-444-444-444-444-|
    ... ... ... ...   ... ... ... ...   ... ... ... ...   ... ... ... ...
B |-----------------|-----------------|-----------------|-----------------||
F#|-----------------|-----------------|-----------------|-----------------||
D |-----------------|-----------------|-----------------|-----------------||
A |-----------------|-----------------|-----------------|-----------------||
E |-----------------|-----------------|-----------------|-----------------||
B |-444-444-444-444-|-444-444-444-444-|-444-444-444-444-|-3333333322222222||
    ... ... ... ...   ... ... ... ...   ... ... ... ...   ................

Riff 2
B |-----------------|----|-----------------||4x
F#|-----------------|-3x-|-----------------||
D |-----------------|----|-----------------||
A |-----------------|----|-----------------||
E |---------------6-|----|-----------------||
B |-000000000-0-0-4-|----|-0000000000000000||
    ......... . .          ................

Riff 1a
B |-----------------|-----------------|-----------------|-----------------|2x this row
F#|-----------------|-----------------|-----------------|-----------------|
D |-----------------|-----------------|-----------------|-----------------|
A |-----------------|-----------------|-----------------|-----------------|
E |-----------------|-----------------|-----------------|-----------------|
B |-444-444-444-444-|-444-444-444-444-|-444-444-444-444-|-444-444-444-444-|
    ... ... ... ...   ... ... ... ...   ... ... ... ...   ... ... ... ...
B |-----------------|-----------------|-----------------|-----------------||2x this row
F#|-----------------|-----------------|-----------------|-----------------||
D |-----------------|-----------------|-----------------|-----------------||Play Whole
A |-----------------|-----------------|-----------------|-----------------||Riff 2x
E |---------------7-|---------------7-|---------------7-|-----------------||
B |-222222222-2-2-5-|-222222222-2-2-5-|-222222222-2-2-5-|-2222222222222222||
    ......... . .     ......... . .     ......... . .     ................

Riff 3
B |-----------------|-----------------|-----------------|-----------------|
F#|-----------------|-----------------|-----------------|-----------------|
D |-999-999-999-999-|-----------------|-----------------|-----------------|
A |-----------------|-999-999-999-999-|-----------------|-----------------|
E |-777-777-777-777-|-----------------|-----------------|-5555555555555555|
B |-----------------|-777-777-777-777-|-5555555555555555|-----------------|
                                        ................  ................
B |-----------------|-----------------|-----------------|-----------------||2x
F#|-----------------|-----------------|-----------------|-----------------||
D |-999-999-999-999-|-777-777-777-777-|-666-666-666-666-|-777-777-777-777-||
A |-----------------|-----------------|-----------------|-----------------||
E |-777-777-777-777-|-555-555-555-555-|-444-444-444-444-|-555-555-555-555-||
B |-----------------|-----------------|-----------------|-----------------||

Riff 4
B |-----------------|-----------------|-----------------|-----------------|2x this row
F#|-----------------|-----------------|-----------------|-----------------|rest for a 
D |-----------------|-----------------|-----------------|-----------------|bit at end
A |-----------------|-----------------|-----------------|-----------------|of second time
E |-----------------|-----------------|-----------------|-----------------|
B |-4-4-6446--4-4445|---4-4444--4-4-5-|-3-3-6336--3-3335|---3-3334--3-3-4-|
    . . ....  . ....    . ....  . . .   . . ....  . ....    . ....  . . .
B |-----------------|-----------------|-----------------|-----------------|2x this row
F#|-----------------|-----------------|-----------------|-----------------| 
D |-----------------|-----------------|-----------------|-----------------|
A |-----------------|-----------------|-----------------|-----------------|
E |-----------------|-----------------|-----------------|----------R------|
B |-4-4-6446--4-4445|---4-4444--4-4-5-|-3-3-6336--3-3335|---3-3334--------|
    . . ....  . ....    . ....  . . .   . . ....  . ....    . ....
B |-----------------|-----------------|-----------------|-----------------||2x this row
F#|-----------------|-----------------|-----------------|-----------------||
D |-----------------|-----------------|-----------------|-----------------||
A |-----------------|-----------------|-----------------|-----------------||
E |-----------------|-----------------|-----------------|-----------------||
B |-44446446--444445|---444444--44445-|-33336336--333335|---333334--333333||
    ........  ......    ......  .....   ........  ......    ......  ......

Lead Into Next Section (most are whole notes)
B |-------|-------|-------|-------|-------|-------|-------|-----------------||
F#|-------|-------|-------|-------|-------|-------|-------|-----------------||
D |-------|-------|-------|-------|-------|-------|-------|-----------------||
A |-------|-------|-------|-------|-------|-------|-------|-----------------||
E |-6-----|(6)----|-5-----|(5)----|-6-----|(6)----|-2-----|-----------------||
B |-4-----|(4)----|-3-----|(3)----|-4-----|(4)----|-0-----|-2222222222222222||
                                                            ................

Riff 5
B |-----------------|-----------------|-----------------|-----------------|
F#|-----------------|-----------------|-----------------|-----------------|
D |-----------------|-----------------|-----------------|-----------------|
A |-----6-----6---6-|-----6-----------|-----5-----5---5-|-----5-----------|
E |-----6-----6---6-|-----6-----------|-----5-----5---5-|-----5-----------|
B |-4-4---4-4---4---|-4-4---4-44444444|-3-3---3-3---3---|-3-3---3-33333333|
    . .   . .   .     . .   . ........  . .   . .   .     . .   . ........
B |-----------------|-----------------|-----------------|-----------------|
F#|-----------------|-----------------|-----------------|-----------------|
D |-----------------|-----------------|-----------------|-----------------|
A |-----6-----6---6-|-----6-----------|-----2-----2---2-|-----4-----------|
E |-----6-----6---6-|-----6-----------|-----2-----2---2-|-----4-----------|
B |-4-4---4-4---4---|-4-4---4-44444444|-0-0---0-0---0---|-2-2---2-22222222|
    . .   . .   .     . .   . ........  . .   . .   .     . .   . ........
B |-----------------|-----------------|-----------------|-----------------|
F#|-----------------|-----------------|-----------------|-----------------|
D |-----------------|-----------------|-----------------|-----------------|
A |-----6-----6---6-|-----6-----------|-----5-----5---5-|-----5-----------|
E |-----6-----6---6-|-----6-----------|-----5-----5---5-|-----5-----------|
B |-4-4---4-4---4---|-4-4---4-44444444|-3-3---3-3---3---|-3-3---3-33333333|
    . .   . .   .     . .   . ........  . .   . .   .     . .   . ........

B |-----------------|-----------------|-----------------|-----------------||
F#|-----------------|-----------------|-----------------|-----------------||
D |-----------------|-----------------|-----------------|-----------------||
A |-----6-----6---6-|-----6-----------|-----------------|-----------------||
E |-----6-----6---6-|-----6-----------|-2---------------|-4---------------||
B |-4-4---4-4---4---|-4-4---4-44444444|-0---------------|-2---------------||
    . .   . .   .     . .   . ........

Play Second Row Of Riff 1a - 5x
Play Riff 3 - 4x

Riff 6    [] = 2nd time
B |-----------------|-----------------|-----------------|-----------------|
F#|-----------------|-----------------|-----------------|-----------------|
D |-----------------|-----------------|-----------------|-----------------|
A |-9---------------|-----------------|-----------------|-7---------------|
E |-7---------------|-9---------------|-7---------------|-5---------------|
B |-0---------------|-7---------------|-5---------------|-------------0-0-|
                                                                      . .
B |-----------------|-----------------|-----------------|-----------------||2x
F#|-----------------|-----------------|-----------------|-----------------||
D |-----------------|-----------------|-----------------|-----------------||
A |-9---------------|-7---------------|-6---------------|-7---------------||
E |-7---------------|-5---------------|-4---------------|-5---------------||
B |-0---------------|-----------------|-----------------|--------[0-0]0-0-||
                                                                 [. .]. .

Riff 6a
B |-----------------|-----------------|-----------------|-----------------|
F#|-----------------|-----------------|-----------------|-----------------|
D |-9---9-9-9---9-9-|-----------------|-----------------|-7---7-7-7---7-7-|
A |-----------------|-9---9-9-9---9-9-|-7---7-7-7---7-7-|-----------------|
E |-7---7-7-7---7-7-|-----------------|-----------------|-5---5-5-5---5-5-|
B |-----------------|-7---7-7-7---7-7-|-5---5-5-5---5-5-|-----------------|

B |-----------------|-----------------|-----------------|-----------------|
F#|-----------------|-----------------|-----------------|-----------------|
D |-9---9-9-9---9-9-|-7---7-7-7---7-7-|-6---6-6-6---6-6-|-7---7-7-7---7-7-|
A |-----------------|-----------------|-----------------|-----------------|
E |-7---7-7-7---7-7-|-5---5-5-5---5-5-|-4---4-4-4---4-4-|-5---5-5-5---5-5-|
B |-----------------|-----------------|-----------------|-----------------|

B |-----------------|-----------------|-----------------|-----------------|
F#|-----------------|-----------------|-----------------|-----------------|
D |-9---9-9-9---9-9-|-----------------|-----------------|-7---7-7-7---7-7-|
A |-----------------|-9---9-9-9---9-9-|-7---7-7-7---7-7-|-----------------|
E |-7---7-7-7---7-7-|-----------------|-----------------|-5---5-5-5---5-5-|
B |-----------------|-7---7-7-7---7-7-|-5---5-5-5---5-5-|-----------------|

B |-----------------|-----------------|-----------------|-----------------|
F#|-----------------|-----------------|-----------------|-----------------|
D |-9---9-9-9---9-9-|-7---7-7-7---7-7-|-6---6-6-6---6-6-|-----------------|
A |-----------------|-----------------|-----------------|-7---7-----------|
E |-7---7-7-7---7-7-|-5---5-5-5---5-5-|-4---4-4-4---4-4-|-5---5-----------|
B |-----------------|-----------------|-----------------|---------0-0-0-0-|
                                                                  . . . .
B |-----------------||
F#|-----------------||
D |-----------------||
A |-----------------||
E |-2---------------||
B |-0---------------||let ring out


----------------------------------------------------------------------------



Fear Factory-Replica

Riff 1
B |-----------------|-----------------|-----------------|-----------------|3x this row
F#|-----------------|-----------------|-----------------|-----------------|
D |-----------------|-----------------|-----------------|-----------------|
A |-----------------|-----------------|-----------------|-----------------|
E |-----------------|-R-----------R---|-----------------|-R-----------R---|
B |-2-2-2-2-2-2-2-5-|-----5-5-5-7-----|-4-4-4-4-4-4-4-5-|-----5-5-5-3-----|
                  .             .                     .             .
B |-----------------|-----------------|-----------------|-----------------||
F#|-----------------|-----------------|-----------------|-----------------||
D |-----------------|-----------------|-----------------|-----------------||
A |-----------------|-----------------|-----------------|-----------------||
E |-----------------|-R-----------R---|-----------------|-----------------||
B |-2-2-2-2-2-2-2-5-|-----5-5-5-7-----|-4-4-4-4-4-4-4-4-|-5-5-5-5-3-3-3-3-||
                  .             .

Riff 1a
B |-----------------|-----------------|-----------------|-----------------|3x this row
F#|-----------------|-----------------|-----------------|-----------------|
D |-----------------|-----------------|-----------------|-----------------|
A |-----------------|-----------------|-----------------|-----------------|
E |-4-------4---4-7-|(7)--7---7-7-----|-7-------7---7-7-|(7)--7---7-5-----|
B |-2-------2---2-5-|(5)--5---5-7-----|-4-------4---4-5-|(5)--5---5-3-----|

B |-----------------|-----------------|-----------------|-----------------||
F#|-----------------|-----------------|-----------------|-----------------||
D |-----------------|-----------------|-----------------|-----------------||
A |-----------------|-----------------|-----------------|-----------------||
E |-4-------4---4-7-|(7)--7---7-7-----|-7-------7---7-7-|-R-----------R---||
B |-2-------2---2-5-|(5)--5---5-7-----|-4-------4---4-5-|-----5-5-5-3-----||
                                                                    .

Play Riff 1
Play Riff 1a (first row 1x)
Play First Row Of Riff 1 - 4x

Riff 1b
B |-----------------|-----------------|-----------------|-----------------|
F#|-----------------|-----------------|-----------------|-----------------|
D |-----------------|-----------------|-----------------|-----------------|
A |-----------------|-----------------|-----------------|-----------------|
E |-----------------|-----------------|-----------------|-----------------|
B |-2-2-2-2-2-2-2-2-|-5-5-5-5-7-7-7-7-|-4-4-4-4-4-4-4-4-|-5-5-5-5-3-3-3-3-|

B |-----------------|-----------------|-----------------|-----------------||
F#|-----------------|-----------------|-----------------|-----------------||
D |-----------------|-----------------|-----------------|-----------------||
A |-----------------|-----------------|-----------------|-----------------||
E |-----------------|-----------------|-----------------|-----------------||
B |-2-2-2-2-2-2-2-2-|-5-5-5-5-7-7-7-7-|-4444444444444444|-5555555533333333||

Riff 1c
B |-----------------|-----------------|-----------------|-----------------|
F#|-----------------|-----------------|-----------------|-----------------|
D |-----------------|-----------------|-----------------|-----------------|
A |-----------------|-----------------|-----------------|-----------------|
E |-7-------7---7---|(7)--7-7-7-7-7-7-|-9-------9---9---|(9)--9-9-9-9-9-9-|
B |-5-------7---4---|(4)--4-4-4-4-4-4-|-7-------6---6---|(6)--6-6-6-6-6-6-|


B |-----------------|-----------------|-----------------|-----------------||2x
F#|-----------------|-----------------|-----------------|-----------------||
D |-----------------|-----------------|-----------------|-----------------||
A |-----------------|-----------------|-|3|-------------|-----------------||
E |-7-------7---7---|(7)--7-7-7-7-7-7-|-----------------|-----------------||
B |-5-------7---4---|(4)--4-4-4-4-4-4-|-000-2---2---2-2-|---2-2-2-2-2-2-2-||
                                        ... .   .   . .     . . . . . . .

Lead Into Next Section
B |-----------------|-----------------||3x
F#|-----------------|-----------------||
D |-----------------|-----------------||
A |-|3|-------------|-----------------||
E |-----------------|-----------------||
B |-000-2---2---2-2-|---2-2-2-2-2-2-2-||
    ... .   .   . .     . . . . . . .

Play Riff 1 (first row 1x)
Play Riff 1a (first row 1x)
Play First Row Of Riff 1 - 2x
Play Riff 1b
Play Riff 1c - 4x

Lead Into Next Section
B |-----------------|-----------------||   |-----------------|-----------------||2x
F#|-----------------|-----------------||   |-----------------|-----------------||
D |-----------------|-----------------||   |-----------------|-----------------||
A |-|3|-------------|-----------------||   |-|3|-|3|-|3|-|3|-|-|3|-|3|-|3|-|3|-||
E |-----------------|-----------------||   |-----------------|-----------------||
B |-000-2---2---2-2-|---2-2-2-2-2-2-2-||   |-022-222-022-222-|-022-222-022-222-||
    ... .   .   . .     . . . . . . .

Play Riff 1c - 4x

Lead Into Next Section
B |-----------------|-----------------||2x |-----------------|-----------------||2x
F#|-----------------|-----------------||   |-----------------|-----------------||
D |-----------------|-----------------||   |-----------------|-----------------||
A |-|3|-------------|-----------------||   |-|3|-|3|-|3|-|3|-|-|3|-|3|-|3|-|3|-||
E |-----------------|-----------------||   |-----------------|-----------------||
B |-000-2---2---2-2-|---2-2-2-2-2-2-2-||   |-022-222-022-222-|-022-222-022-222-||
    ... .   .   . .     . . . . . . .

End
B |---------||
F#|---------||
D |---------||
A |---R-----||
E |-4-------||
B |-2-------||


----------------------------------------------------------------------------


Fear Factory-New Breed

Riff 1
B |-----------------|-----------------||12x
F#|-----------------|-----------------||
D |-----------------|-----------------||
A |-----------------|-----------------||
E |-----------------|---------------R-||
B |-4-3---4-3---4-3-|---4-3---3-4-5---||

Rest 2 bars

Play Riff 1 - 5x

Riff 2
B |-----------------|-----------------|-----------------|-----------------||2x
F#|-----------------|-----------------|-----------------|-----------------||
D |-----------------|-----------------|-----------------|-----------------||
A |-----------------|-----------------|-----------------|-----------------||
E |-6-----6-----6---|---6-----4---4---|-6-----6-----6---|---6-----9---9---||
B |-4-----4-----4---|---4-----2---2---|-4-----4-----4---|---4-----7---7---||

Play Riff 1 - 4x
Play Riff 2 - 2x

Riff 3
B |-----------------|-----------------||4x
F#|-----------------|-----------------||
D |-----------------|-----------------||
A |-6-----------4---|---------5-------||
E |-4-4-4-5-----2-2-|-2-4-----3---4---||
B |-------3-3-3-----|---2-2-2-----2---||
      . .   . .   .   .   . .

Rest 7 Bars

Lead Into Next Section
B |-----------------||
F#|-----------------||
D |-----------------||
A |-----------------||
E |---------------R-||
B |---------3-4-5---||

Play Riff 1 - 8x
Play Riff 2 - 2x
Play Riff 3 - 4x

Riff 3a
B |-----------------|-----------------|-----------------|-----------------||
F#|-----------------|-----------------|-----------------|-----------------||
D |-----------------|-----------------|-----------------|-----------------||
A |-6-----------4---|---------5-------|-6-----------4---|---------------R-||
E |-4-4-4-5-----2-2-|-2-4-----3---4---|-4-4-4-5-----2-2-|-2-4-----33332---||
B |-------3-3-3-----|---2-2-2-----2---|-------3-3-3-----|---2-2-2---------||
      . .   . .   .   .   . .             . .   . .   .   .   . . .....

Play Riff 1 - 3x

End
B |-----------------|-----------------||
F#|-----------------|-----------------||
D |-----------------|-----------------||
A |-----------------|-----------------||
E |-----------------|-------------R---||
B |-3-4-5-3-4-5-3-4-|-5-4-33334-------||



----------------------------------------------------------------------------



Fear Factory-Dog Day Sunrise

Riff 1      let all notes ring
B |-----------------|-----------------||3x
F#|-----------------|-----------------||
D |-----------------|-----------------||
A |-------9---------|-------9---------||
E |-----------------|-----------------||
B |-7-----------7---|-5-----------5---||

Riff 1a
B |-----------------|-----------------||
F#|-----------------|-----------------||
D |-----------------|-----------------||
A |-------9---------|-----------------||
E |-----------------|-7---7---7---7---||
B |-7-----------7---|-5---5---5---5---||

Riff 2
B |-----------------||32x
F#|-----------------||
D |-----------------||
A |-----------10----||
E |-----------8-----||
B |-7---7-5-7-------||

Play Riff 1 - 4x
Play Riff 2 - 12x
Play Riff 1 - 16x
Play Riff 2 - 8x
Play Riff 1 - 4x
Play Riff 2 - 28x
Play Riff 1 - 8x



----------------------------------------------------------------------------



Fear Factory-Body Hammer

Riff 1
B |-----------------|-----------------|-----------------|-----------------||3x
F#|-----------------|-----------------|-----------------|-----------------||
D |-----------------|---------4-5-3---|-----------------|-----------------||
A |-3-----6---------|-3---6---2-3-1---|-3-----6-----3---|-----------------||
E |-1-0-0-4-0-0-0-0-|-1-0-4-0---------|-1-0-0-4-0-0-1-0-|-0-0-0-0-0-0-0000||
B |-----------------|-----------------|-----------------|-----------------||
      . .   . . . .    .    .             . .   . .   .   . . . . . . ....

Lead Into Next Section
B |-----------------|-----------------|
F#|-----------------|-----------------|
D |-----------------|---------4-5-3---|
A |-3-----6---------|-3---6---2-3-1---|
E |-1-0-0-4-0-0-0-0-|-1-0-4-0---------|
B |-----------------|-----------------|
      . .   . . . .    .    .
B |-----------------|-----------------|-----------------||
F#|-----------------|-----------------|-----------------||
D |-----------------|-----------------|-----------------||
A |-3-----6-----3---|-----------------|-----------------||
E |-1-0-0-4-0-0-1-0-|-----------------|-0-0-0-0-0-0-0000||
B |-----------------|-3-3-3-3-3-3-3-3-|-----------------||
      . .   . .   .   . . . . . . . .   . . . . . . ....

Play Riff 1 - 3x

Riff 1a
B |-----------------|-----------------|-----------------|-----------------||
F#|-----------------|-----------------|-----------------|-----------------||
D |-----------------|---------4-5-3---|---------------R-|-----------------||
A |-3-----6---------|-3---6---2-3-1---|-3-----6-----3---|-----------------||
E |-1-0-0-4-0-0-0-0-|-1-0-4-0---------|-1-0-0-4-0-0-1---|-----------------||
B |-----------------|-----------------|-----------------|-----------------||
      . .   . . . .    .    .             . .   . .

Play Riff 1 - 2x

Riff 2
B |-----------------|-----------------|-----------------|-----------------||
F#|-----------------|-----------------|-----------------|-----------------||
D |-----------------|---------5-6-4---|-----------------|-----------------||
A |-4-----6---------|-4---6---3-4-2---|-4-----6-----4---|-----------------||
E |-2-1-1-4-1-1-1-1-|-2-1-4-1---------|-2-1-1-4-1-1-2-1-|-1111111111111111||
B |-----------------|-----------------|-----------------|-----------------||
      . .   . . . .     .   .             . .   . .   .   ................

Riff 1b
B |-----------------|-----------------|-----------------|-----------------||
F#|-----------------|-----------------|-----------------|-----------------||
D |-----------------|---------4-5-3---|-----------------|-----------------||
A |-3-----6---------|-3---6---2-3-1---|-3-----6-----3---|-----------------||
E |-1-0-0-4-0-0-0-0-|-1-0-4-0---------|-1-0-0-4-0-0-1-0-|-0000000000000000||
B |-----------------|-----------------|-----------------|-----------------||
      . .   . . . .    .    .             . .   . .   .   ................

Riff 3
B |-----------------|-----------------|-----------------|-----------------||2x
F#|-----------------|-----------------|-----------------|-----------------||
D |-----------------|-----------------|-----------------|-----------------||
A |---------6-------|-----6---5-6-5-3-|---------6-------|-----------------||
E |-5-------4-------|-5---4---3-4-3-1-|-5-------4-----5-|-8---8---8---8---||
B |-3---------------|-3---------------|-3-------------3-|-6---6---6---6---||

Lead Into Verse
B |-----------------||
F#|-----------------||
D |-----------------||
A |-----------------||
E |-----------------||
B |-3333333333333-3-||
    ............. .

Play Riff 1
Play Riff 1a
Play Riff 1
Play Riff 1b
Play Riff 2
Play Riff 1b
Play Riff 3

Riff 3a
B |-----------------|-----------------|-----------------|-----------------||
F#|-----------------|-----------------|-----------------|-----------------||
D |-----------------|-----------------|-----------------|-----------------||
A |---------6-------|-----6---5-6-5-3-|---------6-------|-----------------||
E |-5-------4-------|-5---4---3-4-3-1-|-5-------4-----5-|-8-----5-8-5-8-5-||
B |-3---------------|-3---------------|-3-------------3-|-6-----3-6-3-6-3-||

Play Riff 3 - 2x

Lead Into Next Section
B |-----------------|-----------------|-----------------|-----------------||
F#|-----------------|-----------------|-----------------|-----------------||
D |-----------------|-----------------|-----------------|-----------------||
A |-----------------|-----------------|-----------------|---------------R-||
E |-0000000000000000|-0000000000000000|-0000000000000000|-0000000000000---||
B |-----------------|-----------------|-----------------|-----------------||
    ................  ................  ................  .............

Riff 4
B |-----------------|----|-----------------|----|-----------------||
F#|-----------------|-8x-|-----------------|-8x-|-----------------||
D |-3---------------|----|-3---------------|----|-----------------||
A |-1-3-------------|----|-1-3---------3-5-|----|-----------------||
E |---1-000000000000|----|---1-000000001-3-|----|-0-0-0-0-0-0-0000||
B |-----------------|----|-----------------|----|-----------------||
        ............           ........           . . . . . . ....

Play Riff 1 - 2x

Lead Into Chorus
B |-----------------||
F#|-----------------||
D |-----------------||
A |-----------------||
E |-111111111p0-1p0-||
B |-----------------||
    .........

Play Riff 3
Play Riff 3a
Play Riff 3 - 2x

Riff 5
B |-----------------|-----------------|-----------------|-----------------|
F#|-----------------|-----------------|-----------------|-----------------|
D |-----------------|-----------------|-----------------|-----------------|
A |-----------------|-----------------|-----------------|-----------------|
E |-8-8-8-8-8-8-8-5/|-8-8-8-8-8-8-8-5/|-8-8-8-8-8-8-8-5/|-8-8-8-8-8-8-8\\\|
B |-6-6-6-6-6-6-6-3/|-6-6-6-6-6-6-6-3/|-6-6-6-6-6-6-6-3/|-6-6-6-6-6-6-6\\\|

B |-----------------|-----------------|-----------------|-----------------|
F#|-----------------|-----------------|-----------------|-----------------|
D |-----------------|-----------------|-----------------|-----------------|
A |-----R-----------|-----R-----------|-----R-----------|-----R-------R---|
E |-5---------------|-5-------------5-|-5---------------|-8-------8-------|
B |-3---------------|-3-------------3-|-3---------------|-6-------6-------|

B |-----------------|-----------------|-----------------|-----------------||
F#|-----------------|-----------------|-----------------|-----------------||
D |-----------------|-----------------|-----------------|-----------------||
A |-----R-----------|-----R-----------|-----R-----------|-----------------||
E |-5---------------|-5-------------5-|-5---------------|-----------------||
B |-3---------------|-3-------------3-|-3---------------|-6666666666666666||
                                                          ................

Play Riff 3
Play Riff 3a
Play Riff 3 - 2x

Riff 3b
B |-----------------|-----------------|-----------------|-----------------|
F#|-----------------|-----------------|-----------------|-----------------|
D |-----------------|-----------------|-----------------|-----------------|
A |---------6-------|-----6---5-6-5-3-|---------6-----6-|-3---------------|
E |-5-----5-4-------|-5---4---3-4-3-1-|-5-----5-4---5-4-|-1-----4/16~~~~~~|
B |-3-----3---------|-3---------------|-3-----3-----3---|-----------------|

B |-----------------|-----------------|-----------------|-----------------|
F#|-----------------|-----------------|-----------------|-----------------|
D |-----------------|-----------------|-----------------|-----------------|
A |---------6-------|-----6---5-6-5-3-|---------6-----6-|-----------------|
E |-5-----5-4-------|-5---4---3-4-3-1-|-5-----5-4---5-4-|-1111111111111111|
B |-3-----3---------|-3---------------|-3-----3-----3---|-----------------|
                                                          ................
B |-----------------|-----------------|-----------------|-----------------|
F#|-----------------|-----------------|-----------------|-----------------|
D |-----------------|-----------------|-----------------|-----------R-----|
A |---------6-------|-----6---5-6-5-3-|---------6-----6-|-3-------3---3---|
E |-5-----5-4-------|-5---4---3-4-3-1-|-5-----5-4---5-4-|-1-------1---1---|
B |-3-----3---------|-3---------------|-3-----3-----3---|-----------------|

B |-----------------|-----------------|-----------------|-----------------||
F#|-----------------|-----------------|-----------------|-----------------||
D |-----------------|-----------------|-----------------|-----------------||
A |---------6-------|-----6---5-6-5-3-|---------6-----6-|-----------------||
E |-5-----5-4-------|-5---4---3-4-3-1-|-5-----5-4---5-4-|-1111111111111111||
B |-3-----3---------|-3---------------|-3-----3-----3---|-----------------||
                                                          ................

End
B |-----------------|-----------------||4x |-----------------|8x |-------------------||
F#|-----------------|-----------------||   |-----------------|   |-------------------||
D |-----------------|-----------------||   |-----------------|   |-------------------||
A |-------6-------6-|-----6---5-6-5-3-||   |-----6---5-6-5-3-|   |-------------------||
E |-5-5-5-4-------4-|-5-5-4---3-4-3-1-||   |-5-5-4---3-4-3-1-|   |-------------------||
B |-3-3-3-----------|-3-3-------------||   |-3-3-------------|   |-3-5-5-5-5-5-55555-||



----------------------------------------------------------------------------



Fear Factory-Flashpoint

Rest 8 Bars

Riff 1
B |-----------------|----|-----------------|----|
F#|-----------------|-4x-|-----------------|-4x-|
D |-----------------|----|---------R-------|----|
A |-----6-------6-6-|----|-----6-------6-6-|----|
E |-55-54---55-54-4-|----|-55-54-------4-4-|----|
B |-33-3----33-3----|----|-33-3------------|----|

B |-----------------|----|-----------------|----|-----------------|----||
F#|-----------------|-4x-|-----------------|-4x-|-----------------|-4x-||
D |-----------------|----|-R---------------|----|-----------------|----||
A |-----6-------6-6-|----|-------------6-6-|----|-----6-------6-6-|----||
E |-55-54---55-54-4-|----|-------------4-4-|----|-55-54---55-54-4-|----||
B |-33-3----33-3----|----|-----------------|----|-33-3----33-3----|----||

Riff 2    all 8th notes staccato
B |-----------------|----|-----------------|-----------------|--|--|---------||
F#|-----------------|-4x-|-----------------|-----------------|-2x--|---------||
D |-----------------|----|-----------------|-----------------|--|--|---------||
A |-----------------|----|-----------------|------------3--4-|--|--|----3--5-||
E |-6-6-6-6-6-6-6-66|----|-5-5-5-5-5-5-5-55|-5-5-5-5-6--1--2-|--|--|-6--1--3-||
B |-4-4-4-4-4-4-4-4-|----|-3-3-3-3-3-3-3-3-|-3-3-3-3-4-------|--|--|-4-------||

Riff 1a
B |-----------------|----|---------|-----------------|----|---------||
F#|-----------------|-3x-|---------|-----------------|-3x-|---------||
D |-----------------|----|---------|-----------------|----|---------||
A |-----6-------6-6-|----|-------R-|-----6-------6-6-|----|-----6---||
E |-55-54---55-54-4-|----|-55-55---|-55-54---55-54-4-|----|-55-54-5-||
B |-33-3----33-3----|----|-33-33---|-33-3----33-3----|----|-33-3--3-||

Riff 3
B |-----------------|-----------------|-----------------|-----------------|
F#|-----------------|-----------------|-----------------|-----------------|
D |-----------------|-----------------|-----------------|-----------------|
A |-9---------------|-7---------------|-6---------------|-5-------3-------|
E |-7-------------7-|-5-------------7-|-4-------------7-|-3-------1-------|
B |---------------5-|---------------5-|---------------5-|-----------------|

B |-----------------|-----------------|-----------------|-----------------||
F#|-----------------|-----------------|-----------------|-----------------||
D |-----------------|-----------------|-----------------|-----------------||
A |-9---------------|-10--------------|-7---------------|-5---------------||
E |-7-------------7-|-8-------------7-|-5---------------|-3-----xx7-xx7-xx||
B |---------------5-|---------------5-|-----------------|-------xx5-xx5-xx||

Rest 8 Bars

Riff 3a
B |-----------------|-----------------|-----------------|-----------------|2x this row
F#|-----------------|-----------------|-----------------|-----------------|
D |-----------------|-----------------|-----------------|-----------------|
A |-9---------------|-7---------------|-6---------------|-5-------3-------|
E |-7---------------|-5---------------|-4---------------|-3-------1-------|
B |-----------------|-----------------|-----------------|-----------------|

B |-----------------||
F#|-----------------||
D |-----------------||
A |-----------------||
E |-5555555555555555||
B |-3333333333333333||

Play Riff 2

Riff 1b
B |-----------------|----|-----------------||
F#|-----------------|-7x-|-----------------||
D |-----------------|----|-----------------||
A |-----6-------6-6-|----|-----6-----------||
E |-55-54---55-54-4-|----|-55-54---55-55-5-||
B |-33-3----33-3----|----|-33-3----33-33-3-||



----------------------------------------------------------------------------



Fear Factory - H-K (Hunter Killer)

Rest For About 58 Seconds

Riff 1
B |-----------------|----|-----------------|--|--|
F#|-----------------|-3x-|-----------------|-2x--|
D |-----------------|----|-----------------|--|--|
A |---------R-------|----|-----------------|--|--|
E |-666-9-6---------|----|-666-9-9-666-9-9-|--|--|
B |-444-7-4---------|----|-444-7-7-444-7-7-|--|--|
    ... . .                ... . . ... . .
B |-----------------|----|-----------------|--|--|
F#|-----------------|-3x-|-----------------|-2x--|
D |-----------------|----|-----------------|--|--|
A |---------R-----R-|----|-----------------|--|--|
E |-666-9-6-----6---|----|-666-9-9-666-9-9-|--|--|
B |-444-7-4-----4---|----|-444-7-7-444-7-7-|--|--|
    ... . .     .          ... . . ... . .
B |-----------------|----|-----------------|
F#|-----------------|-7x-|-----------------|
D |-----------------|----|-----------------|
A |---------R-----R-|----|-----------------|
E |-666-9-6---4-6---|----|-R---------------|
B |-444-7-4---2-4---|----|-----------------|
    ... . .   . .
B |-----------------|-----------------|--|--|-----------------|-----------------|
F#|-----------------|-----------------|-3x--|-----------------|-----------------|
D |-----------------|-----------------|--|--|-----------------|-----------------|
A |---------R-----R-|---------R---7-6-|--|--|---------R-----R-|-----------------|
E |-666-9-6---4-6---|-666-9-6---6-5-4-|--|--|-666-9-6---4-6---|-666-9-9-666-9-9-|
B |-444-7-4---2-4---|-444-7-4---4-----|--|--|-444-7-4---2-4---|-444-7-7-444-7-7-|
    ... . .   . .     ... . .   .             ... . .   . .     ... . . ... . .
B |-----------------|----|-----------------||
F#|-----------------|-7x-|-----------------||
D |-----------------|----|-----------------||
A |-------------7-6-|----|-----------------||
E |-666-9-6---6-5-4-|----|-666-9-9-666-9-9-||
B |-444-7-4---4-----|----|-444-7-7-444-7-7-||
    ... .                  ... . . ... . .

Riff 2
B |-----------------|-----------------|-----------------|-----------------|
F#|-----------------|-----------------|-----------------|-----------------|
D |-----------------|-7---------------|-6---------------|-----------------|
A |-6---------------|-7---------------|-6---------------|-9---------------|
E |-6---------------|-5---------------|-4---------------|-9---------------|
B |-4---------------|-----------------|-----------------|-7---------------|

B |-----------------|-----------------|-----------------|-----------------||
F#|-----------------|-----------------|-----------------|-----------------||
D |-----------------|-7---------------|-6---------------|-----------------||
A |-6---------------|-7---------------|-6---------------|-----------------||
E |-6---------------|-5---------------|-4---------------|-666-9-9-666-9-9-||
B |-4---------------|-----------------|-----------------|-444-7-7-444-7-7-||
                                                          ... . . ... . .

Riff 1a
B |-----------------|----|-----------------||
F#|-----------------|-7x-|-----------------||
D |-----------------|----|-----------------||
A |-------------7-6-|----|-----------------||
E |-666-9-6---6-5-4-|----|-666-9-9-666-9-9-||
B |-444-7-4---4-----|----|-444-7-7-444-7-7-||
    ... .                  ... . . ... . .

Riff 2a
B |-----------------|-----------------|-----------------|-----------------||4x
F#|-----------------|-----------------|-----------------|-----------------||
D |-----------------|-----------------|-----------------|-----------------||
A |-----------------|-----------------|-----------------|-----------------||
E |-----------------|-5555555555555555|-4444444444444444|-----------------||
B |-4444444444444444|-----------------|-----------------|-7777777777777777||
    ................  ................  ................  ................

Riff 3
B |-----------------|-----------------|-----------------|-----------------|
F#|-----------------|-----------------|-----------------|-----------------|
D |-----------------|-----------------|-----------------|-----------------|
A |-----------------|-----------------|-----------------|-----------------|
E |-----0-2-----0-2-|-----------------|-----0-2-----0-2-|----------R------|
B |-4-2-----4-2-----|-4444444444444444|-4-2-----4-2-----|-222222222-------|
    . . . . . . . .   ................  . . . . . . . .   .........
B |-----------------|-----------------|-----------------|-----------------||5x this row
F#|-----------------|-----------------|-----------------|-----------------||
D |-----------------|-----------------|-----------------|-----------------||
A |-----------------|-----------------|-----------------|---------6-5-6-8-||
E |-----0-2-----0-2-|-----------------|-----0-2-----0-2-|---------4-3-4-6-||
B |-4-2-----4-2-----|-4444444444444444|-4-2-----4-2-----|-22222222--------||
    . . . . . . . .   ................  . . . . . . . .   ........

Riff 4
B |-----------------|---|-----------------|---|
F#|-----------------|-%-|-----------------|-%-|
D |-----------------|---|-----------------|---|
A |-----------------|---|-----------------|---|
E |-4-3-4-6-4-3-4-6-|-%-|-4433446644334466|-%-|
B |-----------------|---|-----------------|---|
    . . . . . . . .       ................
B |-----------------|-----------------|--|--|-----------------|-----------------||
F#|-----------------|-----------------|-3x--|-----------------|-----------------||
D |-----------------|-----------------|--|--|-----------------|-----------------||
A |-----------------|-----------------|--|--|-----------------|-----------------||
E |-----0-2-----0-2-|-----0-2---R-----|--|--|-----0-2-----0-2-|-----0-2---------||
B |-4-2-----4-2-----|-4-2-----4-------|--|--|-4-2-----4-2-----|-4-2-----44444444||
    . . . . . . . .   . . . . .               . . . . . . . .   . . . . ........

Lead Into Next Section
B |-----------------|                  |-----------------|----|-----------------||
F#|-----------------|                  |-----------------|-3x-|-----------------||
D |-----------------|                  |-----------------|----|-----------------||
A |-6---------------|                  |-----------------|----|-----------------||
E |-6---------------|                  |-666-9-9-666-9-9-|----|-666-666-666-666-||
B |-4---------------| hold four 8 bars |-444-7-7-444-7-7-|----|-444-444-444-444-||
                                         ... . . ... . .        ... ... ... ...

Play Riff 1a - 2x
Play Riff 2a - 4x

Riff 5
B |-----------------|-----------------|-----------------|-----------------|
F#|-----------------|-----------------|-----------------|-----------------|
D |-----------------|-----------------|-----------------|-----------------|
A |-----------------|-----------------|-----------------|-----------------|
E |-6---6---6---6-6-|-4---4---4---4-4-|-7---7---7---7-7-|-6-6-6-6-6-6-6-6-|
B |-4---4---4---4-4-|-2---2---2---2-2-|-5---5---5---5-5-|-4-4-4-4-4-4-4-4-|
    .   .   .   . .   .   .   .   . .   .   .   .   . .   .   .   .   . .
B |-----------------|-----------------|-----------------|-----------------||
F#|-----------------|-----------------|-----------------|-----------------||
D |-----------------|-----------------|-----------------|-----------------||
A |-----------------|-----------------|-----------------|-----------------||
E |-6---6---6---6-6-|-4---4---4---4-4-|-7---7---7---7-7-|-----------------||
B |-4---4---4---4-4-|-2---2---2---2-2-|-5---5---5---5-5-|-4444444444444444||
    .   .   .   . .   .   .   .   . .   .   .   .   . .   ................

Play Second Row Of Riff 3 - 4x

Riff 3a
B |-----------------|-----------------|-----------------|-----------------||2x
F#|-----------------|-----------------|-----------------|-----------------||
D |-----------------|-----------------|-----------------|-----------------||
A |-----------------|-----------------|-----------------|---------6-5-6-8-||
E |-----0-2-----0-2-|-6---------------|-----0-2-----0-2-|-4-------4-3-4-6-||
B |-4-2-----4-2-----|-4---------------|-4-2-----4-2-----|-2---------------||
    . . . . . . . .                     . . . . . . . .

Play Riff 2a - 6x

End 
B |-----------||
F#|-----------||
D |-----------||
A |---------R-||
E |-6-6-6-6---||
B |-4-4-4-4---||
    . . .



----------------------------------------------------------------------------



Fear Factory-Pisschrist

Rest Three bars

Intro    [] = every time after first
B |-----------------|-----------------|5x
F#|-----------------|-----------------|
D |-----------------|-----------------|
A |-----------------|-----------------|
E |---R-------------|-R---------------|
B |[4]--------------|---------44444444|
    .                         ........

Riff 1
B |-----------------|-----------------|-----------------|-----------------||8x
F#|-----------------|-----------------|-----------------|-----------------||
D |-----------------|-----------------|-----------------|-----------------||
A |-----------------|-----------------|-----------------|-----------------||
E |-----5-------5---|-----5-----------|-----5-------5---|-----5-----------||
B |-4-4---444-4---44|-4-4---4444444444|-4-4---444-4---44|-4-4---444-444-44||
    . .   ... .   ..  . .   ..........  . .   ... .   ..  . .   ... ... ..

Riff 2
B |-----------------|-----------------|-----------------|-----------------||2x
F#|-----------------|-----------------|-----------------|-----------------||
D |-----------------|-----------------|-----------------|-----------------||
A |-----------------|-----------------|-----------------|-----------------||
E |-----3-------3---|-----3-----7---9-|-----3-------3---|-----3---33333333||
B |-2222-2222222-222|-2222-2222-5---7-|-2222-2222222-222|-2222-222--------||
    .... ....... ...  .... ....         .... ....... ...  .... ...

Play Riff 1 - 4x
Play Riff 2 - 2x

Riff 1a
B |-----------------|-----------------|--|--|-----------------|---------------------||
F#|-----------------|-----------------|-3x--|-----------------|---------------------||
D |-----------------|-----------------|--|--|-----------------|---------------------||
A |-----7-------6---|-----7-----------|--|--|-----7-------6---|-----7---------------||
E |-----5-------4---|-----5-----7---9-|--|--|-----5-------4---|-----5-----7---9-----||
B |-4-4---444-4---44|-4-4---444-5---7-|--|--|-4-4---444-4---44|-4-4---444-5---7-4-4-||
    . .   ... .   ..  . .   ...               . .   ... .   ..  . .   ...       . .

Riff 3
B |-----------------|-----------------|-----------------|-----------------|
F#|-----------------|-----------------|-----------------|-----------------|
D |-7---------------|(7)--------------|-5---------------|(5)--------------|
A |-----------------|-----------------|-----------------|-----------------|
E |-5---------------|(5)--------------|-3---------------|(3)--------------|
B |-----------------|-----------------|-----------------|-----------------|

B |-----------------|-----------------|-----------------|-----------------|
F#|-----------------|-----------------|-----------------|-----------------|
D |-7---------------|(7)--------------|-5---------------|(5)--------------|
A |-----------------|-----------------|-----------------|-----------------|
E |-5---------------|(5)--------------|-3---------------|(3)----------5555|
B |-----------------|-----------------|-----------------|-----------------|
                                                                      ....

B |-----------------|-----------------|-----------------|-----------------|| |---------||
F#|-----------------|-----------------|-----------------|-----------------|| |---------||
D |-7-----7---------|(7)--------------|-5-----5---------|(5)--------------|| |---------||
A |-----------------|-----------------|-----------------|-------------5---|| |---------||
E |-5-----5---------|(5)----------3333|-3-----3---------|(3)----------3---|| |---------||
B |-----------------|-----------------|-----------------|-----------------|| |-44444444||
                                  ....                                .        ........

Play Riff 1 - 6x
Play Riff 2 - 2x
Play Riff 1a
Play Riff 3a

Riff 4
B |-----------------|-----------------|-----------------|-----------------|
F#|-----------------|-----------------|-----------------|-----------------|
D |-----------------|-----------------|-----------------|-----------------|
A |-----------------|-----------------|-----------------|-----------------|
E |-2222222232222222|-322222223-2-0-2-|-2222222232222222|-322222223-2-0-2-|
B |-----------------|-----------------|-----------------|-----------------|
                              . . . .                             . . . .
B |-----------------|-----------------|-----------------|-----------------||2x
F#|-----------------|-----------------|-----------------|-----------------||
D |-----------------|-----------------|-----------------|-----------------||
A |-5-------5-------|-4-------4-------|-7-------7-------|-2---2---2-2-2-2-||
E |-5---5-5-5---9-7-|-4---4-4-4---5-4-|-7---7-7-7---109-|-2---2---2-2-2-2-||
B |-3---3-3-3---7-5-|-2---2-2-2---3-2-|-5---5-5-5---8-7-|-0---0---0-0-0-0-||
        . .     . .       . .     . .       . .     . .           . . . .

Riff 4a
B |-----------------|-----------------|-----------------|-----------------|
F#|-----------------|-----------------|-----------------|-----------------|
D |-----------------|-----------------|-----------------|-----------------|
A |-----------------|-----------------|-----------------|-----------------|
E |-2222222222222222|-022222223-2-0-2-|-6666666666666666|-666666663-2-0-2-|
B |-----------------|-----------------|-----------------|-----------------|
                              . . . .                             . . . .
B |-----------------|-----------------|-----------------|-----------------||2x
F#|-----------------|-----------------|-----------------|-----------------||
D |-----------------|-----------------|-----------------|-----------------||
A |-5-------5-------|-4-------4-------|-7-------7-------|-2---2---2-2-2-2-||
E |-5---5-5-5---7-5-|-4---4-4-4---5-4-|-7---7-7-7---109-|-2---2---2-2-2-2-||
B |-3---3-3-3---5-3-|-2---2-2-2---3-2-|-5---5-5-5---8-7-|-0---0---0-0-0-0-||
        . .     . .       . .     . .       . .     . .           . . . .

Riff 5
B |-----------------|-----------------|-----------------|-----------------||4x
F#|-----------------|-----------------|-----------------|-----------------||
D |-----------------|-----------------|-----------------|-----------------||
A |-5-------5-------|-4-------4-------|-7-------7-------|-2---2---2-2-2-2-||
E |-5---5-5-5---7-5-|-4---4-4-4---5-4-|-7---7-7-7---109-|-2---2---2-2-2-2-||
B |-3---3-3-3---5-3-|-2---2-2-2---3-2-|-5---5-5-5---8-7-|-0---0---0-0-0-0-||
        . .     . .       . .     . .       . .     . .           . . . .

Riff 5a
B |-----------------|-----------------|-----------------|-----------------||4x |-----||
F#|-----------------|-----------------|-----------------|-----------------||   |-----||
D |-----------------|-----------------|-----------------|-----------------||   |-----||
A |-5-------5-------|-4-------4-------|-7-------7-------|-2---2---2-2-2-2-||   |-5---||
E |-5-------5---7-5-|-4-------4---5-4-|-7-------7---109-|-2---2---2-2-2-2-||   |-5---||
B |-3---33333---5-3-|-2---22222---3-2-|-5---55555---8-7-|-0---0---0-0-0-0-||   |-3---||
        ....    . .       ....    . .       ....    . .



----------------------------------------------------------------------------



Fear Factory-A Therapy For Pain

Rest 8 Bars

Riff 1
B |-----------------|-----------------|-----------------|-----------------||4x
F#|-----------------|-----------------|-----------------|-----------------||
D |-4---------------|(4)--------------|(4)--------------|(4)--------------||
A |-4---------------|(4)--------------|(4)--------------|(4)--------------||
E |-2---------------|(2)--------------|(2)--------------|(2)--------------||
B |-----------------|-----------------|-----------------|-----------------||

Riff 2
B |-----------------|-----------------|-----------------|-----------------||4x
F#|-----------------|-----------------|-----------------|-----------------||
D |-4---------------|-3---------------|-----------------|-----------------||
A |-4---------------|-3-------4-------|-7---------------|-6-------2-------||
E |-2---------------|-1-------4-------|-7---------------|-6-------2-------||
B |-----------------|---------2-------|-5---------------|-4-------0-------||

Play Riff 1
Rest For 12 Bars
Play Riff 2 - 4x
Play Riff 1
Rest For 4 Bars
Play Riff 2 - 4x

Riff 1a
B |-----------------|-----------------|-----------------|-----------------||
F#|-----------------|-----------------|-----------------|-----------------||
D |-----------------|-----------------|-----------------|-----------------||
A |-2---------------|(2)--------------|(2)--------------|(2)--------------||
E |-2---------------|(2)--------------|(2)--------------|(2)--------------||
B |-0---------------|(0)--------------|(0)--------------|(0)--------------||

Rest For 20 Bars
Play Riff 2 - 14x
Play Riff 1a



----------------------------------------------------------------------------


Questions/Comments - fraberjam@hotmail.com
comments
We did not receive enough feedback on this tab! Please rate:
print report bad tab
1 2 3 4 5
I want to post or [tab]
guest
You may want to rate the tab now too:
select rating
Please do not post tabs as comments. Select "correction" instead!