Oops, an error
Loading. Please wait.

Empty Vision Tab

266 views 1 this week
no commentswrite comment
1 2 3 4 5
excellent!
x 2
Autoscroll
+/-
esc
set tempo
stop
Contributor
Difficulty
novice
WARNING: You are trying to view
                                    content from Ultimate-Guitar.com
                                    in an unauthorized application,
                                    which is prohibited.

                                    Please use an official Ultimate
                                    Guitar Tabs application for iPhone,
                                    iPad or Android to access legitimate
                                    chords, guitar, bass, and drum tabs
                                    from Ultimate-Guitar.com database.

                                    Type "ultimate guitar tabs" in Apple
                                    App Store's or Android Market's
                                    search to find the application.
Artist: Fear Factory
Song: Empty Vision
Album: Transgression
Tabbed By: Thommoboy
Tuning: Standard 7 String B E A D G B E

Intro
------------------------------------------------------------------|
------------------------------------------------------------------|
------------------------------------------------------------------|
------------------------------------------------------------------|
------------------------------------------------------------------|
-------------------------------1010101010101010-------------------|
---6-666-66-66-8888-6-666-66-66-8-8-8-8-8-8-8-8-------------------|
		              * * * * * * * *	
   |------Low Distortion------|
------------------------------------------------------------------|
------------------------------------------------------------------|
------------------------------------------------------------------|
------------------------------------------------------------------|
------------------------------------------------------------------|
---8-888-87-77-77777777-8-888-87-77-77777777----------------------|
---5-555-55-55-55555555-5-555-55-55-55555555----------------------|
               ********             ********
------------------------------------------------------------------|
------------------------------------------------------------------|
------------------------------------------------------------------|
------------------------------------------------------------------|
------------------------------------------------------------------|
-------------------------------1010101010101010-------------------|
---6-666-66-66-8888-6-666-66-66-8-8-8-8-8-8-8-8-------------------|
                                * * * * * * * *	
   |------Low Distortion------|
------------------------------------------------------------------|
------------------------------------------------------------------|
------------------------------------------------------------------|
------------------------------------------------------------------|
------------------------------------------------------------------|
---8-888-87-77-77777777-8-888-87-77-77777777----------------------|
---5-555-55-55-55555555-5-555-55-55-55555555----------------------|
               ********             ********
------------------------------------------------------------------------|
------------------------------------------------------------------------|
------------------------------------------------------------------------|
------------------------------------------------------------------------|
------------------------------------------------------------------------|
---8----------------------------------8---------------------------------|
---6--666--66666--66666--666-666-666--6--666--66666--66666--666-666-666-|
      ***  *****  *****  *** *** ***     ***  *****  *****  *** *** ***
------------------------------------------------------------------------|
------------------------------------------------------------------------|
------------------------------------------------------------------------|
------------------------------------------------------------------------|
------------------------------------------------------------------------|
---7----------------------------------7---------------------------------|
---5--555--55555--55555--555-555-555--5--555--55555--55555--555-555-555-|
      ***  *****  *****  *** *** ***     ***  *****  *****  *** *** ***
------------------------------------------------------------------------|
------------------------------------------------------------------------|
------------------------------------------------------------------------|
------------------------------------------------------------------------|
------------------------------------------------------------------------|
---8----------------------------------8---------------------------------|
---6--666--66666--66666--666-666-666--6--666--66666--66666--666-666-666-|
      ***  *****  *****  *** *** ***     ***  *****  *****  *** *** ***
------------------------------------------------------------------------|
------------------------------------------------------------------------|
------------------------------------------------------------------------|
------------------------------------------------------------------------|
------------------------------------------------------------------------|
---7----------------------------------7---------------------------------|
---5--555--55555--55555--555-555-555--5--555--55555--55555--555-555-555-|
      ***  *****  *****  *** *** ***     ***  *****  *****  *** *** ***
------------------------------------------------------------------|
------------------------------------------------------------------|
------------------------------------------------------------------|
------------------------------------------------------------------|
------------------------------------------------------------------|
------------------------------------------------------------------|
---5p4-4-5p4h5p4h5p4-4-5p4h7---5p4-4-5p4h5p4h5p4-4-5p4h7----------|
                                                   * * *

------------------------------------------------------------------------|
------------------------------------------------------------------------|
------------------------------------------------------------------------|
------------------------------------------------------------------------|
------------------------------------------------------------------------|
---8----------------------------------8---------------------------------|
---6--666--66666--66666--666-666-666--6--666--66666--66666--666-666-666-|
      ***  *****  *****  *** *** ***     ***  *****  *****  *** *** ***
------------------------------------------------------------------------|
------------------------------------------------------------------------|
------------------------------------------------------------------------|
------------------------------------------------------------------------|
------------------------------------------------------------------------|
---7----------------------------------7---------------------------------|
---5--555--55555--55555--555-555-555--5--555--55555--55555--555-555-555-|
      ***  *****  *****  *** *** ***     ***  *****  *****  *** *** ***
------------------------------------------------------------------------|
------------------------------------------------------------------------|
------------------------------------------------------------------------|
------------------------------------------------------------------------|
------------------------------------------------------------------------|
---8----------------------------------8---------------------------------|
---6--666--66666--66666--666-666-666--6--666--66666--66666--666-666-666-|
      ***  *****  *****  *** *** ***     ***  *****  *****  *** *** ***
------------------------------------------------------------------------|
------------------------------------------------------------------------|
------------------------------------------------------------------------|
------------------------------------------------------------------------|
------------------------------------------------------------------------|
---7----------------------------------7---------------------------------|
---5--555--55555--55555--555-555-555--5--555--55555--55555--555-555-555-|
      ***  *****  *****  *** *** ***     ***  *****  *****  *** *** ***

------------------------------------------------------------------|
------------------------------------------------------------------|
------------------------------------------------------------------|
------------------------------------------------------------------|
------------------------------------------------------------------|
------------------------------------------------------------------|
---5p4-4-5p4h5p4h5p4-4-5p4h7---5p4-4-5p4h5p4h5p4-4-5p4h7----------|

------------------------------------------------------------------|
------------------------------------------------------------------|
------------------------------------------------------------------|
------------------------------------------------------------------|
------------------------------------------------------------------|
------------------------------------------------------------------|
---5p4-4-5p4h5-4h5p4h5-4-5p4h7---5p4-4-5p4h5-4h5p4h5-4-55555555---|
                                                       ********

------------------------------------------------------------------|
------------------------------------------------------------------|
------------------------------------------------------------------|
------------------------------------------------------------------|
------------------------------------------------------------------|
---8-888-88-881010101010101010--8-888-88-881010101010101010-------|
---6-666-66-66-8-8-8-8-8-8-8-8--6-666-66-66-8-8-8-8-8-8-8-8-------|
               * * * * * * * *	        * * * * * * * *
   
------------------------------------------------------------------|
------------------------------------------------------------------|
------------------------------------------------------------------|
------------------------------------------------------------------|
------------------------------------------------------------------|
---8-888-87-77-77777777-8-888-87-77-77777777----------------------|
---5-555-55-55-55555555-5-555-55-55-55555555----------------------|
               ********             ********
------------------------------------------------------------------|
------------------------------------------------------------------|
------------------------------------------------------------------|
------------------------------------------------------------------|
------------------------------------------------------------------|
---8-888-88-881010101010101010--8-888-88-881010101010101010-------|
---6-666-66-66-8-8-8-8-8-8-8-8--6-666-66-66-8-8-8-8-8-8-8-8-------|
               * * * * * * * *              * * * * * * * *
   
------------------------------------------------------------------|
------------------------------------------------------------------|
------------------------------------------------------------------|
------------------------------------------------------------------|
------------------------------------------------------------------|
---8-888-87-77-77777777-8-888-87-77-77777777----------------------|
---5-555-55-55-55555555-5-555-55-55-55555555----------------------|
               ********             ********
------------------------------------------------------------------------|
------------------------------------------------------------------------|
------------------------------------------------------------------------|
------------------------------------------------------------------------|
------------------------------------------------------------------------|
---8----------------------------------8---------------------------------|
---6--666--66666--66666--666-666-666--6--666--66666--66666--666-666-666-|
      ***  *****  *****  *** *** ***     ***  *****  *****  *** *** ***
------------------------------------------------------------------------|
------------------------------------------------------------------------|
------------------------------------------------------------------------|
------------------------------------------------------------------------|
------------------------------------------------------------------------|
---7----------------------------------7---------------------------------|
---5--555--55555--55555--555-555-555--5--555--55555--55555--555-555-555-|
      ***  *****  *****  *** *** ***     ***  *****  *****  *** *** ***
------------------------------------------------------------------------|
------------------------------------------------------------------------|
------------------------------------------------------------------------|
------------------------------------------------------------------------|
------------------------------------------------------------------------|
---8----------------------------------8---------------------------------|
---6--666--66666--66666--666-666-666--6--666--66666--66666--666-666-666-|
      ***  *****  *****  *** *** ***     ***  *****  *****  *** *** ***
------------------------------------------------------------------------|
------------------------------------------------------------------------|
------------------------------------------------------------------------|
------------------------------------------------------------------------|
------------------------------------------------------------------------|
---7----------------------------------7---------------------------------|
---5--555--55555--55555--555-555-555--5--555--55555--55555--555-555-555-|
      ***  *****  *****  *** *** ***     ***  *****  *****  *** *** ***

------------------------------------------------------------------|
------------------------------------------------------------------|
------------------------------------------------------------------|
------------------------------------------------------------------|
------------------------------------------------------------------|
------------------------------------------------------------------|
---5p4-4-5p4h5p4h5p4-4-5p4h7---5p4-4-5p4h5p4h5p4-4-5p4h7----------|
                                                   * * *
------------------------------------------------------------------------|
------------------------------------------------------------------------|
------------------------------------------------------------------------|
------------------------------------------------------------------------|
------------------------------------------------------------------------|
---8----------------------------------8---------------------------------|
---6--666--66666--66666--666-666-666--6--666--66666--66666--666-666-666-|
      ***  *****  *****  *** *** ***     ***  *****  *****  *** *** ***
------------------------------------------------------------------------|
------------------------------------------------------------------------|
------------------------------------------------------------------------|
------------------------------------------------------------------------|
------------------------------------------------------------------------|
---7----------------------------------7---------------------------------|
---5--555--55555--55555--555-555-555--5--555--55555--55555--555-555-555-|
      ***  *****  *****  *** *** ***     ***  *****  *****  *** *** ***
------------------------------------------------------------------------|
------------------------------------------------------------------------|
------------------------------------------------------------------------|
------------------------------------------------------------------------|
------------------------------------------------------------------------|
---8----------------------------------8---------------------------------|
---6--666--66666--66666--666-666-666--6--666--66666--66666--666-666-666-|
      ***  *****  *****  *** *** ***     ***  *****  *****  *** *** ***
------------------------------------------------------------------------|
------------------------------------------------------------------------|
------------------------------------------------------------------------|
------------------------------------------------------------------------|
------------------------------------------------------------------------|
---7----------------------------------7---------------------------------|
---5--555--55555--55555--555-555-555--5--555--55555--55555--555-555-555-|
      ***  *****  *****  *** *** ***     ***  *****  *****  *** *** ***

------------------------------------------------------------------|
------------------------------------------------------------------|
------------------------------------------------------------------|
------------------------------------------------------------------|
------------------------------------------------------------------|
------------------------------------------------------------------|
---5p4-4-5p4h5p4h5p4-4-5p4h7---5p4-4-5p4h5p4h5p4-4-5p4h7----------|

------------------------------------------------------------------|
------------------------------------------------------------------|
------------------------------------------------------------------|
------------------------------------------------------------------|
------------------------------------------------------------------|
------------------------------------------------------------------|
---5p4-4-5p4h5-4h5p4h5-4-5p4h7---5p4-4-5p4h5-4h5p4h5-4-55555555---|
                                                       ********

------------------------------------------------------------------|
------------------------------------------------------------------|
------------------------------------------------------------------|
------------------------------------------------------------------|
------------------------------------------------------------------|
---8-888-88-881010101010101010--8-888-88-881010101010101010-------|
---6-666-66-66-8-8-8-8-8-8-8-8--6-666-66-66-8-8-8-8-8-8-8-8-------|
	      * * * * * * * *	        * * * * * * * *
   
------------------------------------------------------------------|
------------------------------------------------------------------|
------------------------------------------------------------------|
------------------------------------------------------------------|
------------------------------------------------------------------|
---8-888-87-77-77777777-8-888-87-77-77777777----------------------|
---5-555-55-55-55555555-5-555-55-55-55555555----------------------|
               ********             ********
------------------------------------------------------------------|
------------------------------------------------------------------|
------------------------------------------------------------------|
------------------------------------------------------------------|
------------------------------------------------------------------|
---8-888-88-881010101010101010--8-888-88-881010101010101010-------|
---6-666-66-66-8-8-8-8-8-8-8-8--6-666-66-66-8-8-8-8-8-8-8-8-------|
               * * * * * * * *	      * * * * * * * *
   
------------------------------------------------------------------|
------------------------------------------------------------------|
------------------------------------------------------------------|
------------------------------------------------------------------|
------------------------------------------------------------------|
---8-888-87-77-77777777-8-888-87-77-77777777----------------------|
---5-555-55-55-55555555-5-555-55-55-55555555----------------------|
               ********             ********

------------19^^-------------------------18^^---------------------|
---16^--------------------------15^-------------------------------|
------------------------------------------------------------------|
------------------------------------------------------------------|
------------------------------------------------------------------|
------------------------------------------------------------------|
-------000--------000-0-000-000-----000--------000-0-000-000------|
       ***        *** * *** ***     ***        *** * *** ***		> 2X
------------17^^-------------------------16^^^--------------------|
---14^--------------------------13^-------------------------------|
------------------------------------------------------------------|
------------------------------------------------------------------|
------------------------------------------------------------------|
------------------------------------------------------------------|
-------000--------000-0-000-000-----000--------000-000-000-000----|
       ***        *** * *** ***     ***        *** *** *** ***
------------19^^^-------------------------18^^^-------------------|
---16^--------------------------15^-------------------------------|
------------------------------------------------------------------|
------------------------------------------------------------------|
------------------------------------------------------------------|
------------------------------------------------------------------|
-------000--------000-0-000-000-----000--------000-0-000-000------|
       ***        *** * *** ***     ***        *** * *** ***		> 2X
------------17^^^-------------------------16^^^-------------------|
---14^--------------------------13^-------------------------------|
------------------------------------------------------------------|
------------------------------------------------------------------|
------------------------------------------------------------------|
------------------------------------------------------------------|
-------000--------000-0-000-000-----000--------000-000-000-000----|
       ***        *** * *** ***     ***        *** *** *** ***
------------------------------------------------------------------|
------------------------------------------------------------------|
------------------------------------------------------------------|
------------------------------------------------------------------|
------------------------------------------------------------------|
------------------------------------------------------------------|
--1p0h2p0h4p0h2p0-------------------------------------------------|
Not sure about this part at all ^^
------------------------------------------------------------------|
------------------------------------------------------------------|
------------------------------------------------------------------|
------------------------------------------------------------------|
------------------------------------------------------------------|
-------------------------------1010101010101010-------------------|
---6-666-66-66-8888-6-666-66-66-8-8-8-8-8-8-8-8-------------------|
		              * * * * * * * *	
   |------Low Distortion------|
------------------------------------------------------------------|
------------------------------------------------------------------|
------------------------------------------------------------------|
------------------------------------------------------------------|
------------------------------------------------------------------|
---8-888-87-77-77777777-8-888-87-77-77777777----------------------|
---5-555-55-55-55555555-5-555-55-55-55555555----------------------|
               ********             ********
------------------------------------------------------------------|
------------------------------------------------------------------|
------------------------------------------------------------------|
------------------------------------------------------------------|
------------------------------------------------------------------|
-------------------------------1010101010101010-------------------|
---6-666-66-66-8888-6-666-66-66-8-8-8-8-8-8-8-8-------------------|
                                * * * * * * * *	
   |------Low Distortion------|
------------------------------------------------------------------|
------------------------------------------------------------------|
------------------------------------------------------------------|
------------------------------------------------------------------|
------------------------------------------------------------------|
---8-888-87-77-77777777-8-888-87-77-77777777----------------------|
---5-555-55-55-55555555-5-555-55-55-55555555----------------------|
               ********             ********
------------------------------------------------------------------|
------------------------------------------------------------------|
------------------------------------------------------------------|
------------------------------------------------------------------|
------------------------------------------------------------------|
---8-888-88-881010101010101010--8-888-88-881010101010101010-------|
---6-666-66-66-8-8-8-8-8-8-8-8--6-666-66-66-8-8-8-8-8-8-8-8-------|
               * * * * * * * *	        * * * * * * * *
   
------------------------------------------------------------------|
------------------------------------------------------------------|
------------------------------------------------------------------|
------------------------------------------------------------------|
------------------------------------------------------------------|
---8-888-87-77-77777777-8-888-87-77-77777777----------------------|
---5-555-55-55-55555555-5-555-55-55-55555555----------------------|
               ********             ********
------------------------------------------------------------------|
------------------------------------------------------------------|
------------------------------------------------------------------|
------------------------------------------------------------------|
------------------------------------------------------------------|
---8-888-88-881010101010101010--8-888-88-881010101010101010-------|
---6-666-66-66-8-8-8-8-8-8-8-8--6-666-66-66-8-8-8-8-8-8-8-8-------|
               * * * * * * * *	        * * * * * * * *
   
------------------------------------------------------------------|
------------------------------------------------------------------|
------------------------------------------------------------------|
------------------------------------------------------------------|
------------------------------------------------------------------|
---8-888-87-77-77777777-8-888-87-77-77777777----------------------|
---5-555-55-55-55555555-5-555-55-55-55555555----------------------|
               ********             ********


------------------------------------------------------------------|
------------------------------------------------------------------|
------------------------------------------------------------------|
------------------------------------------------------------------|
------------------------------------------------------------------|
---7-777-77-77-77777777-7-777-77-77-77777777----------------------|
---5-555-55-55-55555555-5-555-55-55-55555555----------------------|
               ********             ********
------------------------------------------------------------------|
------------------------------------------------------------------|
------------------------------------------------------------------|
------------------------------------------------------------------|
------------------------------------------------------------------|
---7-777-77-77-77777777-7-777-77-77-77777777----------------------|
---5-555-55-55-55555555-5-555-55-55-55555555----------------------|
               ********             ********
------------------------------------------------------------------|
------------------------------------------------------------------|
------------------------------------------------------------------|
------------------------------------------------------------------|
------------------------------------------------------------------|
---7-777-77-77--7--7---7-777-77-77--7--7--------------------------|
---5-555-55-55--5--5---5-555-55-55--5--5--------------------------|
                            
------------------------------------------------------------------|
------------------------------------------------------------------|
------------------------------------------------------------------|
------------------------------------------------------------------|
------------------------------------------------------------------|
---7-777-77-77--7--7---7-777-77-7--7--7---------------------------|
---5-555-55-55--5--5---5-555-55-5--5--5---------------------------|
comments
We did not receive enough feedback on this tab! Please rate:
1 2 3 4 5
I want to post or [tab]
guest
You may want to rate the tab now too:
select rating
Please do not post tabs as comments. Select "correction" instead!