Oops, an error
Loading. Please wait.

Fear Campaign Tab

ver1
ver1

Whole song

Interactive

More versions @911Tabs.com
6,084 views 21 this week
2 commentsread comments
1 2 3 4 5
excellent!
x 3
Autoscroll
+/-
esc
set tempo
stop
Contributor
Difficulty
advanced
Hey! There's an official Ultimate Guitar app which is ideal
for learning songs when you're away from computer. Get the app
WARNING: You are trying to view
                                    content from Ultimate-Guitar.com
                                    in an unauthorized application,
                                    which is prohibited.

                                    Please use an official Ultimate
                                    Guitar Tabs application for iPhone,
                                    iPad or Android to access legitimate
                                    chords, guitar, bass, and drum tabs
                                    from Ultimate-Guitar.com database.

                                    Type "ultimate guitar tabs" in Apple
                                    App Store's or Android Market's
                                    search to find the application.
"Fear Campaign" by Fear Factory
Track 3 from the CD "Mechanize"

Tabbed by: Brenton Seifert
bseifertguitar@gmail.com
myspace.com/breathtakerx

7-String Guitar tuned a Whole Step Down (A D G C F A D)

D|---------------------------------|
A|---------------------------------|
F|---------------------------------|
C|---------------------------------|
G|---------------------------------|
D|-5-5-5-5-5-5-5-5-5-5-5-5-5-5-5-5-|
A|-3-3-3-3-3-3-3-3-3-3-3-3-3-3-3-3-|


|--------------------------------|
|--------------------------------|
|--------------------------------|
|--------------------------------|
|--------------------------4--5--|
|-5-5-5-5-5-5-5-5-5-5-5-5--2--3--|
|-3-3-3-3-3-3-3-3-3-3-3-3--------|


|-----------------------------------------------|
|-----------------------------------------------|
|-----------------------------------------------|
|-----------------------------------------------|
|---------------5-----3-----4-----------4-3-----|
|-2-2-2--2-2-2-----2-----2-------2-2-2------5-4-|
|-----------------------------------------------|


|-----------------------------------------------|
|-----------------------------------------------|
|-----------------------------------------------|
|-----------------------------------------------|
|---------------5-----3-----4-----------4-3-----|
|-2-2-2--2-2-2-----2-----2-------2-2-2------5-4-|
|-----------------------------------------------|


|---------------------------------------------|
|---------------------------------------------|
|---------------------------------------------|
|-------------------------------------------4-|
|---------------5-----3-----4-----------4-3---|
|-3-3-3--3-3-3-----3-----3-------3-3-3--------|
|---------------------------------------------|


|----------------------------------------------|
|----------------------------------------------|
|----------------------------------------------|
|-------------------------------------------4+-|
|-0-0-0--0-0-0--5--0--3--0--4----0-0-0--4-3----|
|----------------------------------------------|
|----------------------------------------------|


|-----------------------------------------------|
|-----------------------------------------------|
|-----------------------------------------------|
|-----------------------------------------------|
|---------------5-----3-----4-----------4-3-----|
|-2-2-2--2-2-2-----2-----2-------2-2-2------5-4-|
|-----------------------------------------------|


|-----------------------------------------------|
|-----------------------------------------------|
|-----------------------------------------------|
|-----------------------------------------------|
|---------------5-----3-----4-----------4-3-----|
|-2-2-2--2-2-2-----2-----2-------2-2-2------5-4-|
|-----------------------------------------------|


|---------------------------------------------|
|---------------------------------------------|
|---------------------------------------------|
|-------------------------------------------4-|
|---------------5-----3-----4-----------4-3---|
|-0-0-0--0-0-0-----0-----0-------0-0-0--------|
|---------------------------------------------|


|----------------------------------------------|
|----------------------------------------------|
|----------------------------------------------|
|-------------------------------------------4+-|
|---------------5-----3-----4-----------4-3----|
|-3-3-3--3-3-3-----3-----3-------3-3-3---------|
|----------------------------------------------|


|----------------------------------------------|
|----------------------------------------------|
|----------------------------------------------|
|----------------------------------------------|
|----------------------------------------------|
|-2-2-2--2-2-2----2-2-2--2-2-2----2-2-2--2-2-2-|
|----------------------------------------------|


|----------------------------------------------|
|----------------------------------------------|
|----------------------------------------------|
|----------------------------------------------|
|----------------------------------------------|
|-2-2-2--2-2-2----2-2-2--2-2-2----2-2-2--2-2-2-|
|----------------------------------------------|


|----------------------------------------------|
|----------------------------------------------|
|----------------------------------------------|
|----------------------------------------------|
|----------------------------------------------|
|-3-3-3--3-3-3----3-3-3--3-3-3----3-3-3--3-3-3-|
|----------------------------------------------|


|----------------------------------------------|
|----------------------------------------------|
|----------------------------------------------|
|----------------------------------------------|
|----------------------------------------------|
|-5-5-5--5-5-5----5-5-5--5-5-5----5-5-5--5-5-5-|
|----------------------------------------------|


|----------------------------------------------|
|----------------------------------------------|
|----------------------------------------------|
|----------------------------------------------|
|----------------------------------------------|
|-2-2-2--2-2-2----2-2-2--2-2-2----2-2-2--2-2-2-|
|----------------------------------------------|


|----------------------------------------------|
|----------------------------------------------|
|----------------------------------------------|
|----------------------------------------------|
|----------------------------------------------|
|-2-2-2--2-2-2----2-2-2--2-2-2----2-2-2--2-2-2-|
|----------------------------------------------|


|----------------------------------------------|
|----------------------------------------------|
|----------------------------------------------|
|----------------------------------------------|
|----------------------------------------------|
|-0-0-0--0-0-0----0-0-0--0-0-0----0-0-0--0-0-0-|
|----------------------------------------------|


|----------------------------------------------|
|----------------------------------------------|
|----------------------------------------------|
|----------------------------------------------|
|----------------------------------------------|
|-3-3-3--3-3-3----3-3-3--3-3-3----3-3-3--3-3-3-|
|----------------------------------------------|

(1:28, 3:33)
|-----------------------------------------------------------------|
|-----------------------------------------------------------------|
|-----------------------------------------------------------------|
|-----------------------------------------------------------------|
|-----------------------------------------------------------------|
|-----------------------------------------------------------------|
|-3-3-3-3-3-3-3-3-3-3-3-3-3-3-3-3-3-3-3-3-3-3-3-3-3-3-3-3-3-3-3-3-|

(1:49)
|--------------------------------|
|--------------------------------|
|--------------------------------|
|--------------------------------|
|-4--------------4-----4-----4---|
|-2--2-2-2-2-2-2-2-2-2-2-2-2-2-2-|
|--------------------------------|


|-------------------------------------------------|
|-------------------------------------------------|
|-------------------------------------------------|
|-------------------------------------------------|
|-5-----------------------------------------------|
|-3--3-3-3-3-3-3--3-3-3-3-3-3-3-3-3-3-3-3-3-3-3-3-|
|-------------------------------------------------|


|--------------------------------|
|--------------------------------|
|--------------------------------|
|--------------------------------|
|-2--------------2-----2-----2---|
|-0--0-0-0-0-0-0-0-0-0-0-0-0-0-0-|
|--------------------------------|


|------------------------|
|------------------------|
|------------------------|
|------------------------|
|-7--2--5--7--5-----4--5-|
|-5--0--3--5--3--5--2--3-|
|----------------3-------|

(2nd Ending)
|----------|
|----------|
|----------|
|----------|
|-7------5-|
|-5------3-|
|----------|


|-------------------------------|
|-------------------------------|
|--------------2--4--5p4p2------|
|-4------4--5--------------5--4-|
|-4-----------------------------|
|-2-----------------------------|
|-------------------------------|


|------------------------|
|------------------------|
|--------7-7-7-5-5-5-4-4-|
|-5----------------------|
|-5----------------------|
|-3----------------------|
|------------------------|


|------------------------|
|------------------------|
|--------------4-5-5-7-7-|
|-2------4-5-7-----------|
|-2----------------------|
|-0----------------------|
|------------------------|


|------------------------|
|------------------------|
|------------------------|
|------------------------|
|-7--2--5--7--5-----4--5-|
|-5--0--3--5--3--5--2--3-|
|----------------3-------|


|-----------------------------------------------|
|-----------------------------------------------|
|-----------------------------------------------|
|-----------------------------------------------|
|-----------------------------------------------|
|-6-------------------6-------------------------|
|-4--4-4-4--4--4-4-4--4--4-4-4--4-4-4--4--4-4-4-|


|-------------------------------------------------------|
|-------------------------------------------------------|
|-------------------------------------------------------|
|-------------------------------------------------------|
|-------------------------------------------------------|
|-6--------------------------6-----------5------------8-|
|-4--4-4-4--4-4-4--4--4-4-4--4---4-5-6-7-----7-8-9-10---|


|------------------------------------------------------|
|------------------------------------------------------|
|------------------------------------------------------|
|------------------------------------------------------|
|------------------------------------------------------|
|------------------------------------------------------|
|-4--4-4-4--4--4-4-4--4-4-4--4--4-4-4--4--4-4-4--4-4-4-|


|----------------------------------------------------|
|----------------------------------------------------|
|----------------------------------------------------|
|----------------------------------------------------|
|----------------------------------------------------|
|------------------------------------5-------------8-|
|-4--4-4-4--4--4-4-4--4-4-4--4-5-6-7-----7-8-9-10----|


|-----------------------------------------------|
|-----------------------------------------------|
|-----------------------------------------------|
|-----------------------------------------------|
|-----------------------------------------------|
|-0--0-0-0--0--0-0-0-----0-0-0--0--1-1-1--1-1-1-|
|-----------------------------------------------|


|---------------------------------------------|
|---------------------------------------------|
|---------------------------------------------|
|---------------------------------------------|
|---------------------------------------------|
|-0--0-0-0--0--0-0-0-----------5------------8-|
|----------------------4-5-6-7-----7-8-9-10---|


|-----------------------------------------------|
|-----------------------------------------------|
|-----------------------------------------------|
|-----------------------------------------------|
|-----------------------------------------------|
|-----------------------------------------------|
|-4--4-4-4--4--4-4-4-----4-4-4--4--4-4-4--4-4-4-|


|---------------------------------------------|
|---------------------------------------------|
|---------------------------------------------|
|---------------------------------------------|
|---------------------------------------------|
|------------------------------5------------8-|
|----4-4-4--4--4-4-4---4-5-6-7-----7-8-9-10---|


|--------------------------------------|
|--------------------------------------|
|-t12p8t12p8h9h10h11t12p8t12p8h9h10h11-|
|--------------------------------------|
|--------------------------------------|
|--------------------------------------|
|--------------------------------------|


|----------------------------------------|
|----------------------------------------|
|-t13p9t13p9h10h11h12t13p9t13p9h10h11h12-|
|----------------------------------------|
|----------------------------------------|
|----------------------------------------|
|----------------------------------------|


|-------------------------------------|
|-------------------------------------|
|-12----11-12-11~-----16----14-16-14~-|
|-------------------------------------|
|-------------------------------------|
|-------------------------------------|
|-------------------------------------|

(Tap with edge of pick)
|-----------------------------------------|
|-15p7T15p7T15p7T15p7T15p7T15p7T15p7T15p7-|
|-----------------------------------------|
|-----------------------------------------|
|-----------------------------------------|
|-----------------------------------------|
|-----------------------------------------|


|-----------------------------------------|
|-15p8T15p8T15p8T15p8T15p8T15p8T15p8T15p8-|
|-----------------------------------------|
|-----------------------------------------|
|-----------------------------------------|
|-----------------------------------------|
|-----------------------------------------|


|-------------------------------------------------|
|-15p10T15p10T15p10T15p10T15p10T15p10T15p10T15p10-|
|-------------------------------------------------|
|-------------------------------------------------|
|-------------------------------------------------|
|-------------------------------------------------|
|-------------------------------------------------|


|-------------------------------------------------|
|-15p11T15p11T15p11T15p11T15p11T15p11T15p11T15p11-|
|-------------------------------------------------|
|-------------------------------------------------|
|-------------------------------------------------|
|-------------------------------------------------|
|-------------------------------------------------|


|-------------------------------------|
|-20----19-20-19~-----17----15-17-15~-|
|-------------------------------------|
|-------------------------------------|
|-------------------------------------|
|-------------------------------------|
|-------------------------------------|

(Tremelo pick)
|--------------------------17--19--|-21-|
|-17--19--20-----------20----------|----|
|----------------------------------|----|
|----------------------------------|----|
|----------------------------------|----|
|----------------------------------|----|
|----------------------------------|----|

(4:31)
|------------------------------------------------------|
|------------------------------------------------------|
|------------------------------------------------------|
|------------------------------------------------------|
|------------------------------------------------------|
|-2-2-2--2-2-2--2-2-2--2--2--2-2-2--2--2-2-2--2--2-2-2-|
|------------------------------------------------------|


|--------------------------------------------------------------|
|--------------------------------------------------------------|
|--------------------------------------------------------------|
|--------------------------------------------------------------|
|--------------------------------------------------------------|
|-3-3-3--3-3-3--3-3-3--3-3-3---3-3-3-3-3-3-3-3-3-3-3-3-3-3-3-3-|
|--------------------------------------------------------------|


|------------------------------------------------------|
|------------------------------------------------------|
|------------------------------------------------------|
|------------------------------------------------------|
|------------------------------------------------------|
|-0-0-0--0-0-0--0-0-0--0--0--0-0-0--0--0-0-0--0--0-0-0-|
|------------------------------------------------------|

(1st Time Only)
|-----------------------------------------------------------------|
|-----------------------------------------------------------------|
|-----------------------------------------------------------------|
|-----------------------------------------------------------------|
|-----------------------------------------------------------------|
|-5-5-5-5-0-0-0-0-3-3-3-3-5-5-5-5-3-3-3-3---------2-2-2-2-3-3-3-3-|
|-----------------------------------------3-3-3-3-----------------|




************************************

| /   slide up
| \   slide down
| h   hammer-on
| p   pull-off
| ~   vibrato
| +   harmonic
| x   Mute note
| b   Bend
| pb  Pre-bend
| br  Bend release
| pbr Pre-bend release
| brb Bend release bend

************************************
comments
We did not receive enough feedback on this tab! Please rate:
print report bad tab
1 2 3 4 5
2 comments total.
0 reply
FlyleafNIN wrote on August 1 2010, 09:35 am

any way to play on a six-string?

+1 reply
pigeonmafia wrote on August 18 2010, 05:21 am

Yeah, tune to A D G C F A

I want to post or [tab]
guest
You may want to rate the tab now too:
select rating
Please do not post tabs as comments. Select "correction" instead!