Oops, an error
Loading. Please wait.

Hunter-killer Tab

693 views 1 this week
3 commentsread comments
1 2 3 4 5
excellent!
x 3
add to favorites launch autoscroll
font size
0
reset
Autoscroll
+/-
esc
set tempo
stop
Contributor
Tuning
C F A# D# G C
WARNING: You are trying to view
                                    content from Ultimate-Guitar.com
                                    in an unauthorized application,
                                    which is prohibited.

                                    Please use an official Ultimate
                                    Guitar Tabs application for iPhone,
                                    iPad or Android to access legitimate
                                    chords, guitar, bass, and drum tabs
                                    from Ultimate-Guitar.com database.

                                    Type "ultimate guitar tabs" in Apple
                                    App Store's or Android Market's
                                    search to find the application.
#----------------------------------PLEASE NOTE---------------------------------#
#This file is the author's own work and represents their interpretation of the #
#song. You may only use this file for private study, scholarship, or research. #
#------------------------------------------------------------------------------#

H-K (HUNTER-KILLER)
As recorded by Fear Factory
(From the 1995 Album DEMANUFACTURE)

Transcribed by erikthestupid@hotmail.com
        

Words by Burton C Bell Music by Fear Factory

Gtr I (C F Bb Eb G C) - 'Dino'
Gtr II (C F Bb Eb G C) - 'Synth'

   Intro
    Q=200
   4/4
    Gtr II
    W          W          W          W
||-----------|----------|----------|-------||
||o----------|----------|----------|------o||
||-----------|----------|----------|-------||
||-----------|----------|----------|-------||
||o----------|-5--------|-4--------|-2----o||
||--4--------|----------|----------|-------||


  Gtr I
  PM--|            PM--|
  S S E E E H      S S E E E H      S S E E E H      S S E E E S S E E E
|----------------|----------------|----------------|---------------------|
|----------------|----------------|----------------|---------------------|
|----------------|----------------|----------------|---------------------|
|----------------|----------------|----------------|---------------------|
|-------2--------|-------2--------|-------2--------|-------2-2-------2-2-|
|-4-4-4---4------|-4-4-4---4------|-4-4-4---4------|-4-4-4-----4-4-4-----|


                                                                         G#sus2
  S S E E E H      S S E E E H      S S E E E H      S S E E E S S E E E
|----------------|----------------|----------------|-------------------------|
|----------------|----------------|----------------|-------------------------|
|----------------|----------------|----------------|-------------------------|
|----------------|----------------|----------------|-------------------------|
|-------2--------|-------2--------|-------2--------|-------2-2-------2-2-----|
|-4-4-4---4------|-4-4-4---4------|-4-4-4---4------|-4-4-4-----4-4-4---------|
|
| Gtr II
| W                W                W                H         Q     E S S
|----------------|----------------|----------------|-------------------------|
|----------------|----------------|----------------|-------------------------|
|----------------|----------------|----------------|-------------------------|
|----------------|----------------|----------------|---------------------6---|
|----------------|----------------|----------------|-------------------------|
|----------------|----------------|----------------|---------------------4---|


                          D                         C#
     S  S E E E  Q    E E      S  S E E E  Q    E E
||--------------------------|-------------------------|
||o-------------------------|-------------------------|
||--------------------------|-------------------------|
||--------------------------|-------------------------|
||o---------2---------------|---------2---------------|
||---4--4-4---4-------4-----|--4--4-4---4-------4-----|
|
|   +H          +Q..      S   +H          +Q..      S
||--------------------------|-------------------------|
||o-------------------------|-------------------------|
||------------------------7-|-(7)---------(7)-------6-|
||--(6)---------(6)---------|-------------------------|
||o-----------------------5-|-(5)---------(5)-------4-|
||--(4)---------(4)---------|-------------------------|


                        B                            G#
   S  S E E E  Q    E E      S  S E E E  S   S E E E
|-------------------------|------------------------------||
|-------------------------|-----------------------------o||
|-------------------------|------------------------------||
|-------------------------|------------------------------||
|---------2---------------|---------2-2----------2-2----o||
|--4--4-4---4-------4-----|--4--4-4------4---4-4---------||
|
| +H          +Q..      S   +H          +Q..         S
|-------------------------|------------------------------||
|-------------------------|-----------------------------o||
|-(6)---------(6)---------|------------------------------||
|-----------------------9-|-(9)---------(9)----------6---||
|-(4)---------(4)---------|-----------------------------o||
|-----------------------7-|-(7)---------(7)----------4---||


                       D                          C#
  S S E E E  E   E E E      S  S E E E  E   E E E
|------------------------|--------------------------|
|------------------------|--------------------------|
|------------------------|--------------------------|
|------------------------|--------------------------|
|-------2----------------|---------2----------------|
|-4-4-4---4------2-4-----|--4--4-4---4------2-4-----|
|
| H         +Q..       S   +H          +Q..       S
|------------------------|--------------------------|
|------------------------|--------------------------|
|----------------------7-|-(7)---------(7)--------6-|
|-6---------(6)----------|--------------------------|
|----------------------5-|-(5)---------(5)--------4-|
|-4---------(4)----------|--------------------------|


                         B                            G#
   S  S E E E  E   E E E      S  S E E E  S   S E E E
|--------------------------|------------------------------|
|--------------------------|------------------------------|
|--------------------------|------------------------------|
|--------------------------|------------------------------|
|---------2----------------|---------2-2----------2-2-----|
|--4--4-4---4------2-4-----|--4--4-4------4---4-4---------|
|
| +H          +Q..       S   +H          +Q..         S
|--------------------------|------------------------------|
|--------------------------|------------------------------|
|-(6)---------(6)----------|------------------------------|
|------------------------9-|-(9)---------(9)----------6---|
|-(4)---------(4)----------|------------------------------|
|------------------------7-|-(7)---------(7)----------4---|


                         D                          C#
   S  S E E E  E   E E E      S  S E E E  E   E E E
|--------------------------|--------------------------|
|--------------------------|--------------------------|
|--------------------------|--------------------------|
|--------------------------|--------------------------|
|---------2----------------|---------2----------------|
|--4--4-4---4------2-4-----|--4--4-4---4------2-4-----|
|
| +H          +Q..       S   +H          +Q..       S
|--------------------------|--------------------------|
|--------------------------|--------------------------|
|------------------------7-|-(7)---------(7)--------6-|
|-(6)---------(6)----------|--------------------------|
|------------------------5-|-(5)---------(5)--------4-|
|-(4)---------(4)----------|--------------------------|


   S  S E E E E E E E   W
|---------------------|------|
|---------------------|------|
|---------------------|------|
|---------------------|------|
|---------2-----------|------|
|--4--4-4---4---2-4---|------|
|
| +W                    W
|---------------------|------|
|---------------------|------|
|-(6)-----------------|------|
|---------------------|------|
|-(4)-----------------|------|
|---------------------|------|


   Verse
                                    D5C#5
    S S E E E E E E E   S S E E E E E Q   3x
||--------------------|-------------------||
||o-------------------|------------------o||
||--------------------|-------------------||
||--------------------|-------------7-6---||
||o-------2-----------|-------2-----5-4--o||
||--4-4-4---4---2-4---|-4-4-4---4---------||


  S S E E E E E E E   S S E E E S S E E E
|-------------------|-----------------------|
|-------------------|-----------------------|
|-------------------|-----------------------|
|-------------------|-----------------------|
|-------2-----------|-------2-2-------2-2---|
|-4-4-4---4---2-4---|-4-4-4-----4-4-4-------|


    G#5   B5G#5   D5C#5  G#5   B5G#5   D5C#5
    S S E E E +E  E Q    S S E E E +E  E Q   3x
||---------------------|---------------------||
||o--------------------|--------------------o||
||---------------------|---------------------||
||----------------7-6--|---------------7-6---||
||o-6-6-6-9-6-(6)-5-4--|-6-6-6-9-6-(6)-5-4--o||
||--4-4-4-7-4-(4)------|-4-4-4-7-4-(4)-------||
|
|   Gtr II
|   W                    W                   3x
||---------------------|---------------------||
||o--------------------|--------------------o||
||---------------------|---------------------||
||---------------------|---------------------||
||o--------------------|--------------------o||
||---------------------|---------------------||


  GBGDC#5                   G#5             B5
                            PM--|     PM--|
       S S E E E +E  E Q    S S E E E S S E E E
|-------------------------|-------------------------|
|-------------------------|-------------------------|
|-------------------------|-------------------------|
|--------------------7-6--|-------------------------|
|------6-6-6-9-6-(6)-5-4--|-6-6-6-9-9-6-6-6-9-9-----|
|------4-4-4-7-4-(4)------|-4-4-4-7-7-4-4-4-7-7-----|
|
|      W                    H         Q     E S S
|-------------------------|-------------------------|
|-------------------------|-------------------------|
|-------------------------|-------------------------|
|-------------------------|---------------------6---|
|-------------------------|-------------------------|
|-------------------------|---------------------4---|


   Chorus
    G#5               D5                C#5               B5
     W                 W                 W                 W              3x
||------------------|-----------------|-----------------|-----------------||
||o-----------------|-----------------|-----------------|----------------o||
||------------------|--7--------------|--6--------------|-----------------||
||---6--------------|--7--------------|--6--------------|--9--------------||
||o--6--------------|--5--------------|--4--------------|--9-------------o||
||---4--------------|-----------------|-----------------|--7--------------||
|
|   +H     +Q..   S   +H     +Q..   S   +H     +Q..   S   +H     Q..   S  3x
||------------------|-----------------|-----------------|-----------------||
||o-----------------|-----------------|-----------------|----------------o||
||----------------7-|-(7)----(7)----6-|-(6)----(6)----4-|-(4)-------------||
||--(6)----(6)------|-----------------|-----------------|--------9-----6--||
||o---------------5-|-(5)----(5)----4-|-(4)----(4)----2-|-(2)------------o||
||--(4)----(4)------|-----------------|-----------------|--------7-----4--||


                                                 G#5   B5  G#5   B5
                                                 PM--|     PM--|
  W                W                 W           S S E E E S S E E E
|---------------|-----------------|------------|----------------------|
|---------------|-----------------|------------|----------------------|
|---------------|--7--------------|--6---------|----------------------|
|-6-------------|--7--------------|--6---------|----------------------|
|-6-------------|--5--------------|--4---------|-6-6-6-9-9-6-6-6-9-9--|
|-4-------------|-----------------|------------|-4-4-4-7-7-4-4-4-7-7--|
|
| H    +Q..   S   +H     +Q..   S   +W           W
|---------------|-----------------|------------|----------------------|
|---------------|-----------------|------------|----------------------|
|-------------7-|-(7)----(7)----6-|-(6)--------|----------------------|
|-6----(6)------|-----------------|------------|----------------------|
|-------------5-|-(5)----(5)----4-|-(4)--------|----------------------|
|-4----(4)------|-----------------|------------|----------------------|


    G#5   B5G#5   D5C#5  G#5   B5G#5   D5C#5
    PM--|                PM--|
    S S E E E +E  E Q    S S E E E +E  E Q   3x
||---------------------|---------------------||
||o--------------------|--------------------o||
||---------------------|---------------------||
||----------------7-6--|---------------7-6---||
||o-6-6-6-9-6-(6)-5-4--|-6-6-6-9-6-(6)-5-4--o||
||--4-4-4-7-4-(4)------|-4-4-4-7-4-(4)-------||
|
|   Gtr II
|   W                    W                   3x
||---------------------|---------------------||
||o--------------------|--------------------o||
||---------------------|---------------------||
||---------------------|---------------------||
||o--------------------|--------------------o||
||---------------------|---------------------||


  G#5   B5G#5   D5C#5  G#5   B5  G#5   B5
  PM--|                PM--|     PM--|
  S S E E E +E  E Q    S S E E E S S E E E
|--------------------|------------------------|
|--------------------|------------------------|
|--------------------|------------------------|
|---------------7-6--|------------------------|
|-6-6-6-9-6-(6)-5-4--|-6-6-6-9-9-6-6-6-9-9----|
|-4-4-4-7-4-(4)------|-4-4-4-7-7-4-4-4-7-7----|
|
| W                    H         Q     E S S
|--------------------|------------------------|
|--------------------|------------------------|
|--------------------|------------------------|
|--------------------|---------------------6--|
|--------------------|------------------------|
|--------------------|---------------------4--|


   Chorus
     PM-----------------------------------
     S  S S S S S S S  S   S S S S S S S
||---------------------------------------|
||o--------------------------------------|
||---------------------------------------|
||---------------------------------------|
||o--------------------------------------|
||---4--4-4-4-4-4-4-4--4---4-4-4-4-4-4-4-|
|
|   +H                +Q..             S
||---------------------------------------|
||o--------------------------------------|
||-------------------------------------7-|
||--(6)---------------(6)----------------|
||o------------------------------------5-|
||--(4)---------------(4)----------------|


 ------------------------------------|
   S  S S S S S S S  S   S S S S S S S
|--------------------------------------|
|--------------------------------------|
|--------------------------------------|
|--------------------------------------|
|--5--5-5-5-5-5-5-5--5---5-5-5-5-5-5-5-|
|--------------------------------------|
|
| +H                +Q..             S
|--------------------------------------|
|--------------------------------------|
|-(7)---------------(7)--------------6-|
|--------------------------------------|
|-(5)---------------(5)--------------4-|
|--------------------------------------|


   PM--------------------------------------------------------------------|
   S  S S S S S S S  S   S S S S S S S    S  S S S S S S S S S S S S S S S   4x
|--------------------------------------|-------------------------------------||
|--------------------------------------|------------------------------------o||
|--------------------------------------|-------------------------------------||
|--------------------------------------|-------------------------------------||
|--4--4-4-4-4-4-4-4--4---4-4-4-4-4-4-4-|--2--2-2-2-2-2-2-2-2-2-2-2-2-2-2-2--o||
|--------------------------------------|-------------------------------------||
|
| +H                 Q..             S   +W                                  4x
|--------------------------------------|-------------------------------------||
|--------------------------------------|------------------------------------o||
|-(6)---------------(6)----------------|-------------------------------------||
|------------------------------------9-|-(9)---------------------------------||
|-(4)----------------------------------|------------------------------------o||
|--------------------9---------------7-|-(7)---------------------------------||


 Guitar Break
                    PM----------------------------|
  E E E E E E E E   S S S S S S S S S S S S S S S S   E E E E E E E E
|-----------------|---------------------------------|-----------------|
|-----------------|---------------------------------|-----------------|
|-----------------|---------------------------------|-----------------|
|-----------------|---------------------------------|-----------------|
|-----------------|---------------------------------|-----------------|
|-5-2-3-4-5-2-3-4-|-4-4-4-4-4-4-4-4-4-4-4-4-4-4-4-4-|-4-1-2-3-4-1-2-3-|


  PM--------------|
  S S S S S S S S S S E Q    E E E E E E E E
|--------------------------|-----------------|
|--------------------------|-----------------|
|--------------------------|-----------------|
|--------------------------|-----------------|
|--------------------------|-----------------|
|-2-2-2-2-2-2-2-2-2--------|-5-2-3-4-5-2-3-4-|


  PM----------------------------|
  S S S S S S S S S S S S S S S S
|----------------------------------|
|----------------------------------|
|----------------------------------|
|----------------------------------|
|----------------------------------|
|-4-4-4-4-4-4-4-4-4-4-4-4-4-4-4-4--|


                                    C#C5D5D#5             C5B5
                    PM------------|
  E E E E E E E E   S S S S S S S S E E E E   E E E E E E E E
|-----------------|-------------------------|------------------|
|-----------------|-------------------------|------------------|
|-----------------|-------------------------|------------------|
|-----------------|-----------------6-5-7-8-|-------------5-4--|
|-----------------|-----------------4-3-5-6-|-------------3-2--|
|-4-1-2-3-4-1-2-3-|-2-2-2-2-2-2-2-2---------|-5-2-3-4-5-2------|


                                                                      C#C5D5D#5
  PM----------------------------|                     PM------------|
  S S S S S S S S S S S S S S S S   E E E E E E E E   S S S S S S S S E E E E
|---------------------------------|-----------------|-------------------------|
|---------------------------------|-----------------|-------------------------|
|---------------------------------|-----------------|-------------------------|
|---------------------------------|-----------------|-----------------6-5-7-8-|
|---------------------------------|-----------------|-----------------4-3-5-6-|
|-4-4-4-4-4-4-4-4-4-4-4-4-4-4-4-4-|-4-1-2-3-4-1-2-3-|-2-2-2-2-2-2-2-2---------|


              C5B5
                    PM----------------------------|
  E E E E E E E E   S S S S S S S S S S S S S S S S   E E E E E E E E
|-----------------|---------------------------------|-----------------|
|-----------------|---------------------------------|-----------------|
|-----------------|---------------------------------|-----------------|
|-------------5-4-|---------------------------------|-----------------|
|-------------3-2-|---------------------------------|-----------------|
|-5-2-3-4-5-2-----|-4-4-4-4-4-4-4-4-4-4-4-4-4-4-4-4-|-4-1-2-3-4-1-2-3-|


                  C#C5D5D#5             C5B5
  PM------------|                             PM----------------------------|
  S S S S S S S S E E E E   E E E E E E E E   S S S S S S S S S S S S S S S S
|-------------------------|-----------------|---------------------------------|
|-------------------------|-----------------|---------------------------------|
|-------------------------|-----------------|---------------------------------|
|-----------------6-5-7-8-|-------------5-4-|---------------------------------|
|-----------------4-3-5-6-|-------------3-2-|---------------------------------|
|-2-2-2-2-2-2-2-2---------|-5-2-3-4-5-2-----|-4-4-4-4-4-4-4-4-4-4-4-4-4-4-4-4-|


                                    C#C5D5D#5             C5B5
                    PM------------|
  E E E E E E E E   S S S S S S S S E E E E   E E E E E E E E
|-----------------|-------------------------|------------------|
|-----------------|-------------------------|------------------|
|-----------------|-------------------------|------------------|
|-----------------|-----------------6-5-7-8-|-------------5-4--|
|-----------------|-----------------4-3-5-6-|-------------3-2--|
|-4-1-2-3-4-1-2-3-|-2-2-2-2-2-2-2-2---------|-5-2-3-4-5-2------|


                                                                      C#C5D5D#5
  PM----------------------------|
  S S S S S S S S S S S S S S S S   E E E E E E E E   S S S S S S S S E E E E
|---------------------------------|-----------------|-------------------------|
|---------------------------------|-----------------|-------------------------|
|---------------------------------|-----------------|-------------------------|
|---------------------------------|-----------------|-----------------6-5-7-8-|
|---------------------------------|-----------------|-----------------4-3-5-6-|
|-4-4-4-4-4-4-4-4-4-4-4-4-4-4-4-4-|-4-1-2-3-4-1-2-3-|-2-2-2-2-2-2-2-2---------|


  E E E E E E E E   E E E E E E E E   S S S S S S S S S S S S S S S S
|-----------------|-----------------|---------------------------------|
|-----------------|-----------------|---------------------------------|
|-----------------|-----------------|---------------------------------|
|-----------------|-----------------|---------------------------------|
|-5-4-6-7-5-4-6-7-|-5-4-6-7-5-4-6-7-|-5-5-4-4-6-6-7-7-5-5-4-4-6-6-7-7-|
|-----------------|-----------------|---------------------------------|


                                     Bridge
                                      G#G5A5BbG#G5A5Bb5 G#G5A5BbG#5
  S S S S S S S S S S S S S S S S     E E E E E E E E   E E E E E E Q   3x
|---------------------------------||------------------|-----------------||
|---------------------------------||o-----------------|----------------o||
|---------------------------------||------------------|-----------------||
|---------------------------------||--------3-------3-|-------3---------||
|-5-5-4-4-6-6-7-7-5-5-4-4-6-6-7-7-||o-6-5-7-1-6-5-7-1-|-6-5-7-1-6------o||
|---------------------------------||--4-3-5---4-3-5---|-4-3-5---4-------||


  G#G5A5Bb5 G5A5Bb5 G#G5A5Bb5                 G#5
                            PM------------|
  E E E E E E E E   E E E E S S S S S S S S   W          +W
|-----------------|-------------------------|----------|--------|
|-----------------|-------------------------|----------|--------|
|-----------------|-------------------------|----------|--------|
|-------3-------3-|-------3-----------------|-6--------|-(6)----|
|-6-5-7-1-6-5-7-1-|-6-5-7-1-----------------|-6--------|-(6)----|
|-4-3-5---4-3-5---|-4-3-5---4-4-4-4-4-4-4-4-|-4--------|-(4)----|


  +W           +W           +W           +W
|------------|------------|------------|--------|
|------------|------------|------------|--------|
|------------|------------|------------|--------|
|-(6)--------|-(6)--------|-(6)--------|-(6)----|
|-(6)--------|-(6)--------|-(6)--------|-(6)----|
|-(4)--------|-(4)--------|-(4)--------|-(4)----|


                            G#5   B5  G#5   B5    G#5   B5  G#5   B5
                            PM--|     PM--|       PM--|     PM--|
  +W           +W           S S E E E S S E E E   S S E E E S S E E E
|------------|------------|---------------------|----------------------|
|------------|------------|---------------------|----------------------|
|------------|------------|---------------------|----------------------|
|-(6)--------|-(6)--------|---------------------|----------------------|
|-(6)--------|-(6)--------|-6-6-6-9-9-6-6-6-9-9-|-6-6-6-9-9-6-6-6-9-9--|
|-(4)--------|-(4)--------|-4-4-4-7-7-4-4-4-7-7-|-4-4-4-7-7-4-4-4-7-7--|


  G#5   B5  G#5   B5    G#5                                     B5G#5   D5C#5
  PM--|     PM--|       PM------------------------------------|
  S S E E E S S E E E   S S S S S S S S S S S S S S S S   S S E E E +E  E Q
|---------------------|---------------------------------|---------------------|
|---------------------|---------------------------------|---------------------|
|---------------------|---------------------------------|---------------------|
|---------------------|---------------------------------|---------------7-6---|
|-6-6-6-9-9-6-6-6-9-9-|-6-6-6-6-6-6-6-6-6-6-6-6-6-6-6-6-|-6-6-6-9-6-(6)-5-4---|
|-4-4-4-7-7-4-4-4-7-7-|-4-4-4-4-4-4-4-4-4-4-4-4-4-4-4-4-|-4-4-4-7-4-(4)-------|


    G#5   B5G#5   D5C#5  G#5   B5G#5   D5C#5
    PM--|                PM--|
    S S E E E +E  E Q    S S E E E +E  E Q   3x
||---------------------|---------------------||
||o--------------------|--------------------o||
||---------------------|---------------------||
||----------------7-6--|---------------7-6---||
||o-6-6-6-9-6-(6)-5-4--|-6-6-6-9-6-(6)-5-4--o||
||--4-4-4-7-4-(4)------|-4-4-4-7-4-(4)-------||


  G#5   B5  G#5   B5          B5G#5   D5C#5
  PM--|     PM--|       PM--|
  S S E E E S S E E E   S S E E E +E  E Q
|---------------------|----------------------|
|---------------------|----------------------|
|---------------------|----------------------|
|---------------------|---------------7-6----|
|-6-6-6-9-9-6-6-6-9-9-|-6-6-6-9-6-(6)-5-4----|
|-4-4-4-7-7-4-4-4-7-7-|-4-4-4-7-4-(4)--------|


    G#5   B5G#5   D5C#5  G#5   B5G#5   D5C#5    G#5   B5  G#5   B5
    PM--|                PM--|
    S S E E E +E  E Q    S S E E E +E  E Q   3x S S E E E S S E E E
||---------------------|---------------------||-----------------------|
||o--------------------|--------------------o||-----------------------|
||---------------------|---------------------||-----------------------|
||----------------7-6--|---------------7-6---||-----------------------|
||o-6-6-6-9-6-(6)-5-4--|-6-6-6-9-6-(6)-5-4--o||-6-6-6-9-9-6-6-6-9-9---|
||--4-4-4-7-4-(4)------|-4-4-4-7-4-(4)-------||-4-4-4-7-7-4-4-4-7-7---|
|
|   Gtr II
|   W                    W                   3x H         Q     E S S
||---------------------|---------------------||-----------------------|
||o--------------------|--------------------o||-----------------------|
||---------------------|---------------------||-----------------------|
||---------------------|---------------------||---------------------6-|
||o--------------------|--------------------o||-----------------------|
||---------------------|---------------------||---------------------4-|


   Chorus
     PM-----------------------------------
     S  S S S S S S S  S   S S S S S S S
||---------------------------------------|
||o--------------------------------------|
||---------------------------------------|
||---------------------------------------|
||o--------------------------------------|
||---4--4-4-4-4-4-4-4--4---4-4-4-4-4-4-4-|
|
|   +H                +Q..             S
||---------------------------------------|
||o--------------------------------------|
||-------------------------------------7-|
||--(6)---------------(6)----------------|
||o------------------------------------5-|
||--(4)---------------(4)----------------|


 ------------------------------------|
   S  S S S S S S S  S   S S S S S S S
|--------------------------------------|
|--------------------------------------|
|--------------------------------------|
|--------------------------------------|
|--5--5-5-5-5-5-5-5--5---5-5-5-5-5-5-5-|
|--------------------------------------|
|
| +H                +Q..             S
|--------------------------------------|
|--------------------------------------|
|-(7)---------------(7)--------------6-|
|--------------------------------------|
|-(5)---------------(5)----------------|
|------------------------------------9-|


   PM-----------------------------------
   S  S S S S S S S  S   S S S S S S S
|--------------------------------------|
|--------------------------------------|
|--------------------------------------|
|--------------------------------------|
|--4--4-4-4-4-4-4-4--4---4-4-4-4-4-4-4-|
|--------------------------------------|
|
| +H                +Q..             S
|--------------------------------------|
|--------------------------------------|
|-(6)---------------(6)----------------|
|------------------------------------9-|
|--------------------------------------|
|-(9)---------------(9)--------------7-|


 ------------------------------------|
   S  S S S S S S S  S   S S S S S S S   4x
|----------------------------------------||
|---------------------------------------o||
|----------------------------------------||
|----------------------------------------||
|--2--2-2-2-2-2-2-2--2---2-2-2-2-2-2-2--o||
|----------------------------------------||
|
| +H                +Q..             S   4x
|----------------------------------------||
|---------------------------------------o||
|----------------------------------------||
|-(9)---------------(9)--------------6---||
|---------------------------------------o||
|-(7)---------------(7)--------------4---||


  G#5            F#5            A5             G#5
           PM|            PM|            PM------------------|
  Q  Q  Q  E E   Q  Q  Q  E E   Q  Q  Q  E E   E E E E E E E E
|--------------|--------------|--------------|------------------|
|--------------|--------------|--------------|------------------|
|--------------|--------------|--------------|------------------|
|--------------|--------------|--------------|------------------|
|-6--6--6--6-6-|-4--4--4--4-4-|-7--7--7--7-7-|-6-6-6-6-6-6-6-6--|
|-4--4--4--4-4-|-2--2--2--2-2-|-5--5--5--5-5-|-4-4-4-4-4-4-4-4--|


  G#5            F#5            A5
           PM|            PM|            PM----------------------------------|
  Q  Q  Q  E E   Q  Q  Q  E E   Q  Q  Q  E E   S S S S S S S S S S S S S S S S
|--------------|--------------|--------------|---------------------------------|
|--------------|--------------|--------------|---------------------------------|
|--------------|--------------|--------------|---------------------------------|
|--------------|--------------|--------------|---------------------------------|
|-6--6--6--6-6-|-4--4--4--4-4-|-7--7--7--7-7-|-6-6-6-6-6-6-6-6-6-6-6-6-6-6-6-6-|
|-4--4--4--4-4-|-2--2--2--2-2-|-5--5--5--5-5-|-4-4-4-4-4-4-4-4-4-4-4-4-4-4-4-4-|


                C5B5
                      PM----------------------------|
    E E E E E E E E   S S S S S S S S S S S S S S S S
||------------------|---------------------------------|
||o-----------------|---------------------------------|
||------------------|---------------------------------|
||--------------5-4-|---------------------------------|
||o-------------3-2-|---------------------------------|
||--5-2-3-4-5-2-----|-4-4-4-4-4-4-4-4-4-4-4-4-4-4-4-4-|


                                    C#C5D5D#5
                    PM------------|
  E E E E E E E E   S S S S S S S S E E E E   6x
|-----------------|---------------------------||
|-----------------|--------------------------o||
|-----------------|---------------------------||
|-----------------|-----------------6-5-7-8---||
|-----------------|-----------------4-3-5-6--o||
|-4-1-2-3-4-1-2-3-|-2-2-2-2-2-2-2-2-----------||


  E E E E E E E E      W           E E E E E E E E
|-------------------|------------|-------------------|
|-------------------|------------|-------------------|
|-------------------|------------|-------------------|
|-------------------|--6---------|-------------------|
|-------------------|--6---------|-------------------|
|-5-2-3-4-5-2-3-4---|--4---------|-4-1-2-3-4-1-2-3---|
|
| Gtr II
| H       Q   E S S   +W           H       Q   E S S
|-------------------|------------|-------------------|
|-------------------|------------|-------------------|
|-------------------|------------|-------------------|
|-----------------6-|-(6)--------|-----------------4-|
|-------------------|------------|-------------------|
|-----------------4-|-(4)--------|-----------------2-|


  F#5  C#5  C5D5D#5                       G#5
  H     E   E E E     E E E E E E E E      W
|-------------------|-------------------|--------|
|-------------------|-------------------|--------|
|-------------------|-------------------|--------|
|-4-----6---5-7-8---|-------------------|--6-----|
|-4-----4---3-5-6---|-------------------|--6-----|
|-2-----------------|-5-2-3-4-5-2-3-4---|--4-----|
|
| H    +Q..       S   H       Q   E S S   +W
|-------------------|-------------------|--------|
|-------------------|-------------------|--------|
|-------------------|-------------------|--------|
|-4----(4)--------6-|-----------------6-|-(6)----|
|-------------------|-------------------|--------|
|-2----(2)--------4-|-----------------4-|-(4)----|


                      F#5    C#5  C5D5D#5
  E E E E E E E E      H      E   E E E
|-------------------|---------------------|
|-------------------|---------------------|
|-------------------|---------------------|
|-------------------|--4------6---5-7-8---|
|-------------------|--4------4---3-5-6---|
|-4-1-2-3-4-1-2-3---|--2------------------|
|
| H       Q   E S S   +H     +Q..       S
|-------------------|---------------------|
|-------------------|---------------------|
|-------------------|---------------------|
|-----------------4-|-(4)----(4)--------6-|
|-------------------|---------------------|
|-----------------2-|-(2)----(2)--------4-|


   Out-Chorus
     PM--------------------------------|
     S  S S S S S S S  S   S S S S S S S
||---------------------------------------|
||o--------------------------------------|
||---------------------------------------|
||---------------------------------------|
||o--------------------------------------|
||---4--4-4-4-4-4-4-4--4---4-4-4-4-4-4-4-|
|
|   +H                +Q..             S
||---------------------------------------|
||o--------------------------------------|
||-------------------------------------7-|
||--(6)---------------(6)----------------|
||o------------------------------------5-|
||--(4)---------------(4)----------------|


   S  S S S S S S S  S   S S S S S S S    S  S S S S S S S  S   S S S S S S S
|--------------------------------------|---------------------------------------|
|--------------------------------------|---------------------------------------|
|--------------------------------------|---------------------------------------|
|--------------------------------------|---------------------------------------|
|--5--5-5-5-5-5-5-5--5---5-5-5-5-5-5-5-|--4--4-4-4-4-4-4-4--4---4-4-4-4-4-4-4--|
|--------------------------------------|---------------------------------------|
|
| +H                +Q..             S   +H                +Q..             S
|--------------------------------------|---------------------------------------|
|--------------------------------------|---------------------------------------|
|-(7)---------------(7)--------------6-|-(6)---------------(6)-----------------|
|--------------------------------------|------------------------------------9--|
|-(5)---------------(5)----------------|---------------------------------------|
|------------------------------------9-|-(9)---------------(9)--------------7--|


   S  S S S S S S S  S   S S S S S S S  5x
|---------------------------------------||
|--------------------------------------o||
|---------------------------------------||
|---------------------------------------||
|--2--2-2-2-2-2-2-2--2---2-2-2-2-2-2-2-o||
|---------------------------------------||
|
| +H                +Q..             S  5x
|---------------------------------------||
|--------------------------------------o||
|---------------------------------------||
|-(9)---------------(9)--------------6--||
|--------------------------------------o||
|-(7)---------------(7)--------------4--||


   PM--------------------------------|
   S  S S S S S S S  S   S S S S S S S
|---------------------------------------|
|---------------------------------------|
|---------------------------------------|
|---------------------------------------|
|---------------------------------------|
|--4--4-4-4-4-4-4-4--4---4-4-4-4-4-4-4--|
|
| +H                +Q..             S
|---------------------------------------|
|---------------------------------------|
|------------------------------------7--|
|-(6)---------------(6)-----------------|
|------------------------------------5--|
|-(4)---------------(4)-----------------|


  PM----------------------------------------------------------------------|
  S S S S S S S S  S   S S S S S S S    S  S S S S S S S  S   S S S S S S S
|------------------------------------|---------------------------------------|
|------------------------------------|---------------------------------------|
|------------------------------------|---------------------------------------|
|------------------------------------|---------------------------------------|
|-5-5-5-5-5-5-5-5--5---5-5-5-5-5-5-5-|--4--4-4-4-4-4-4-4--4---4-4-4-4-4-4-4--|
|------------------------------------|---------------------------------------|
|
| H               +Q..             S   +H                +Q..             S
|------------------------------------|---------------------------------------|
|------------------------------------|---------------------------------------|
|-7---------------(7)--------------6-|-(6)---------------(6)-----------------|
|------------------------------------|------------------------------------9--|
|-5---------------(5)----------------|---------------------------------------|
|----------------------------------9-|-(9)---------------(9)--------------7--|


                                      G#G5A5BbG#5
   PM-----------------------------|
   S  S S S S S S S S S S S S S S S   E E E E Q  Q
|-----------------------------------|---------------*|
|-----------------------------------|---------------*|
|-----------------------------------|---------------*|
|-----------------------------------|---------------*|
|--2--2-2-2-2-2-2-2-2-2-2-2-2-2-2-2-|-6-5-7-8-6-----*|
|-----------------------------------|-4-3-5-6-4-----*|
|
| +W                                  W
|-----------------------------------|---------------*|
|-----------------------------------|---------------*|
|-----------------------------------|---------------*|
|-(9)-------------------------------|---------------*|
|-----------------------------------|---------------*|
|-(7)-------------------------------|---------------*|



Duration Legend
---------------
W - whole; H - half; Q - quarter; E - 8th; S - 16th; T - 32nd; X - 64th; a - acciaccatura
+ - note tied to previous; . - note dotted; .. - note double dotted
Uncapitalized letters represent notes that are staccato (1/2 duration)
Irregular groupings are notated above the duration line
Duration letters will always appear directly above the note/fret number it represents the
duration for.  Duration letters with no fret number below them represent rests.  Multi-
bar rests are notated in the form Wxn, where n is the number of bars to rest for.  Low
melody durations appear below the staff

Tablature Legend
----------------
 h   - hammer-on
 p   - pull-off
 b   - bend
 pb  - pre-bend
 r   - bend release (if no number after the r, then release immediately)
 /\  - slide into or out of (from/to "nowhere")
 s   - legato slide
 S   - shift slide
 - natural harmonic
[n]  - artificial harmonic
n(n) - tapped harmonic
 ~   - vibrato
 tr  - trill
 T   - tap
 TP  - trem. picking
 PM  - palm muting
\n/  - tremolo bar dip; n = amount to dip
 \n  - tremolo bar down
 n/  - tremolo bar up
/n\  - tremolo bar inverted dip
 =   - hold bend; also acts as connecting device for hammers/pulls
 <> - volume swell (louder/softer)
 x   - on rhythm slash represents muted slash
 o   - on rhythm slash represents single note slash

Misc Legend
-----------
 |  - bar
||  - double bar
||o - repeat start
o|| - repeat end
*|  - double bar (ending)
 :  - bar (freetime)
 $  - Segno
 &  - Coda
Tempo markers -  = BPM(8/16=s8/s16), where s8 = swing 8ths, s16 = swing 16ths

comments
We did not receive enough feedback on this tab! Please rate:
1 2 3 4 5
3 comments total.
0 reply
sick steve wrote on August 28 2008, 10:51 am

This is a pretty good tab.
More people should be giving it some stars.

Good job!

0 reply
Rizzo228 wrote on October 19 2008, 02:18 pm

Fear factory songs atre played mostly in B standard ( 7 string standard) B E A D G B e on a 6 string just B E A D G B

0 reply
motallero wrote on September 17 2010, 03:56 pm

rizzos right you tabbed it correctly but the tuning is B.

I want to post or [tab]
guest
You may want to rate the tab now too:
select rating
Please do not post tabs as comments. Select "correction" instead!