Oops, an error
Loading. Please wait.

Mechanize Tab

2,042 views 6 this week
no commentswrite comment
1 2 3 4 5
excellent!
x 3
Autoscroll
+/-
esc
set tempo
stop
Contributor
Difficulty
Tuning
intermediate
A E A D F# B
WARNING: You are trying to view
                                    content from Ultimate-Guitar.com
                                    in an unauthorized application,
                                    which is prohibited.

                                    Please use an official Ultimate
                                    Guitar Tabs application for iPhone,
                                    iPad or Android to access legitimate
                                    chords, guitar, bass, and drum tabs
                                    from Ultimate-Guitar.com database.

                                    Type "ultimate guitar tabs" in Apple
                                    App Store's or Android Market's
                                    search to find the application.
Song: Mechanize                                                                   Artist: 
Fear factory
Tabbed By: Thommoboy



         PM PM    PM PM       PM    PM             PM PM    PM PM  
      E  E  E  E  E  E     E  E  E  E  Q        E  E  E  E  E  E   
B ||--------------------|--------------------|--------------------|
G ||--------------------|--------------------|--------------------|
D ||--------------------|--------------------|--------------------|
A ||--------------------|--------------------|--------------------|
E ||--------------------|--------------------|--------------------|
B ||--------------------|--------------------|--------------------|
F#||--4--0--0--1--0--0--|--3--0--3--0--1b----|--4--0--0--1--0--0--|


     PM    PM             PM PM    PM PM       PM    PM        
  E  E  E  E  Q        E  E  E  E  E  E     E  E  E  E  Q      
--------------------|--------------------|--------------------|
--------------------|--------------------|--------------------|
--------------------|--------------------|--------------------|
--------------------|--------------------|--------------------|
--------------------|--------------------|--------------------|
--------------------|--------------------|--------------------|
--3--0--3--0--1b----|--4--0--0--1--0--0--|--3--0--3--0--1b----|


     PM PM    PM PM       PM    PM                                   
  E  E  E  E  E  E     E  E  E  E  Q        S S S S S S S S S S S S  
--------------------|--------------------|--------------------------|
--------------------|--------------------|--------------------------|
--------------------|--------------------|--------------------------|
--------------------|--------------------|--------------------------|
--------------------|--------------------|--------------------------|
--------------------|--------------------|--------------------------|
--4--0--0--1--0--0--|--3--0--3--0--1b----|--4-0-0-0-0-0-1-0-0-0-0-0-|


  S S S S S S S S S S S S    S S S S S S S S S S S S  
--------------------------|--------------------------|
--------------------------|--------------------------|
--------------------------|--------------------------|
--------------------------|--------------------------|
--------------------------|--------------------------|
--------------------------|--------------------------|
--3-0-0-0-3-0-0-0-1-1-1-1-|--4-0-0-0-0-0-1-0-0-0-0-0-|


  S S S S S S S S S S S S    S S S S S S S S S S S S  
--------------------------|--------------------------|
--------------------------|--------------------------|
--------------------------|--------------------------|
--------------------------|--------------------------|
--------------------------|--------------------------|
--------------------------|--------------------------|
--3-0-0-0-3-0-0-0-1-1-1-1-|--4-0-0-0-0-0-1-0-0-0-0-0-|


  S S S S S S S S S S S S    S S S S S S S S S S S S  
--------------------------|--------------------------|
--------------------------|--------------------------|
--------------------------|--------------------------|
--------------------------|--------------------------|
--------------------------|--------------------------|
--------------------------|--------------------------|
--3-0-0-0-3-0-0-0-1-1-1-1-|--4-0-0-0-0-0-1-0-0-0-0-0-|


  S S S S S S S S S S S S    S S S S S S S S S S S S  
--------------------------|--------------------------|
--------------------------|--------------------------|
--------------------------|--------------------------|
--------------------------|--------------------------|
--------------------------|--------------------------|
--------------------------|--------------------------|
--3-0-0-0-3-0-0-0-1-1-1-1-|--4-0-0-0-0-0-1-0-0-0-0-0-|


  S S S S S S S S S S S S    S S S S S S S S S S S S  
--------------------------|--------------------------|
--------------------------|--------------------------|
--------------------------|--------------------------|
--------------------------|--------------------------|
--------------------------|--------------------------|
--------------------------|--------------------------|
--3-0-0-0-3-0-0-0-1-1-1-1-|--4-0-0-0-0-0-1-0-0-0-0-0-|


  S S S S S S S S S S S S    S S S S S S S S S S S S  
--------------------------|--------------------------|
--------------------------|--------------------------|
--------------------------|--------------------------|
--------------------------|--------------------------|
--------------------------|--------------------------|
--------------------------|--------------------------|
--3-0-0-0-3-0-0-0-1-1-1-1-|--4-0-0-0-0-0-1-0-0-0-0-0-|


  S S S S S S S S S S S S    S S S S S S S S S S S S  
--------------------------|--------------------------|
--------------------------|--------------------------|
--------------------------|--------------------------|
--------------------------|--------------------------|
--------------------------|--------------------------|
--------------------------|--------------------------|
--3-0-0-0-3-0-0-0-1-1-1-1-|--4-0-0-0-0-0-1-0-0-0-0-0-|


                                                 PM PM     PM PM  
  S S S S S S S S S S S S    H.               E  E  E   E  E  E   
--------------------------|---------------|----------------------|
--------------------------|---------------|----------------------|
--------------------------|---------------|----------------------|
--------------------------|---------------|----------------------|
--------------------------|---------------|--12--------10--------|
--------------------------|---------------|------0--0------0--0--|
--3-3-3-3-3-3-3-3-3-3-----|---------------|----------------------|


      PM     PM     PM        PM PM     PM PM        PM     PM     PM  
   E  E   E  E   E  E      E  E  E   E  E  E      E  E   E  E   E  E   
-----------------------|----------------------|-----------------------|
-----------------------|----------------------|-----------------------|
-----------------------|----------------------|-----------------------|
-----------------------|----------------------|-----------------------|
--12-----12-----10-----|--12--------10--------|--12-----12-----10-----|
------0------0------0--|------0--0------0--0--|------0------0------0--|
-----------------------|----------------------|-----------------------|


      PM PM     PM PM        PM     PM     PM        PM PM     PM PM  
   E  E  E   E  E  E      E  E   E  E   E  E      E  E  E   E  E  E   
----------------------|-----------------------|----------------------|
----------------------|-----------------------|----------------------|
----------------------|-----------------------|----------------------|
----------------------|-----------------------|----------------------|
--12--------10--------|--12-----12-----10-----|--12--------10--------|
------0--0------0--0--|------0------0------0--|------0--0------0--0--|
----------------------|-----------------------|----------------------|


      PM     PM     PM        PM PM     PM PM        PM     PM           
   E  E   E  E   E  E      E  E  E   E  E  E      E  E   E  E   E    E   
-----------------------|----------------------|-------------------------|
-----------------------|----------------------|-------------------------|
-----------------------|----------------------|-------------------------|
-----------------------|--14--------16--------|--14-----14-----12s--14--|
--12-----12-----10-----|--12--------14--------|--12-----12-----10s--12--|
------0------0------0--|------0--0------0--0--|------0------0-----------|
-----------------------|----------------------|-------------------------|


      PM PM     PM PM        PM     PM                 PM PM     PM PM  
   E  E  E   E  E  E      E  E   E  E   E    E      E  E  E   E  E  E   
----------------------|-------------------------|----------------------|
----------------------|-------------------------|----------------------|
----------------------|-------------------------|----------------------|
--14--------16--------|--14-----14-----12s--14--|--14--------16--------|
--12--------14--------|--12-----12-----10s--12--|--12--------14--------|
------0--0------0--0--|------0------0-----------|------0--0------0--0--|
----------------------|-------------------------|----------------------|


      PM     PM                 PM PM     PM PM        PM     PM     PM  
   E  E   E  E   E    E      E  E  E   E  E  E      E  E   E  E   E  E   
-------------------------|----------------------|-----------------------|
-------------------------|----------------------|-----------------------|
-------------------------|----------------------|-----------------------|
--14-----14-----12s--14--|--14--------16--------|--14-----14-----12-----|
--12-----12-----10s--12--|--12--------14--------|--12-----12-----10-----|
------0------0-----------|------0--0------0--0--|------0------0------0--|
-------------------------|----------------------|-----------------------|


  PM PM PM PM PM PM                                PM PM PM PM PM PM          
  S  S  S  S  S  S  Q.         E  E  E  E  Q       S  S  S  S  S  S  Q.       
----------------------------|-------------------|----------------------------|
----------------------------|-------------------|----------------------------|
----------------------------|-------------------|----------------------------|
----------------------------|-------------------|----------------------------|
----------------------------|-------------------|----------------------------|
----------------------------|-----------2--5----|----------------------------|
--1--1--1--1--1--1--1b------|--1--1--4----------|--1--1--1--1--1--1--1b------|


                      PM PM PM PM PM PM                              
  E  E  E  E  Q       S  S  S  S  S  S  Q.         E  E  E  E  Q     
-------------------|----------------------------|-------------------|
-------------------|----------------------------|-------------------|
-------------------|----------------------------|-------------------|
-------------------|----------------------------|-------------------|
-------------------|----------------------------|-------------------|
-----------2--5----|----------------------------|-----------2--5----|
--1--1--4----------|--1--1--1--1--1--1--1b------|--1--1--4----------|


  PM PM PM PM PM PM                                PM PM PM PM PM PM          
  S  S  S  S  S  S  Q.         E  E  E  E  Q       S  S  S  S  S  S  Q.       
----------------------------|-------------------|----------------------------|
----------------------------|-------------------|----------------------------|
----------------------------|-------------------|----------------------------|
----------------------------|-------------------|----------------------------|
----------------------------|-------------------|----------------------------|
----------------------------|-----------2--5----|----------------------------|
--1--1--1--1--1--1--1b------|--1--1--4----------|--4--4--4--4--4--4--4b------|


                      PM PM PM PM PM PM                              
  E  E  E  E  Q       S  S  S  S  S  S  Q.         E  E  E  E  Q     
-------------------|----------------------------|-------------------|
-------------------|----------------------------|-------------------|
-------------------|----------------------------|-------------------|
-------------------|----------------------------|-------------------|
-------------------|----------------------------|-------------------|
-----------5--8----|----------------------------|-----------5--8----|
--4--4--7----------|--4--4--4--4--4--4--4b------|--4--4--7----------|


  PM PM PM PM PM PM                                PM PM PM PM PM PM          
  S  S  S  S  S  S  Q.         E  E  E  E  Q       S  S  S  S  S  S  Q.       
----------------------------|-------------------|----------------------------|
----------------------------|-------------------|----------------------------|
----------------------------|-------------------|----------------------------|
----------------------------|-------------------|----------------------------|
----------------------------|-------------------|----------------------------|
----------------------------|-----------5--8----|----------------------------|
--4--4--4--4--4--4--4b------|--4--4--7----------|--4--4--4--4--4--4--4b------|


  E  E  E  E  Q       S S S S S S S S S S S S    S S S S S S S S S S S S  
-------------------|--------------------------|--------------------------|
-------------------|--------------------------|--------------------------|
-------------------|--------------------------|--------------------------|
-------------------|--------------------------|--------------------------|
-------------------|--------------------------|--------------------------|
-----------5--8----|--------------------------|--------------------------|
--4--4--7----------|--4-0-0-0-0-0-1-0-0-0-0-0-|--3-0-0-0-3-0-0-0-1-1-1-1-|


  S S S S S S S S S S S S    S S S S S S S S S S S S  
--------------------------|--------------------------|
--------------------------|--------------------------|
--------------------------|--------------------------|
--------------------------|--------------------------|
--------------------------|--------------------------|
--------------------------|--------------------------|
--4-0-0-0-0-0-1-0-0-0-0-0-|--3-0-0-0-3-0-0-0-1-1-1-1-|


  S S S S S S S S S S S S    S S S S S S S S S S S S  
--------------------------|--------------------------|
--------------------------|--------------------------|
--------------------------|--------------------------|
--------------------------|--------------------------|
--------------------------|--------------------------|
--------------------------|--------------------------|
--4-0-0-0-0-0-1-0-0-0-0-0-|--3-0-0-0-3-0-0-0-1-1-1-1-|


  S S S S S S S S S S S S    S S S S S S S S S S S S  
--------------------------|--------------------------|
--------------------------|--------------------------|
--------------------------|--------------------------|
--------------------------|--------------------------|
--------------------------|--------------------------|
--------------------------|--------------------------|
--4-0-0-0-0-0-1-0-0-0-0-0-|--3-0-0-0-3-0-0-0-1-------|


  S S S S S S S S S S S S    S S S S S S S S S S S S  
--------------------------|--------------------------|
--------------------------|--------------------------|
--------------------------|--------------------------|
--------------------------|--------------------------|
--------------------------|--------------------------|
--------------------------|--------------------------|
--4-0-0-0-0-0-1-0-0-0-0-0-|--3-0-0-0-3-0-0-0-1-1-1-1-|


  S S S S S S S S S S S S    S S S S S S S S S S S S  
--------------------------|--------------------------|
--------------------------|--------------------------|
--------------------------|--------------------------|
--------------------------|--------------------------|
--------------------------|--------------------------|
--------------------------|--------------------------|
--4-0-0-0-0-0-1-0-0-0-0-0-|--3-0-0-0-3-0-0-0-1-1-1-1-|


  S S S S S S S S S S S S    S S S S S S S S S S S S  
--------------------------|--------------------------|
--------------------------|--------------------------|
--------------------------|--------------------------|
--------------------------|--------------------------|
--------------------------|--------------------------|
--------------------------|--------------------------|
--4-0-0-0-0-0-1-0-0-0-0-0-|--3-0-0-0-3-0-0-0-1-1-1-1-|


                                                           PM PM    PM PM  
  S S S S S S S S S S S S    S S S S S S S S S S S S    E  E  E  E  E  E   
--------------------------|--------------------------|--------------------|
--------------------------|--------------------------|--------------------|
--------------------------|--------------------------|--------------------|
--------------------------|--------------------------|--------------------|
--------------------------|--------------------------|--------------------|
--------------------------|--------------------------|--------------------|
--4-0-0-0-0-0-1-0-0-0-0-0-|--3-0-0-0-3-0-0-0-1-------|--4--0--0--1--0--0--|


     PM    PM             PM PM    PM PM       PM    PM        
  E  E  E  E  Q        E  E  E  E  E  E     E  E  E  E  Q      
--------------------|--------------------|--------------------|
--------------------|--------------------|--------------------|
--------------------|--------------------|--------------------|
--------------------|--------------------|--------------------|
--------------------|--------------------|--------------------|
--------------------|--------------------|--------------------|
--3--0--3--0--1b----|--4--0--0--1--0--0--|--3--0--3--0--1b----|


     PM PM    PM PM       PM    PM             PM PM    PM PM  
  E  E  E  E  E  E     E  E  E  E  Q        E  E  E  E  E  E   
--------------------|--------------------|--------------------|
--------------------|--------------------|--------------------|
--------------------|--------------------|--------------------|
--------------------|--------------------|--------------------|
--------------------|--------------------|--------------------|
--------------------|--------------------|--------------------|
--4--0--0--1--0--0--|--3--0--3--0--1b----|--4--0--0--1--0--0--|


     PM    PM             PM PM    PM PM       PM    PM        
  E  E  E  E  Q        E  E  E  E  E  E     E  E  E  E  Q      
--------------------|--------------------|--------------------|
--------------------|--------------------|--------------------|
--------------------|--------------------|--------------------|
--------------------|--------------------|--------------------|
--------------------|--------------------|--------------------|
--------------------|--------------------|--------------------|
--3--0--3--0--1b----|--4--0--0--1--0--0--|--3--0--3--0--1b----|


     PM PM    PM PM       PM    PM             PM PM    PM PM  
  E  E  E  E  E  E     E  E  E  E  Q        E  E  E  E  E  E   
--------------------|--------------------|--------------------|
--------------------|--------------------|--------------------|
--------------------|--------------------|--------------------|
--------------------|--------------------|--------------------|
--------------------|--------------------|--------------------|
--------------------|--------------------|--------------------|
--4--0--0--1--0--0--|--3--0--3--0--1b----|--4--0--0--1--0--0--|


     PM    PM             PM PM    PM PM       PM    PM        
  E  E  E  E  Q        E  E  E  E  E  E     E  E  E  E  Q      
--------------------|--------------------|--------------------|
--------------------|--------------------|--------------------|
--------------------|--------------------|--------------------|
--------------------|--------------------|--------------------|
--------------------|--------------------|--------------------|
--------------------|--------------------|--------------------|
--3--0--3--0--1b----|--4--0--0--1--0--0--|--3--0--3--0--1b----|


      PM PM     PM PM        PM     PM     PM        PM PM     PM PM  
   E  E  E   E  E  E      E  E   E  E   E  E      E  E  E   E  E  E   
----------------------|-----------------------|----------------------|
----------------------|-----------------------|----------------------|
----------------------|-----------------------|----------------------|
----------------------|-----------------------|----------------------|
--12--------10--------|--12-----12-----10-----|--12--------10--------|
------0--0------0--0--|------0------0------0--|------0--0------0--0--|
----------------------|-----------------------|----------------------|


      PM     PM     PM        PM PM     PM PM        PM     PM     PM  
   E  E   E  E   E  E      E  E  E   E  E  E      E  E   E  E   E  E   
-----------------------|----------------------|-----------------------|
-----------------------|----------------------|-----------------------|
-----------------------|----------------------|-----------------------|
-----------------------|----------------------|-----------------------|
--12-----12-----10-----|--12--------10--------|--12-----12-----10-----|
------0------0------0--|------0--0------0--0--|------0------0------0--|
-----------------------|----------------------|-----------------------|


      PM PM     PM PM        PM     PM     PM        PM PM     PM PM  
   E  E  E   E  E  E      E  E   E  E   E  E      E  E  E   E  E  E   
----------------------|-----------------------|----------------------|
----------------------|-----------------------|----------------------|
----------------------|-----------------------|----------------------|
----------------------|-----------------------|--14--------16--------|
--12--------10--------|--12-----12-----10-----|--12--------14--------|
------0--0------0--0--|------0------0------0--|------0--0------0--0--|
----------------------|-----------------------|----------------------|


      PM     PM                 PM PM     PM PM        PM     PM           
   E  E   E  E   E    E      E  E  E   E  E  E      E  E   E  E   E    E   
-------------------------|----------------------|-------------------------|
-------------------------|----------------------|-------------------------|
-------------------------|----------------------|-------------------------|
--14-----14-----12s--14--|--14--------16--------|--14-----14-----12s--14--|
--12-----12-----10s--12--|--12--------14--------|--12-----12-----10s--12--|
------0------0-----------|------0--0------0--0--|------0------0-----------|
-------------------------|----------------------|-------------------------|


      PM PM     PM PM        PM     PM                 PM PM     PM PM  
   E  E  E   E  E  E      E  E   E  E   E    E      E  E  E   E  E  E   
----------------------|-------------------------|----------------------|
----------------------|-------------------------|----------------------|
----------------------|-------------------------|----------------------|
--14--------16--------|--14-----14-----12s--14--|--14--------16--------|
--12--------14--------|--12-----12-----10s--12--|--12--------14--------|
------0--0------0--0--|------0------0-----------|------0--0------0--0--|
----------------------|-------------------------|----------------------|


      PM     PM     PM    PM PM PM PM PM PM                              
   E  E   E  E   E  E     S  S  S  S  S  S  Q.         E  E  E  E  Q     
-----------------------|----------------------------|-------------------|
-----------------------|----------------------------|-------------------|
-----------------------|----------------------------|-------------------|
--14-----14-----12-----|----------------------------|-------------------|
--12-----12-----10-----|----------------------------|-------------------|
------0------0------0--|----------------------------|-----------2--5----|
-----------------------|--1--1--1--1--1--1--1b------|--1--1--4----------|


  PM PM PM PM PM PM                                PM PM PM PM PM PM          
  S  S  S  S  S  S  Q.         E  E  E  E  Q       S  S  S  S  S  S  Q.       
----------------------------|-------------------|----------------------------|
----------------------------|-------------------|----------------------------|
----------------------------|-------------------|----------------------------|
----------------------------|-------------------|----------------------------|
----------------------------|-------------------|----------------------------|
----------------------------|-----------2--5----|----------------------------|
--1--1--1--1--1--1--1b------|--1--1--4----------|--1--1--1--1--1--1--1b------|


                      PM PM PM PM PM PM                              
  E  E  E  E  Q       S  S  S  S  S  S  Q.         E  E  E  E  Q     
-------------------|----------------------------|-------------------|
-------------------|----------------------------|-------------------|
-------------------|----------------------------|-------------------|
-------------------|----------------------------|-------------------|
-------------------|----------------------------|-------------------|
-----------2--5----|----------------------------|-----------2--5----|
--1--1--4----------|--1--1--1--1--1--1--1b------|--1--1--4----------|


  PM PM PM PM PM PM                                PM PM PM PM PM PM          
  S  S  S  S  S  S  Q.         E  E  E  E  Q       S  S  S  S  S  S  Q.       
----------------------------|-------------------|----------------------------|
----------------------------|-------------------|----------------------------|
----------------------------|-------------------|----------------------------|
----------------------------|-------------------|----------------------------|
----------------------------|-------------------|----------------------------|
----------------------------|-----------5--8----|----------------------------|
--4--4--4--4--4--4--4b------|--4--4--7----------|--4--4--4--4--4--4--4b------|


                      PM PM PM PM PM PM                              
  E  E  E  E  Q       S  S  S  S  S  S  Q.         E  E  E  E  Q     
-------------------|----------------------------|-------------------|
-------------------|----------------------------|-------------------|
-------------------|----------------------------|-------------------|
-------------------|----------------------------|-------------------|
-------------------|----------------------------|-------------------|
-----------5--8----|----------------------------|-----------5--8----|
--4--4--7----------|--4--4--4--4--4--4--4b------|--4--4--7----------|


  PM PM PM PM PM PM                                                         
  S  S  S  S  S  S  Q.         E  E  E  E  Q       S S S S S S S S S S S S  
----------------------------|-------------------|--------------------------|
----------------------------|-------------------|--------------------------|
----------------------------|-------------------|--------------------------|
----------------------------|-------------------|--------------------------|
----------------------------|-------------------|--------------------------|
----------------------------|-----------5--8----|--------------------------|
--4--4--4--4--4--4--4b------|--4--4--7----------|--4-0-0-0-0-0-1-0-0-0-0-0-|


  S S S S S S S S S S S S    S S S S S S S S S S S S  
--------------------------|--------------------------|
--------------------------|--------------------------|
--------------------------|--------------------------|
--------------------------|--------------------------|
--------------------------|--------------------------|
--------------------------|--------------------------|
--3-0-0-0-3-0-0-0-1-1-1-1-|--4-0-0-0-0-0-1-0-0-0-0-0-|


  S S S S S S S S S S S S    S S S S S S S S S S S S  
--------------------------|--------------------------|
--------------------------|--------------------------|
--------------------------|--------------------------|
--------------------------|--------------------------|
--------------------------|--------------------------|
--------------------------|--------------------------|
--3-0-0-0-3-0-0-0-1-1-1-1-|--4-0-0-0-0-0-1-0-0-0-0-0-|


  S S S S S S S S S S S S    S S S S S S S S S S S S  
--------------------------|--------------------------|
--------------------------|--------------------------|
--------------------------|--------------------------|
--------------------------|--------------------------|
--------------------------|--------------------------|
--------------------------|--------------------------|
--3-0-0-0-3-0-0-0-1-1-1-1-|--4-0-0-0-0-0-1-0-0-0-0-0-|


  S S S S S S S S S S S S    S S S S S S S S S S S S  
--------------------------|--------------------------|
--------------------------|--------------------------|
--------------------------|--------------------------|
--------------------------|--------------------------|
--------------------------|--------------------------|
--------------------------|--------------------------|
--3-0-0-0-3-0-0-0-1-------|--4-0-0-0-0-0-1-0-0-0-0-0-|


  S S S S S S S S S S S S    S S S S S S S S S S S S  
--------------------------|--------------------------|
--------------------------|--------------------------|
--------------------------|--------------------------|
--------------------------|--------------------------|
--------------------------|--------------------------|
--------------------------|--------------------------|
--3-0-0-0-3-0-0-0-1-1-1-1-|--4-0-0-0-0-0-1-0-0-0-0-0-|


  S S S S S S S S S S S S    S S S S S S S S S S S S  
--------------------------|--------------------------|
--------------------------|--------------------------|
--------------------------|--------------------------|
--------------------------|--------------------------|
--------------------------|--------------------------|
--------------------------|--------------------------|
--3-0-0-0-3-0-0-0-1-1-1-1-|--4-0-0-0-0-0-1-0-0-0-0-0-|


  S S S S S S S S S S S S    S S S S S S S S S S S S  
--------------------------|--------------------------|
--------------------------|--------------------------|
--------------------------|--------------------------|
--------------------------|--------------------------|
--------------------------|--------------------------|
--------------------------|--------------------------|
--3-0-0-0-3-0-0-0-1-1-1-1-|--4-0-0-0-0-0-1-0-0-0-0-0-|


                                       PM PM PM PM  
  S S S S S S S S S S S S    Q    Q    S  S  S  S   
--------------------------|------------------------|
--------------------------|------------------------|
--------------------------|------------------------|
--------------------------|------------------------|
--------------------------|--5----4----------------|
--------------------------|--3----2----0--0--0--0--|
--3-3-3-3-3-3-3-3-3-3-3-3-|------------------------|


  PM PM PM PM PM PM PM PM PM PM PM PM    PM PM PM PM PM PM PM PM       
  S  S  S  S  S  S  S  S  S  S  S  S     S  S  S  S  S  S  S  S  Q     
--------------------------------------|-------------------------------|
--------------------------------------|-------------------------------|
--------------------------------------|-------------------------------|
--------------------------------------|-------------------------------|
--------------------------------------|--------------------------7----|
--0--0--0--0--0--0--0--0--0--0--0--0--|--0--0--0--0--0--0--0--0--5----|
--------------------------------------|-------------------------------|


       PM PM PM PM PM PM PM PM    PM PM PM PM PM PM PM PM PM PM PM PM  
  Q    S  S  S  S  S  S  S  S     S  S  S  S  S  S  S  S  S  S  S  S   
-------------------------------|--------------------------------------|
-------------------------------|--------------------------------------|
-------------------------------|--------------------------------------|
-------------------------------|--------------------------------------|
--5----------------------------|--------------------------------------|
--3----0--0--0--0--0--0--0--0--|--0--0--0--0--0--0--0--0--0--0--0--0--|
-------------------------------|--------------------------------------|


  PM PM PM PM              PM PM PM PM PM PM PM PM       
  S  S  S  S  Q    Q       S  S  S  S  S  S  S  S  Q     
------------------------|-------------------------------|
------------------------|-------------------------------|
------------------------|-------------------------------|
------------------------|-------------------------------|
--------------8----7----|--------------------------7----|
--0--0--0--0--6----5----|--0--0--0--0--0--0--0--0--5----|
------------------------|-------------------------------|


       PM PM PM PM PM PM PM PM              PM PM PM PM  
  Q    S  S  S  S  S  S  S  S     Q    Q    S  S  S  S   
-------------------------------|------------------------|
-------------------------------|------------------------|
-------------------------------|------------------------|
-------------------------------|------------------------|
--5----------------------------|--5----4----------------|
--3----0--0--0--0--0--0--0--0--|--3----2----0--0--0--0--|
-------------------------------|------------------------|


  PM PM PM PM PM PM PM PM PM PM PM PM    PM PM PM PM PM PM PM PM       
  S  S  S  S  S  S  S  S  S  S  S  S     S  S  S  S  S  S  S  S  Q     
--------------------------------------|-------------------------------|
--------------------------------------|-------------------------------|
--------------------------------------|-------------------------------|
--------------------------------------|-------------------------------|
--------------------------------------|--------------------------5----|
--0--0--0--0--0--0--0--0--0--0--0--0--|--0--0--0--0--0--0--0--0--3----|
--------------------------------------|-------------------------------|


       PM PM PM PM PM PM PM PM    PM PM PM PM PM PM PM PM PM PM PM PM  
  Q    S  S  S  S  S  S  S  S     S  S  S  S  S  S  S  S  S  S  S  S   
-------------------------------|--------------------------------------|
-------------------------------|--------------------------------------|
-------------------------------|--------------------------------------|
-------------------------------|--------------------------------------|
--4----------------------------|--------------------------------------|
--2----0--0--0--0--0--0--0--0--|--0--0--0--0--0--0--0--0--0--0--0--0--|
-------------------------------|--------------------------------------|


  PM PM PM PM              PM PM PM PM PM PM PM PM PM PM PM PM  
  S  S  S  S  Q    Q       S  S  S  S  S  S  S  S  S  S  S  S   
------------------------|--------------------------------------|
------------------------|--------------------------------------|
------------------------|--------------------------------------|
------------------------|--------------------------------------|
--------------7----5----|--------------------------------------|
--0--0--0--0--5----3----|--0--0--0--0--0--0--0--0--0--0--0--0--|
------------------------|--------------------------------------|


  PM PM PM PM PM PM PM PM PM PM PM PM              PM PM PM PM  
  S  S  S  S  S  S  S  S  S  S  S  S     Q    Q    S  S  S  S   
--------------------------------------|------------------------|
--------------------------------------|------------------------|
--------------------------------------|------------------------|
--------------------------------------|------------------------|
--------------------------------------|--8----7----------------|
--0--0--0--0--0--0--0--0--0--0--0--0--|--6----5----0--0--0--0--|
--------------------------------------|------------------------|


  PM PM PM PM              PM PM PM PM PM PM PM PM       
  S  S  S  S  Q    Q       S  S  S  S  S  S  S  S  Q     
------------------------|-------------------------------|
------------------------|-------------------------------|
------------------------|-------------------------------|
------------------------|-------------------------------|
--------------7----5----|--------------------------5----|
--0--0--0--0--5----3----|--0--0--0--0--0--0--0--0--3----|
------------------------|-------------------------------|


       PM PM PM PM PM PM PM PM    PM PM PM PM PM PM PM PM PM      PM    
  Q    S  S  S  S  S  S  S  S     S  S  S  S  S  S  S  S  Q       Q     
-------------------------------|-------------------------------|-------|
-------------------------------|-------------------------------|-------|
-------------------------------|-------------------------------|-------|
-------------------------------|-------------------------------|-------|
--4----------------------------|--------------------------2----|--2----|
--2----0--0--0--0--0--0--0--0--|--0--0--0--0--0--0--0--0--0----|--0----|
-------------------------------|-------------------------------|-------|


  Q.       Q.          Q    H           Q.       Q.          Q    H         
--------------------|----------------|--------------------|----------------|
--------------------|----------------|--------------------|----------------|
--------------------|----------------|--------------------|----------------|
--------------------|----------------|--------------------|----------------|
--------------------|----------------|--------------------|----------------|
--------------------|----------------|--------------------|----------------|
--1br------1br------|--L----4--------|--1br------1br------|--L----4--------|


  Q.       Q.          Q    H           Q.       Q.          Q    H         
--------------------|----------------|--------------------|----------------|
--------------------|----------------|--------------------|----------------|
--------------------|----------------|--------------------|----------------|
--------------------|----------------|--------------------|----------------|
--------------------|----------------|--------------------|----------------|
--------------------|----------------|--------------------|----------------|
--1br------1br------|--L----4--------|--1br------1br------|--L----0--------|


  Q.       Q.          Q    H           Q.       Q.          Q    H         
--------------------|----------------|--------------------|----------------|
--------------------|----------------|--------------------|----------------|
--------------------|----------------|--------------------|----------------|
--------------------|----------------|--------------------|----------------|
--------------------|----------------|--------------------|----------------|
--------------------|----------------|--------------------|----------------|
--1br------1br------|--L----4--------|--1br------1br------|--L----4--------|


  Q.       Q.          Q    H           Q.       Q.          Q    H         
--------------------|----------------|--------------------|----------------|
--------------------|----------------|--------------------|----------------|
--------------------|----------------|--------------------|----------------|
--------------------|----------------|--------------------|----------------|
--------------------|----------------|--------------------|----------------|
--------------------|----------------|--------------------|----------------|
--1br------1br------|--L----4--------|--1br------1br------|--L----0--------|


  H.              H.              H.              H.              H.            
---------------|---------------|---------------|---------------|---------------|
---------------|---------------|---------------|---------------|---------------|
---------------|---------------|---------------|---------------|---------------|
---------------|---------------|---------------|---------------|---------------|
---------------|---------------|---------------|---------------|---------------|
---------------|---------------|---------------|---------------|---------------|
---------------|---------------|---------------|---------------|---------------|


                                                      PM PM     PM PM  
  H.              H.              H.               E  E  E   E  E  E   
---------------|---------------|---------------|----------------------|
---------------|---------------|---------------|----------------------|
---------------|---------------|---------------|----------------------|
---------------|---------------|---------------|--14--------16--------|
---------------|---------------|---------------|--12--------14--------|
---------------|---------------|---------------|------0--0------0--0--|
---------------|---------------|---------------|----------------------|


      PM     PM                 PM PM     PM PM        PM     PM           
   E  E   E  E   E    E      E  E  E   E  E  E      E  E   E  E   E    E   
-------------------------|----------------------|-------------------------|
-------------------------|----------------------|-------------------------|
-------------------------|----------------------|-------------------------|
--14-----14-----12s--14--|--14--------16--------|--14-----14-----12s--14--|
--12-----12-----10s--12--|--12--------14--------|--12-----12-----10s--12--|
------0------0-----------|------0--0------0--0--|------0------0-----------|
-------------------------|----------------------|-------------------------|


      PM PM     PM PM        PM     PM                 PM PM     PM PM  
   E  E  E   E  E  E      E  E   E  E   E    E      E  E  E   E  E  E   
----------------------|-------------------------|----------------------|
----------------------|-------------------------|----------------------|
----------------------|-------------------------|----------------------|
--14--------16--------|--14-----14-----12s--14--|--14--------16--------|
--12--------14--------|--12-----12-----10s--12--|--12--------14--------|
------0--0------0--0--|------0------0-----------|------0--0------0--0--|
----------------------|-------------------------|----------------------|


      PM     PM     PM    PM PM PM PM PM PM                              
   E  E   E  E   E  E     S  S  S  S  S  S  Q.         E  E  E  E  Q     
-----------------------|----------------------------|-------------------|
-----------------------|----------------------------|-------------------|
-----------------------|----------------------------|-------------------|
--14-----14-----12-----|----------------------------|-------------------|
--12-----12-----10-----|----------------------------|-------------------|
------0------0------0--|----------------------------|-----------2--5----|
-----------------------|--1--1--1--1--1--1--1b------|--1--1--4----------|


  PM PM PM PM PM PM                                PM PM PM PM PM PM          
  S  S  S  S  S  S  Q.         E  E  E  E  Q       S  S  S  S  S  S  Q.       
----------------------------|-------------------|----------------------------|
----------------------------|-------------------|----------------------------|
----------------------------|-------------------|----------------------------|
----------------------------|-------------------|----------------------------|
----------------------------|-------------------|----------------------------|
----------------------------|-----------2--5----|----------------------------|
--1--1--1--1--1--1--1b------|--1--1--4----------|--1--1--1--1--1--1--1b------|


                      PM PM PM PM PM PM                              
  E  E  E  E  Q       S  S  S  S  S  S  Q.         E  E  E  E  Q     
-------------------|----------------------------|-------------------|
-------------------|----------------------------|-------------------|
-------------------|----------------------------|-------------------|
-------------------|----------------------------|-------------------|
-------------------|----------------------------|-------------------|
-----------2--5----|----------------------------|-----------2--5----|
--1--1--4----------|--1--1--1--1--1--1--1b------|--1--1--4----------|


  PM PM PM PM PM PM                                PM PM PM PM PM PM          
  S  S  S  S  S  S  Q.         E  E  E  E  Q       S  S  S  S  S  S  Q.       
----------------------------|-------------------|----------------------------|
----------------------------|-------------------|----------------------------|
----------------------------|-------------------|----------------------------|
----------------------------|-------------------|----------------------------|
----------------------------|-------------------|----------------------------|
----------------------------|-----------5--8----|----------------------------|
--4--4--4--4--4--4--4b------|--4--4--7----------|--4--4--4--4--4--4--4b------|


                      PM PM PM PM PM PM                              
  E  E  E  E  Q       S  S  S  S  S  S  Q.         E  E  E  E  Q     
-------------------|----------------------------|-------------------|
-------------------|----------------------------|-------------------|
-------------------|----------------------------|-------------------|
-------------------|----------------------------|-------------------|
-------------------|----------------------------|-------------------|
-----------5--8----|----------------------------|-----------5--8----|
--4--4--7----------|--4--4--4--4--4--4--4b------|--4--4--7----------|


  PM PM PM PM PM PM                                                         
  S  S  S  S  S  S  Q.         E  E  E  E  Q       S S S S S S S S S S S S  
----------------------------|-------------------|--------------------------|
----------------------------|-------------------|--------------------------|
----------------------------|-------------------|--------------------------|
----------------------------|-------------------|--------------------------|
----------------------------|-------------------|--------------------------|
----------------------------|-----------5--8----|--------------------------|
--4--4--4--4--4--4--4b------|--4--4--7----------|--4-0-0-0-0-0-1-0-0-0-0-0-|


  S S S S S S S S S S S S    S S S S S S S S S S S S  
--------------------------|--------------------------|
--------------------------|--------------------------|
--------------------------|--------------------------|
--------------------------|--------------------------|
--------------------------|--------------------------|
--------------------------|--------------------------|
--3-0-0-0-3-0-0-0-1-1-1-1-|--4-0-0-0-0-0-1-0-0-0-0-0-|


  S S S S S S S S S S S S    S S S S S S S S S S S S  
--------------------------|--------------------------|
--------------------------|--------------------------|
--------------------------|--------------------------|
--------------------------|--------------------------|
--------------------------|--------------------------|
--------------------------|--------------------------|
--3-0-0-0-3-0-0-0-1-1-1-1-|--4-0-0-0-0-0-1-0-0-0-0-0-|


  S S S S S S S S S S S S    S S S S S S S S S S S S  
--------------------------|--------------------------|
--------------------------|--------------------------|
--------------------------|--------------------------|
--------------------------|--------------------------|
--------------------------|--------------------------|
--------------------------|--------------------------|
--3-0-0-0-3-0-0-0-1-1-1-1-|--4-0-0-0-0-0-1-0-0-0-0-0-|


  S S S S S S S S S S S S    S S S S S S S S S S S S  
--------------------------|--------------------------|
--------------------------|--------------------------|
--------------------------|--------------------------|
--------------------------|--------------------------|
--------------------------|--------------------------|
--------------------------|--------------------------|
--3-0-0-0-3-0-0-0-1-------|--4-0-0-0-0-0-1-0-0-0-0-0-|


  S S S S S S S S S S S S    S S S S S S S S S S S S  
--------------------------|--------------------------|
--------------------------|--------------------------|
--------------------------|--------------------------|
--------------------------|--------------------------|
--------------------------|--------------------------|
--------------------------|--------------------------|
--3-0-0-0-3-0-0-0-1-1-1-1-|--4-0-0-0-0-0-1-0-0-0-0-0-|


  S S S S S S S S S S S S    S S S S S S S S S S S S  
--------------------------|--------------------------|
--------------------------|--------------------------|
--------------------------|--------------------------|
--------------------------|--------------------------|
--------------------------|--------------------------|
--------------------------|--------------------------|
--3-0-0-0-3-0-0-0-1-1-1-1-|--4-0-0-0-0-0-1-0-0-0-0-0-|


  S S S S S S S S S S S S    S S S S S S S S S S S S  
--------------------------|--------------------------|
--------------------------|--------------------------|
--------------------------|--------------------------|
--------------------------|--------------------------|
--------------------------|--------------------------|
--------------------------|--------------------------|
--3-0-0-0-3-0-0-0-1-1-1-1-|--4-0-0-0-0-0-1-0-0-0-0-0-|


                                             PM PM    PM PM PM PM PM PM  
  S S S S S S S S S S S S    S S S S S S S S E  E     E  E  E  E  E  E   
--------------------------|------------------------|--------------------|
--------------------------|------------------------|--------------------|
--------------------------|------------------------|--------------------|
--------------------------|------------------------|--------------------|
--------------------------|------------------------|--------------------|
--------------------------|------------------------|--------------------|
--3-3-3-3-3-3-3-3-3-3-3-3-|--3-3-3-3-3-3-3-3-3--3--|--3--3--3--3--3--3--|


  Q.       Q.          Q    H           Q.       Q.          Q    H         
--------------------|----------------|--------------------|----------------|
--------------------|----------------|--------------------|----------------|
--------------------|----------------|--------------------|----------------|
--------------------|----------------|--------------------|----------------|
--------------------|----------------|--------------------|----------------|
--------------------|----------------|--------------------|----------------|
--1br------1br------|--L----4--------|--1br------1br------|--L----4--------|


  Q.       Q.          Q    H           Q.       Q.          Q    H         
--------------------|----------------|--------------------|----------------|
--------------------|----------------|--------------------|----------------|
--------------------|----------------|--------------------|----------------|
--------------------|----------------|--------------------|----------------|
--------------------|----------------|--------------------|----------------|
--------------------|----------------|--------------------|----------------|
--1br------1br------|--L----4--------|--1br------1br------|--L----0--------|


  Q.       Q.          Q    H           Q.       Q.          Q    H         
--------------------|----------------|--------------------|----------------|
--------------------|----------------|--------------------|----------------|
--------------------|----------------|--------------------|----------------|
--------------------|----------------|--------------------|----------------|
--------------------|----------------|--------------------|----------------|
--------------------|----------------|--------------------|----------------|
--1br------1br------|--L----4--------|--1br------1br------|--L----4--------|


  Q.       Q.          Q    H           Q.       Q.          Q    H         
--------------------|----------------|--------------------|----------------|
--------------------|----------------|--------------------|----------------|
--------------------|----------------|--------------------|----------------|
--------------------|----------------|--------------------|----------------|
--------------------|----------------|--------------------|----------------|
--------------------|----------------|--------------------|----------------|
--1br------1br------|--L----4--------|--1br------1br------|--L----0--------|


  Q.       Q.          Q    H           Q.       Q.          Q    H         
--------------------|----------------|--------------------|----------------|
--------------------|----------------|--------------------|----------------|
--------------------|----------------|--------------------|----------------|
--------------------|----------------|--------------------|----------------|
--------------------|----------------|--------------------|----------------|
--------------------|----------------|--------------------|----------------|
--1br------1br------|--L----4--------|--1br------1br------|--L----4--------|


  Q.       Q.          Q    H           Q.       Q.          Q    H         
--------------------|----------------|--------------------|----------------|
--------------------|----------------|--------------------|----------------|
--------------------|----------------|--------------------|----------------|
--------------------|----------------|--------------------|----------------|
--------------------|----------------|--------------------|----------------|
--------------------|----------------|--------------------|----------------|
--1br------1br------|--L----4--------|--1br------1br------|--L----0--------|


  Q.       Q.          Q    H           Q.       Q.          Q    H         
--------------------|----------------|--------------------|----------------|
--------------------|----------------|--------------------|----------------|
--------------------|----------------|--------------------|----------------|
--------------------|----------------|--------------------|----------------|
--------------------|----------------|--------------------|----------------|
--------------------|----------------|--------------------|----------------|
--1br------1br------|--L----4--------|--1br------1br------|--L----4--------|


  Q.       Q.          Q    H           Q.       Q.          Q    H         
--------------------|----------------|--------------------|----------------|
--------------------|----------------|--------------------|----------------|
--------------------|----------------|--------------------|----------------|
--------------------|----------------|--------------------|----------------|
--------------------|----------------|--------------------|----------------|
--------------------|----------------|--------------------|----------------|
--1br------1br------|--L----4--------|--1br------1br------|--L----0--------|


  Q.       Q.          Q    H           Q.       Q.          Q    H         
--------------------|----------------|--------------------|----------------|
--------------------|----------------|--------------------|----------------|
--------------------|----------------|--------------------|----------------|
--------------------|----------------|--------------------|----------------|
--------------------|----------------|--------------------|----------------|
--------------------|----------------|--------------------|----------------|
--1br------1br------|--L----4--------|--1br------1br------|--L----4--------|


  Q.       Q.          Q    H           Q.       Q.          Q    H         
--------------------|----------------|--------------------|----------------|
--------------------|----------------|--------------------|----------------|
--------------------|----------------|--------------------|----------------|
--------------------|----------------|--------------------|----------------|
--------------------|----------------|--------------------|----------------|
--------------------|----------------|--------------------|----------------|
--1br------1br------|--L----4--------|--1br------1br------|--L----0--------|


  Q.       Q.          Q    H           Q.       Q.          Q    H         
--------------------|----------------|--------------------|----------------|
--------------------|----------------|--------------------|----------------|
--------------------|----------------|--------------------|----------------|
--------------------|----------------|--------------------|----------------|
--------------------|----------------|--------------------|----------------|
--------------------|----------------|--------------------|----------------|
--1br------1br------|--L----4--------|--1br------1br------|--L----4--------|


                                        PM PM PM PM                        
  Q.       Q.          Q    H           E  E  E  E  Q       H.             
--------------------|----------------|-------------------|---------------||
--------------------|----------------|-------------------|---------------||
--------------------|----------------|-------------------|---------------||
--------------------|----------------|-------------------|---------------||
--------------------|----------------|-------------------|---------------||
--------------------|----------------|-------------------|---------------||
--1br------1br------|--L----4--------|--1--1--1--0-------|---------------||




Duration Legend
---------------
W - whole
H - half
Q - quarter
E - 8th
S - 16th
T - 32nd
X - 64th
. - note dotted
|-n-|  - n-tuplets


Tablature Legend
----------------
L - tied note
x - dead note
g - grace note
(n) - ghost note
> - accentuded note
NH - natural harmonic
AH - artificial harmonic
TH - tapped harmonic
SH - semi harmonic
PH - pitch harmonic
h - hammer on
p - pull off
b - bend
br - bendRelease
pb - preBend
pbr - preBendRelease
brb - bendReleaseBend
\n/ - tremolo bar dip
\n - tremolo bar dive
-/n - tremolo bar Release up
/n\ - tremolo bar inverted dip
/n - tremolo bar return
-\n - tremolo bar Release down
S - shift slide
s - legato slide
/ -  slide into from below or out of upwards
\ -  slide into from above or out of downwards
~ - vibrato
W - wide vibrato
tr - trill
TP - tremolo picking
T - tapping
S - slap
P - pop
< - fade in
^ - brush up
v - brush down
comments
We did not receive enough feedback on this tab! Please rate:
1 2 3 4 5
I want to post or [tab]
guest
You may want to rate the tab now too:
select rating
Please do not post tabs as comments. Select "correction" instead!