Oops, an error
Loading. Please wait.

My Grave Tab

ver2
ver2

Whole song

More versions @911Tabs.com
243 views 1 this week
no commentswrite comment
1 2 3 4 5
excellent!
x 1
Autoscroll
+/-
esc
set tempo
stop
Contributor
Difficulty
Tuning
intermediate
B E A D F# B
WARNING: You are trying to view
                                    content from Ultimate-Guitar.com
                                    in an unauthorized application,
                                    which is prohibited.

                                    Please use an official Ultimate
                                    Guitar Tabs application for iPhone,
                                    iPad or Android to access legitimate
                                    chords, guitar, bass, and drum tabs
                                    from Ultimate-Guitar.com database.

                                    Type "ultimate guitar tabs" in Apple
                                    App Store's or Android Market's
                                    search to find the application.

Artist: Fear Factory
Album: Transgression
Song: My Grave (Bonus Track)
Tabbed By: Samchris 
Corrected/Merged By: Thommoboy
Email: lambofgod2009@live.com.au


     Q    Q    Q    E  E     E  E  Q    Q    Q     
E||-----------------------|-----------------------|
B||-----------------------|-----------------------|
G||-----------------------|-----------------------|
D||-----------------------|-----------------------|
A||-----------------------|-----------------------|
E||--4----4----4----4--4--|--L--4--4----4----4----|
B||--2----2----2----2--2--|-----2--2----2----2----|


   Q     Q    Q    E  Q    E     Q    Q    Q       Q    Q    Q    E  E   
------------------------------|-----------------|-----------------------|
------------------------------|-----------------|-----------------------|
------------------------------|-----------------|-----------------------|
------------------------------|-----------------|-----------------------|
------------------------------|-----------------|-----------------------|
--(8)----8----8----8--8----8--|--8----8----8----|--8----8----8----8--8--|
--(6)----6----6----6--6----6--|--6----6----6----|--4----4----4----4--4--|


  E  E  Q    Q    Q       Q    Q    Q    E  E      E  E  Q    Q    Q     
-----------------------|------------------------|-----------------------|
-----------------------|------------------------|-----------------------|
-----------------------|------------------------|-----------------------|
-----------------------|------------------------|-----------------------|
-----------------------|------------------------|-----------------------|
-----8--8----8----8----|--8----8----8----8--8S--|-----6--6----6----6----|
--L--4--4----4----4----|--4----4----4----4--4---|--L--4--4----4----4----|


 S S S S E  S S S S Q    Q    S S    Q    S S S S Q    S S S S E  S S  
-----------------------------------|-----------------------------------|
-----------------------------------|-----------------------------------|
-----------------------------------|-----------------------------------|
-----------------------------------|-----------------------------------|
-----------------------------------|-----------------------------------|
----------4----------4----4--------|--4------------4------------8------|
--2-2-2-2-2--2-2-2-2-2----2----2-2-|--2----2-2-2-2-2----6-6-6-6-6--6-6-|


  S S Q    Q    S S Q    S S S S    Q    S S S S E  S S S S Q    E   
---------------------------------|----------------------------------|
---------------------------------|----------------------------------|
---------------------------------|----------------------------------|
---------------------------------|----------------------------------|
---------------------------------|----------------------------------|
------8----8--------8------------|--8------------6----------6----6--|
--6-6-6----6----6-6-6----6-6-6-6-|--6----4-4-4-4-4--4-4-4-4-4----4--|


  E  S S Q    S S S S Q    S S S S    E  S S S S Q    Q    S S Q     
-----------------------------------|--------------------------------|
-----------------------------------|--------------------------------|
-----------------------------------|--------------------------------|
-----------------------------------|--------------------------------|
-----------------------------------|--------------------------------|
--L------6------------6------------|--6----------6----6--------6----|
--L--4-4-4----4-4-4-4-4----4-4-4-4-|--4--4-4-4-4-4----4----4-4-4----|


  S S S S Q       S S S S E  S S S S Q    Q    S S  
---------------|-----------------------------------|
---------------|-----------------------------------|
---------------|-----------------------------------|
---------------|-----------------------------------|
---------------|-----------------------------------|
----------8----|----------4----------4----4--------|
--6-6-6-6-6----|--2-2-2-2-2--2-2-2-2-2----2----2-2-|


  Q    S S S S Q    S S S S E  S S    S S Q    Q    S S Q    S S S S  
-----------------------------------|---------------------------------|
-----------------------------------|---------------------------------|
-----------------------------------|---------------------------------|
-----------------------------------|---------------------------------|
-----------------------------------|---------------------------------|
--4------------4------------8------|------8----8--------8------------|
--2----2-2-2-2-2----6-6-6-6-6--6-6-|--6-6-6----6----6-6-6----6-6-6-6-|


  Q    S S S S E  S S S S Q    E     E  S S Q    S S S S S S S S S S S S  
----------------------------------|--------------------------------------|
----------------------------------|--------------------------------------|
----------------------------------|--------------------------------------|
----------------------------------|--------------------------------------|
----------------------------------|--------------------------------------|
--8------------6----------6----6--|--L------6----------------------------|
--6----4-4-4-4-4--4-4-4-4-4----4--|--L--4-4-4----4-4-4-4-4-4-4-4-4-4-4-4-|


  E  S S S S Q    Q    S S Q       S S S S S S S S  
--------------------------------|------------------|
--------------------------------|------------------|
--------------------------------|------------------|
--------------------------------|------------------|
--------------------------------|------------------|
--6----------6----6--------6----|------------------|
--4--4-4-4-4-4----4----4-4-4----|--6-6-6-6-6-6-6-6-|


                                              PM    PM     
  S S S S S S Q    E  S S S S S S E     E  E  E  E  E  E   
-------------------------------------|--------------------|
-------------------------------------|--------------------|
-------------------------------------|--------------------|
-------------------------------------|--------------------|
-------------------------------------|--------------------|
--------------4----L--------------4--|--L--L--4-----4-----|
--2-2-2-2-2-2-2----L--2-2-2-2-2-2-2--|--L--L--2-----2-----|


           PM      PM       PM         PM               PM       
   S S S S E  Q    E     E  E  S S S S E  E     S S S S E  E   3x
|---------------------|----------------------|-----------------||
|---------------------|----------------------|-----------------||
|---------------------|----------------------|-----------------||
|---------------------|----------------------|-----------------||
|---------------------|----------------------|-----------------||
|---------------------|----------------------|-----------------||
|--2-2-2-2-2-------2--|-----2--2-2-2-2-2-----|--2-2-2-2-2------||


  S S S S E  Q    E     E  E  S S S S S S E     S S S S S S E   
---------------------|-----------------------|-----------------|
---------------------|-----------------------|-----------------|
---------------------|-----------------------|-----------------|
---------------------|-----------------------|-----------------|
---------------------|-----------------------|-----------------|
---------------------|-----------------------|-----------------|
--2-2-2-2-2-------2--|-----2--3-3-2-2-2-2----|--3-3-2-2-2-2----|


             NH                                                    
   S S S S   Q    E  E     E  E  S S S S E  E     S S S S E  E   3x
|-----------------------|----------------------|-----------------||
|-----------------------|----------------------|-----------------||
|-----------------------|----------------------|-----------------||
|-----------------------|----------------------|-----------------||
|-----------------------|----------------------|-----------------||
|----------<>4----------|----------------------|-----------------||
|--2-2-2-2-----------2--|-----2--2-2-2-2-2-----|--2-2-2-2-2------||


            NH                                                    
  S S S S   Q    E  E     E  E  S S S S S S E     S S S S S S E   
-----------------------|-----------------------|-----------------|
-----------------------|-----------------------|-----------------|
-----------------------|-----------------------|-----------------|
-----------------------|-----------------------|-----------------|
-----------------------|-----------------------|-----------------|
----------<>4----------|-----------------------|-----------------|
--2-2-2-2-----------2--|-----2--3-3-2-2-2-2----|--3-3-2-2-2-2----|


   S S S S S S Q    E  S S S S    S S Q    E  S S S S Q       
|------------------------------|----------------------------||
|------------------------------|----------------------------||
|------------------------------|----------------------------||
|------------------------------|----------------------------||
|------------------------------|----------------------------||
|--------------5----L----------|------7----L----------8-----||
|--2-2-2-2-2-2-3----L--2-2-2-2-|--2-2-5----L--2-2-2-2-6-----||


          PM      PM       PM         PM               PM       
  S S S S E  Q    E     E  E  S S S S E  E     S S S S E  E   3x
---------------------|----------------------|-----------------||
---------------------|----------------------|-----------------||
---------------------|----------------------|-----------------||
---------------------|----------------------|-----------------||
---------------------|----------------------|-----------------||
---------------------|----------------------|-----------------||
--2-2-2-2-2-------2--|-----2--2-2-2-2-2-----|--2-2-2-2-2------||


  S S S S E  Q    E     E  E  S S S S S S E     S S S S S S E   
---------------------|-----------------------|-----------------|
---------------------|-----------------------|-----------------|
---------------------|-----------------------|-----------------|
---------------------|-----------------------|-----------------|
---------------------|-----------------------|-----------------|
---------------------|-----------------------|-----------------|
--2-2-2-2-2-------2--|-----2--3-3-2-2-2-2----|--3-3-2-2-2-2----|


             NH                                                    
   S S S S   Q    E  E     E  E  S S S S E  E     S S S S E  E   3x
|-----------------------|----------------------|-----------------||
|-----------------------|----------------------|-----------------||
|-----------------------|----------------------|-----------------||
|-----------------------|----------------------|-----------------||
|-----------------------|----------------------|-----------------||
|----------<>4----------|----------------------|-----------------||
|--2-2-2-2-----------2--|-----2--2-2-2-2-2-----|--2-2-2-2-2------||


            NH                                                    
  S S S S   Q    E  E     E  E  S S S S S S E     S S S S S S E   
-----------------------|-----------------------|-----------------|
-----------------------|-----------------------|-----------------|
-----------------------|-----------------------|-----------------|
-----------------------|-----------------------|-----------------|
-----------------------|-----------------------|-----------------|
----------<>4----------|-----------------------|-----------------|
--2-2-2-2-----------2--|-----2--3-3-2-2-2-2----|--3-3-2-2-2-2----|


   S S S S S S Q    E  S S S S    S S Q    E  S S S S Q     3x
|------------------------------|----------------------------||
|------------------------------|----------------------------||
|------------------------------|----------------------------||
|------------------------------|----------------------------||
|------------------------------|----------------------------||
|--------------5----L----------|------7----L----------8-----||
|--2-2-2-2-2-2-3----L--2-2-2-2-|--2-2-5----L--2-2-2-2-6-----||


  S S S S S S Q    E  S S S S    S S Q    E  S S S S Q     
------------------------------|---------------------------|
------------------------------|---------------------------|
------------------------------|---------------------------|
------------------------------|---------------------------|
------------------------------|---------------------------|
--------------5----L----------|------7----L----------8----|
--2-2-2-2-2-2-3----L--2-2-2-2-|--2-2-5----L--2-2-2-2-6----|


  S S S S E  S S S S Q    Q    S S    Q    S S S S Q    S S S S E  S S  
-----------------------------------|-----------------------------------|
-----------------------------------|-----------------------------------|
-----------------------------------|-----------------------------------|
-----------------------------------|-----------------------------------|
-----------------------------------|-----------------------------------|
----------4----------4----4--------|--4------------4------------8------|
--2-2-2-2-2--2-2-2-2-2----2----2-2-|--2----2-2-2-2-2----6-6-6-6-6--6-6-|


  S S Q    Q    S S Q    S S S S    Q    S S S S E  S S S S Q    E   
---------------------------------|----------------------------------|
---------------------------------|----------------------------------|
---------------------------------|----------------------------------|
---------------------------------|----------------------------------|
---------------------------------|----------------------------------|
------8----8--------8------------|--8------------6----------6----6--|
--6-6-6----6----6-6-6----6-6-6-6-|--6----4-4-4-4-4--4-4-4-4-4----4--|


  E  S S Q    S S S S Q    S S S S    E  S S S S Q    Q    S S Q     
-----------------------------------|--------------------------------|
-----------------------------------|--------------------------------|
-----------------------------------|--------------------------------|
-----------------------------------|--------------------------------|
-----------------------------------|--------------------------------|
--L------6------------6------------|--6----------6----6--------6----|
--L--4-4-4----4-4-4-4-4----4-4-4-4-|--4--4-4-4-4-4----4----4-4-4----|


  S S S S Q       S S S S E  S S S S Q    Q    S S  
---------------|-----------------------------------|
---------------|-----------------------------------|
---------------|-----------------------------------|
---------------|-----------------------------------|
---------------|-----------------------------------|
----------8----|----------4----------4----4--------|
--6-6-6-6-6----|--2-2-2-2-2--2-2-2-2-2----2----2-2-|


  Q    S S S S Q    S S S S E  S S    S S Q    Q    S S Q    S S S S  
-----------------------------------|---------------------------------|
-----------------------------------|---------------------------------|
-----------------------------------|---------------------------------|
-----------------------------------|---------------------------------|
-----------------------------------|---------------------------------|
--4------------4------------8------|------8----8--------8------------|
--2----2-2-2-2-2----6-6-6-6-6--6-6-|--6-6-6----6----6-6-6----6-6-6-6-|


  Q    S S S S E  S S S S Q    E     E  S S Q    S S S S S S S S S S S S  
----------------------------------|--------------------------------------|
----------------------------------|--------------------------------------|
----------------------------------|--------------------------------------|
----------------------------------|--------------------------------------|
----------------------------------|--------------------------------------|
--8------------6----------6----6--|--L------6----------------------------|
--6----4-4-4-4-4--4-4-4-4-4----4--|--L--4-4-4----4-4-4-4-4-4-4-4-4-4-4-4-|


  E  S S S S Q    Q    S S Q       S S S S S S S S  
--------------------------------|------------------|
--------------------------------|------------------|
--------------------------------|------------------|
--------------------------------|------------------|
--------------------------------|------------------|
--6----------6----6--------6----|------------------|
--4--4-4-4-4-4----4----4-4-4----|--6-6-6-6-6-6-6-6-|


                                              PM    PM                          
  S S S S S S Q    E  S S S S S S E     E  E  E  E  E  E                      3x
-------------------------------------|--------------------||-----|-----|------||
-------------------------------------|--------------------||-----|-----|------||
-------------------------------------|--------------------||-----|-----|------||
-------------------------------------|--------------------||-----|-----|------||
-------------------------------------|--------------------||-----|-----|------||
--------------4----L--------------4--|--L--L--4-----4-----||-----|-----|------||
--2-2-2-2-2-2-2----L--2-2-2-2-2-2-2--|--L--L--2-----2-----||-----|-----|------||


                                                               NH          
        E  E  S S S S S S S S    S S S S S S S S     S S S S   Q    E  E   
-----|------------------------|------------------||-----------------------|
-----|------------------------|------------------||-----------------------|
-----|------------------------|------------------||-----------------------|
-----|------------------------|------------------||-----------------------|
-----|------------------------|------------------||-----------------------|
-----|------------------------|------------------||----------<>4----------|
-----|--------3-3-2-2-2-2-2-2-|--3-3-2-2-2-2-2-2-||--2-2-2-2-----------2--|


                                                      NH          
  E  E  S S S S E  E     S S S S E  E   3x  S S S S   Q    E  E   
----------------------|-----------------||-----------------------|
----------------------|-----------------||-----------------------|
----------------------|-----------------||-----------------------|
----------------------|-----------------||-----------------------|
----------------------|-----------------||-----------------------|
----------------------|-----------------||----------<>4----------|
-----2--2-2-2-2-2-----|--2-2-2-2-2------||--2-2-2-2-----------2--|


  E  E  S S S S S S E     S S S S S S E     W                 
-----------------------|-----------------|-------------------|
-----------------------|-----------------|-------------------|
-----------------------|-----------------|-------------------|
-----------------------|-----------------|-------------------|
-----------------------|-----------------|-------------------|
-----------------------|-----------------|-------------------|
-----2--3-3-2-2-2-2----|--3-3-2-2-2-2----|-------------------|


   S S S S S S Q    E  S S S S    S S Q    E  S S S S Q     3x
|------------------------------|----------------------------||
|------------------------------|----------------------------||
|------------------------------|----------------------------||
|------------------------------|----------------------------||
|------------------------------|----------------------------||
|--------------5----L----------|------7----L----------8-----||
|--2-2-2-2-2-2-3----L--2-2-2-2-|--2-2-5----L--2-2-2-2-6-----||


  S S S S S S Q    E  S S S S    S S Q    E  S S S S Q     
------------------------------|---------------------------|
------------------------------|---------------------------|
------------------------------|---------------------------|
------------------------------|---------------------------|
------------------------------|---------------------------|
--------------5----L----------|------7----L----------8----|
--2-2-2-2-2-2-3----L--2-2-2-2-|--2-2-5----L--2-2-2-2-6----|


  S S S S E  S S S S Q    Q    S S    Q    S S S S Q    S S S S E  S S  
-----------------------------------|-----------------------------------|
-----------------------------------|-----------------------------------|
-----------------------------------|-----------------------------------|
-----------------------------------|-----------------------------------|
-----------------------------------|-----------------------------------|
----------4----------4----4--------|--4------------4------------8------|
--2-2-2-2-2--2-2-2-2-2----2----2-2-|--2----2-2-2-2-2----6-6-6-6-6--6-6-|


  S S Q    Q    S S Q    S S S S    Q    S S S S E  S S S S Q    E   
---------------------------------|----------------------------------|
---------------------------------|----------------------------------|
---------------------------------|----------------------------------|
---------------------------------|----------------------------------|
---------------------------------|----------------------------------|
------8----8--------8------------|--8------------6----------6----6--|
--6-6-6----6----6-6-6----6-6-6-6-|--6----4-4-4-4-4--4-4-4-4-4----4--|


  E  S S Q    S S S S Q    S S S S    E  S S S S Q    Q    S S Q     
-----------------------------------|--------------------------------|
-----------------------------------|--------------------------------|
-----------------------------------|--------------------------------|
-----------------------------------|--------------------------------|
-----------------------------------|--------------------------------|
--L------6------------6------------|--6----------6----6--------6----|
--L--4-4-4----4-4-4-4-4----4-4-4-4-|--4--4-4-4-4-4----4----4-4-4----|


  S S S S Q       S S S S E  S S S S Q    Q    S S  
---------------|-----------------------------------|
---------------|-----------------------------------|
---------------|-----------------------------------|
---------------|-----------------------------------|
---------------|-----------------------------------|
----------8----|----------4----------4----4--------|
--6-6-6-6-6----|--2-2-2-2-2--2-2-2-2-2----2----2-2-|


  Q    S S S S Q    S S S S E  S S    S S Q    Q    S S Q    S S S S  
-----------------------------------|---------------------------------|
-----------------------------------|---------------------------------|
-----------------------------------|---------------------------------|
-----------------------------------|---------------------------------|
-----------------------------------|---------------------------------|
--4------------4------------8------|------8----8--------8------------|
--2----2-2-2-2-2----6-6-6-6-6--6-6-|--6-6-6----6----6-6-6----6-6-6-6-|


  Q    S S S S E  S S S S Q    E     E  S S Q    S S S S S S S S S S S S  
----------------------------------|--------------------------------------|
----------------------------------|--------------------------------------|
----------------------------------|--------------------------------------|
----------------------------------|--------------------------------------|
----------------------------------|--------------------------------------|
--8------------6----------6----6--|--L------6----------------------------|
--6----4-4-4-4-4--4-4-4-4-4----4--|--L--4-4-4----4-4-4-4-4-4-4-4-4-4-4-4-|


                                                                 PM          
  E  S S S S Q    Q    S S Q       S S S S S S S S     Q    Q    E  Q    E   
--------------------------------|------------------||-----------------------|
--------------------------------|------------------||-----------------------|
--------------------------------|------------------||-----------------------|
--------------------------------|------------------||-----------------------|
--------------------------------|------------------||-----------------------|
--6----------6----6--------6----|------------------||--4----4----4--4----4--|
--4--4-4-4-4-4----4----4-4-4----|--6-6-6-6-6-6-6-6-||--2----2----2--2----2--|


     PM                             PM               PM                 
  E  E  Q    Q    Q       Q    Q    E  Q    E     E  E  Q    Q    Q     
-----------------------|-----------------------|-----------------------|
-----------------------|-----------------------|-----------------------|
-----------------------|-----------------------|-----------------------|
-----------------------|-----------------------|-----------------------|
-----------------------|-----------------------|-----------------------|
--L--4--4----4----4----|--8----8----8--8----8--|--L--8--8----8----8----|
--L--2--2----2----2----|--6----6----6--6----6--|--L--6--6----6----6----|


            PM               PM                             PM          
  Q    Q    E  Q    E     E  E  Q    Q    Q       Q    Q    E  Q    E   
-----------------------|-----------------------|-----------------------|
-----------------------|-----------------------|-----------------------|
-----------------------|-----------------------|-----------------------|
-----------------------|-----------------------|-----------------------|
-----------------------|-----------------------|-----------------------|
--8----8----8--8----8--|--L--6--6----6----6----|--8----8----8--8----8--|
--4----4----4--4----4--|--L--4--4----4----4----|--4----4----4--4----4--|


     PM           PM PM                PM                                  
  E  E  Q    Q    E  E       Q    Q    E  Q    E     E  E  Q    Q    Q     
-------------------------||-----------------------|-----------------------|
-------------------------||-----------------------|-----------------------|
-------------------------||-----------------------|-----------------------|
-------------------------||-----------------------|-----------------------|
-------------------------||-----------------------|-----------------------|
--L--6--6----6-----------||--4----4----4--4----4--|--L--4--4----4----4----|
--L--4--4----4----4--4---||--2----2----2--2----2--|--L--2--2----2----2----|


            PM                                              PM          
  Q    Q    E  Q    E     E  E  Q    Q    Q       Q    Q    E  Q    E   
-----------------------|-----------------------|-----------------------|
-----------------------|-----------------------|-----------------------|
-----------------------|-----------------------|-----------------------|
-----------------------|-----------------------|-----------------------|
-----------------------|-----------------------|-----------------------|
--8----8----8--8----8--|--L--8--8----8----8----|--8----8----8--8----8--|
--6----6----6--6----6--|--L--6--6----6----6----|--4----4----4--4----4--|


                                    PM                            PM PM    
  E  E  Q    Q    Q       Q    Q    E  Q    E     E  E  Q    Q    E  E     
-----------------------|-----------------------|-------------------------||
-----------------------|-----------------------|-------------------------||
-----------------------|-----------------------|-------------------------||
-----------------------|-----------------------|-------------------------||
-----------------------|-----------------------|-------------------------||
--L--6--6----6----6----|--8----8----8--8----8--|--L--6--6----6-----------||
--L--4--4----4----4----|--4----4----4--4----4--|--L--4--4----4----4--4---||


  W                   W                                                         
-------------------|-------------------|-------------------|-------------------|
-------------------|-------------------|-------------------|-------------------|
-------------------|-------------------|-------------------|-------------------|
-------------------|-------------------|-------------------|-------------------|
-------------------|-------------------|-------------------|-------------------|
--4----------------|--L----------------|-------------------|-------------------|
--2----------------|--L----------------|-------------------|-------------------|


-------------------|-------------------|-------------------|-------------------|
-------------------|-------------------|-------------------|-------------------|
-------------------|-------------------|-------------------|-------------------|
-------------------|-------------------|-------------------|-------------------|
-------------------|-------------------|-------------------|-------------------|
-------------------|-------------------|-------------------|-------------------|
-------------------|-------------------|-------------------|-------------------|


-------------------|-------------------|-------------------|
-------------------|-------------------|-------------------|
-------------------|-------------------|-------------------|
-------------------|-------------------|-------------------|
-------------------|-------------------|-------------------|
-------------------|-------------------|-------------------|
-------------------|-------------------|-------------------|


  S S S S E  S S S S Q    Q    S S    Q    S S S S Q    S S S S E  S S  
-----------------------------------|-----------------------------------|
-----------------------------------|-----------------------------------|
-----------------------------------|-----------------------------------|
-----------------------------------|-----------------------------------|
-----------------------------------|-----------------------------------|
----------4----------4----4--------|--4------------4------------8------|
--2-2-2-2-2--2-2-2-2-2----2----2-2-|--2----2-2-2-2-2----6-6-6-6-6--6-6-|


  S S Q    Q    S S Q    S S S S    Q    S S S S E  S S S S Q    E   
---------------------------------|----------------------------------|
---------------------------------|----------------------------------|
---------------------------------|----------------------------------|
---------------------------------|----------------------------------|
---------------------------------|----------------------------------|
------8----8--------8------------|--8------------6----------6----6--|
--6-6-6----6----6-6-6----6-6-6-6-|--6----4-4-4-4-4--4-4-4-4-4----4--|


  E  S S Q    S S S S Q    S S S S    E  S S S S Q    Q    S S Q     
-----------------------------------|--------------------------------|
-----------------------------------|--------------------------------|
-----------------------------------|--------------------------------|
-----------------------------------|--------------------------------|
-----------------------------------|--------------------------------|
--L------6------------6------------|--6----------6----6--------6----|
--L--4-4-4----4-4-4-4-4----4-4-4-4-|--4--4-4-4-4-4----4----4-4-4----|


  S S S S Q       S S S S E  S S S S Q    Q    S S  
---------------|-----------------------------------|
---------------|-----------------------------------|
---------------|-----------------------------------|
---------------|-----------------------------------|
---------------|-----------------------------------|
----------8----|----------4----------4----4--------|
--6-6-6-6-6----|--2-2-2-2-2--2-2-2-2-2----2----2-2-|


  Q    S S S S Q    S S S S E  S S    S S Q    Q    S S Q    S S S S  
-----------------------------------|---------------------------------|
-----------------------------------|---------------------------------|
-----------------------------------|---------------------------------|
-----------------------------------|---------------------------------|
-----------------------------------|---------------------------------|
--4------------4------------8------|------8----8--------8------------|
--2----2-2-2-2-2----6-6-6-6-6--6-6-|--6-6-6----6----6-6-6----6-6-6-6-|


  Q    S S S S E  S S S S Q    E     E  S S Q    S S S S Q    S S S S  
----------------------------------|-----------------------------------|
----------------------------------|-----------------------------------|
----------------------------------|-----------------------------------|
----------------------------------|-----------------------------------|
----------------------------------|-----------------------------------|
--8------------6----------6----6--|--L------6------------6------------|
--6----4-4-4-4-4--4-4-4-4-4----4--|--L--4-4-4----4-4-4-4-4----4-4-4-4-|


  E  S S S S Q    Q    S S Q       S S S S Q     
--------------------------------|---------------|
--------------------------------|---------------|
--------------------------------|---------------|
--------------------------------|---------------|
--------------------------------|---------------|
--6----------6----6--------6----|----------8----|
--4--4-4-4-4-4----4----4-4-4----|--6-6-6-6-6----|


  S S S S S S S S S S S S S S Q    S S    Q    S S S S Q    S S S S S S S S  
---------------------------------------|------------------------------------|
---------------------------------------|------------------------------------|
---------------------------------------|------------------------------------|
---------------------------------------|------------------------------------|
---------------------------------------|------------------------------------|
----------4-----------4-------4--------|--4------------4------------8-------|
--2-2-2-2-2-2-2-2-2-2-2-2-2-2-2----2-2-|--2----2-2-2-2-2----6-6-6-6-6-6-6-6-|


  S S S S S S Q    S S Q    S S S S    Q    S S S S S S S S S S S S S S E   
------------------------------------|--------------------------------------|
------------------------------------|--------------------------------------|
------------------------------------|--------------------------------------|
------------------------------------|--------------------------------------|
------------------------------------|--------------------------------------|
------8-------8--------8------------|--8------------8-----------8-------8--|
--6-6-6-6-6-6-6----6-6-6----6-6-6-6-|--6----4-4-4-4-4-4-4-4-4-4-4-4-4-4-4--|


  E  S S Q    S S S S Q    S S S S    S S S S S S S S S S Q    S S Q     
-----------------------------------|------------------------------------|
-----------------------------------|------------------------------------|
-----------------------------------|------------------------------------|
-----------------------------------|------------------------------------|
-----------------------------------|------------------------------------|
--L------6------------6------------|--8-----------8-------8--------6----|
--L--4-4-4----4-4-4-4-4----4-4-4-4-|--4-4-4-4-4-4-4-4-4-4-4----4-4-4----|


  S S S S Q       S S S S S S S S S S S S S S Q    S S  
---------------|---------------------------------------|
---------------|---------------------------------------|
---------------|---------------------------------------|
---------------|---------------------------------------|
---------------|---------------------------------------|
----------6----|----------4-----------4-------4--------|
--4-4-4-4-4----|--2-2-2-2-2-2-2-2-2-2-2-2-2-2-2----2-2-|


  Q    S S S S Q    S S S S S S S S    S S S S S S Q    S S Q    S S S S  
------------------------------------|------------------------------------|
------------------------------------|------------------------------------|
------------------------------------|------------------------------------|
------------------------------------|------------------------------------|
------------------------------------|------------------------------------|
--4------------4------------8-------|------8-------8--------8------------|
--2----2-2-2-2-2----6-6-6-6-6-6-6-6-|--6-6-6-6-6-6-6----6-6-6----6-6-6-6-|


  Q    S S S S S S S S S S S S S S E     E  S S Q    S S S S Q    S S S S  
--------------------------------------|-----------------------------------|
--------------------------------------|-----------------------------------|
--------------------------------------|-----------------------------------|
--------------------------------------|-----------------------------------|
--------------------------------------|-----------------------------------|
--8------------8-----------8-------8--|--L------6------------6------------|
--6----4-4-4-4-4-4-4-4-4-4-4-4-4-4-4--|--L--4-4-4----4-4-4-4-4----4-4-4-4-|


  S S S S S S S S S S Q    S S Q       S S S S Q     
------------------------------------|---------------|
------------------------------------|---------------|
------------------------------------|---------------|
------------------------------------|---------------|
------------------------------------|---------------|
--8-----------8-------8--------6----|----------6----|
--4-4-4-4-4-4-4-4-4-4-4----4-4-4----|--4-4-4-4-4----|


                                                      PM       
  S S S S S S Q    E  S S S S S S E     E  E  S S S S S  E.    
-------------------------------------|-----------------------||
-------------------------------------|-----------------------||
-------------------------------------|-----------------------||
-------------------------------------|-----------------------||
-------------------------------------|-----------------------||
--------------4----L--------------4--|--L--L-----------------||
--2-2-2-2-2-2-2----L--2-2-2-2-2-2-2--|--L--L--2-2-2-2-2------||
comments
We did not receive enough feedback on this tab! Please rate:
1 2 3 4 5
I want to post or [tab]
guest
You may want to rate the tab now too:
select rating
Please do not post tabs as comments. Select "correction" instead!