Oops, an error
Loading. Please wait.

Resurrection Tab

ver2
ver2

Whole song

Interactive

More versions @911Tabs.com
2,092 views 12 this week
1 commentread comment
1 2 3 4 5
excellent!
x 1
Autoscroll
+/-
esc
set tempo
stop
Contributor
Tuning
A E A D F# B
WARNING: You are trying to view
                                    content from Ultimate-Guitar.com
                                    in an unauthorized application,
                                    which is prohibited.

                                    Please use an official Ultimate
                                    Guitar Tabs application for iPhone,
                                    iPad or Android to access legitimate
                                    chords, guitar, bass, and drum tabs
                                    from Ultimate-Guitar.com database.

                                    Type "ultimate guitar tabs" in Apple
                                    App Store's or Android Market's
                                    search to find the application.
#----------------------------------PLEASE NOTE---------------------------------#
#This file is the author's own work and represents their interpretation of the #
#song. You may only use this file for private study, scholarship, or research. #
#------------------------------------------------------------------------------#

RESURRECTION
As recorded by Fear Factory
(From the 1998 Album OBSOLETE)

Transcribed by The Foreverlorn
        

Words by Burton C. Bell Music by Dino Cazares, Raymond Herrera, Christian Olde Wolbers

F/D
x 5 7 5 6 8

Gtr I (A E A D Gb B) - 'Dino I'
Gtr II (A E A D Gb B) - 'Rhys I'
Gtr III (A E A D Gb B) - 'Rhys II'
Gtr IV (A E A D Gb B) - 'Dino II'
Gtr V (A E A D Gb B) - 'Rhys III'

 Intro + Calm Verse
             N.C.
 3/4
  Gtr II
             <
  Wx5        H.        +H.        +H.
|----------|---------|----------|----------|
|----------|---------|----------|----------|
|----------|---------|----------|----------|
|----------|---------|----------|----------|
|----------|-3-------|-(3)------|-(3)------|
|----------|---------|----------|----------|


  +H.        +H.        +H.        +H.        +H.
|----------|----------|----------|----------|--------|
|----------|----------|----------|----------|--------|
|----------|----------|----------|----------|--------|
|----------|----------|----------|----------|--------|
|-(3)------|-(3)------|-(3)------|-(3)------|-(3)----|
|----------|----------|----------|----------|--------|


  C          Bbsus2/C   F5/C
   H.         H.         H.        +H.
|----------|----------|----------|--------|
|----------|----------|----------|--------|
|--5-------|--3-------|----------|--------|
|----------|----------|--3-------|-(3)----|
|-(3)------|-(3)------|-(3)------|-(3)----|
|----------|----------|----------|--------|


  C          Bbsus2/C   C
   H.         H.         H.        +H.
|----------|----------|----------|--------|
|----------|----------|----------|--------|
|--5-------|--3-------|----------|--------|
|----------|----------|--2-------|-(2)----|
|-(3)------|-(3)------|-(3)------|-(3)----|
|----------|----------|----------|--------|


  C          Bbsus2/C   F5/C
  Gtr II
   H.         H.         H.        +H.
|----------|----------|----------|--------|
|----------|----------|----------|--------|
|--5-------|--3-------|----------|--------|
|----------|----------|--3-------|-(3)----|
|-(3)------|-(3)------|-(3)------|-(3)----|
|----------|----------|----------|--------|
|
| Gtr III
|  <
|  H.        +H.        +H.        +H.
|--8-------|-(8)------|-(8)------|-(8)----|
|--8-------|-(8)------|-(8)------|-(8)----|
|----------|----------|----------|--------|
|----------|----------|----------|--------|
|----------|----------|----------|--------|
|----------|----------|----------|--------|


  C          Bbsus2/C   C
   H.         H.         H.        +H.
|----------|----------|----------|--------|
|----------|----------|----------|--------|
|--5-------|--3-------|----------|--------|
|----------|----------|--2-------|-(2)----|
|-(3)------|-(3)------|-(3)------|-(3)----|
|----------|----------|----------|--------|
|
|                        >
| +H.        +H.        +H.        +H.
|-(8)------|-(8)------|-(8)------|-(8)----|
|-(8)------|-(8)------|-(8)------|-(8)----|
|----------|----------|----------|--------|
|----------|----------|----------|--------|
|----------|----------|----------|--------|
|----------|----------|----------|--------|


  C          Bbsus2/C    F5/C
   H.          H.          H.         +H.
|--8-------|--(8)------|--(8)------|--(8)----|
|----------|-----------|-----------|---------|
|----------|-----------|-----------|---------|
|-10-------|---8-------|-----------|---------|
|----------|-----------|---8-------|--(8)----|
|-10-------|-(10)------|-(10)------|-(10)----|


  C           Bbsus2/C    C
    H.          H.          H.         +H.
|--(8)------|--(8)------|--(8)------|--(8)----|
|-----------|-----------|-----------|---------|
|-----------|-----------|-----------|---------|
|--10-------|---8-------|-----------|---------|
|-----------|-----------|---7-------|--(7)----|
|-(10)------|-(10)------|-(10)------|-(10)----|


  C           Bbsus2/C    F5/C
  Gtr II
    H.          H.          H.         +H.
|--(8)------|--(8)------|--(8)------|--(8)----|
|-----------|-----------|-----------|---------|
|-----------|-----------|-----------|---------|
|--10-------|---8-------|-----------|---------|
|-----------|-----------|---8-------|--(8)----|
|-(10)------|-(10)------|-(10)------|-(10)----|
|
| Gtr III
|   <
|   H.         +H.         +H.         +H.
|---8-------|--(8)------|--(8)------|--(8)----|
|---8-------|--(8)------|--(8)------|--(8)----|
|-----------|-----------|-----------|---------|
|-----------|-----------|-----------|---------|
|-----------|-----------|-----------|---------|
|-----------|-----------|-----------|---------|


  C           Bbsus2/C    C
  Gtrs I, IV
                            <
    H.          H.          Q   +Q   +Q      +Q   +Q   +Q
|-----------|-----------|-----------------|-----------------|
|-----------|-----------|-----------------|-----------------|
|-----------|-----------|-----------------|-----------------|
|-----------|-----------|---2---(2)--(2)--|--(2)--(2)--(2)--|
|-----------|-----------|---3---(3)--(3)--|--(3)--(3)--(3)--|
|-----------|-----------|---2---(2)--(2)--|--(2)--(2)--(2)--|
|
| Gtr II
|   H.          H.          H.               +H.
|--(8)------|--(8)------|--(8)------------|--(8)------------|
|-----------|-----------|-----------------|-----------------|
|-----------|-----------|-----------------|-----------------|
|--10-------|---8-------|-----------------|-----------------|
|-----------|-----------|---7-------------|--(7)------------|
|-(10)------|-(10)------|-(10)------------|-(10)------------|
|
| Gtr III
|  +H.         +H.         +H.               +H.
|--(8)------|--(8)------|--(8)------------|--(8)------------|
|--(8)------|--(8)------|--(8)------------|--(8)------------|
|-----------|-----------|-----------------|-----------------|
|-----------|-----------|-----------------|-----------------|
|-----------|-----------|-----------------|-----------------|
|-----------|-----------|-----------------|-----------------|


   Pre-Chorus
    C5        G5/C Bb5       F5/BbN.C.
    Gtrs I, IV
    S E E E S Q    S E E E S Q    S E E E S S E S   S E E E S S E S   4x
||---------------|--------------|-----------------|-------------------||
||o--------------|--------------|-----------------|------------------o||
||--5-5-5-5-5-7--|-3-3-3-3-3-5--|-----------------|-------------------||
||--5-5-5-5-5-5--|-3-3-3-3-3-3--|-----------------|-------------------||
||o-3-3-3-3-3-3--|-1-1-1-1-1-1--|-----------------|------------------o||
||---------------|--------------|-3-2-2-3-2-3-2-2-|-3-2-2-3-2-3-2-2---||


   Verse
    N.C.      N.C.       N.C.
    Gtrs I, IV
                         PM--------------------------------|
    H.         H.        S  E E E S S E S   S  E E E S S E S   3x
||----------|----------|------------------|--------------------||
||o---------|----------|------------------|-------------------o||
||----------|----------|------------------|--------------------||
||----------|----------|------------------|--------------------||
||o---------|----------|------------------|-------------------o||
||----------|----------|-3--2-2-3-2-3-2-2-|-3--2-2-3-2-3-2-2---||
|
|   Gtr II
|   H.         H.        H.                 H.                 3x
||--8-------|-(8)------|------------------|--------------------||
||o---------|-11-------|------------------|-------------------o||
||----------|----------|------------------|--------------------||
||----------|----------|------------------|--------------------||
||o---------|----------|------------------|-------------------o||
||----------|----------|------------------|--------------------||


  N.C.      N.C.       N.C.
                       PM----------------------------------------------|
  H.         H.        S E   E   E   S S E   S   S E   E   E   S S E   S
|---------|----------|-------------------------|-------------------------|
|---------|----------|-------------------------|-------------------------|
|---------|----------|-------------------------|-------------------------|
|---------|----------|-------------------------|-------------------------|
|---------|----------|-------------------------|-------------------------|
|---------|----------|-3-2---2---3---2-3-2---2-|-3-2---2---3---2-3-2---2-|
|
|                      <
| H.         H.        E   E   E   E   E   E     E   E   E   E   E   E
|-8-------|-(8)------|-------------------------|-------------------------|
|---------|-11-------|-6---5---6---5---6---5---|-6---5---6---5---6---5---|
|---------|----------|-5---5---5---5---5---5---|-5---5---5---5---5---5---|
|---------|----------|-------------------------|-------------------------|
|---------|----------|-------------------------|-------------------------|
|---------|----------|-------------------------|-------------------------|


   Pre-Chorus
    C5        G5/C Bb5       F5/BbN.C.
    Gtrs I, IV
    S E E E S Q    S E E E S Q    S E E E S S E S   S E E E S S E S   4x
||---------------|--------------|-----------------|-------------------||
||o--------------|--------------|-----------------|------------------o||
||--5-5-5-5-5-7--|-3-3-3-3-3-5--|-----------------|-------------------||
||--5-5-5-5-5-5--|-3-3-3-3-3-3--|-----------------|-------------------||
||o-3-3-3-3-3-3--|-1-1-1-1-1-1--|-----------------|------------------o||
||---------------|--------------|-3-2-2-3-2-3-2-2-|-3-2-2-3-2-3-2-2---||


   Chorus
    C5      D5               (F/D)
   4/4
    Gtrs I, IV
    E E  E.  E. E E E          Q    E   Q    E   E   E
||-------------------------|------------8---------------|
||o------------------------|---6-------------6----------|
||--5-5--5---7--7-7-7------|--------5------------5------|
||--5-5--5---7--7-7-7------|--(7)--(7)-(7)--(7)-(7)--7--|
||o-3-3--3---5--5-5-5------|--(5)--(5)-(5)--(5)-(5)-(5)-|
||-------------------------|----------------------------|
|
|   Gtr V
|   Q   +E.  H         +S     +W
||--8---(8)-(8)--------(8)-|--(8)-----------------------|
||o-8---(8)-10--------(10)-|-(10)-----------------------|
||-------------------------|----------------------------|
||-------------------------|----------------------------|
||o------------------------|----------------------------|
||-------------------------|----------------------------|


 1.,2.,3.
  C5        D5      Bb5
   E  E E E  E  E E  E    +E  E E E E E E E   4x
|-----------------------|---------------------||
|-----------------------|--------------------o||
|--5--5-5-5--7--7-7--3--|-(3)-3-3-3-3-3-3-3---||
|--5--5-5-5--7--7-7--3--|-(3)-3-3-3-3-3-3-3---||
|--3--3-3-3--5--5-5--1--|-(1)-1-1-1-1-1-1-1--o||
|-----------------------|---------------------||
|
|  H         Q.      E    +W                  4x
|-(8)-------(8)-----(8)-|-(8)-----------------||
|--8--------10-------6--|-(6)----------------o||
|-----------------------|---------------------||
|-----------------------|---------------------||
|-----------------------|--------------------o||
|-----------------------|---------------------||


                          Interlude
  4.
  C5        D5      Bb5                    F/A
   E  E E E  E  E E  E     +E  E E E E E E E
|-----------------------||-------------------|
|-----------------------||-------------------|
|--5--5-5-5--7--7-7--3--||-(3)-3-3-3-3-3-3-2-|
|--5--5-5-5--7--7-7--3--||-(3)-3-3-3-3-3-3-3-|
|--3--3-3-3--5--5-5--1--||-(1)-1-1-1-1-1-1-0-|
|-----------------------||-------------------|
|
|  H         Q.      E      W
|-(8)-------(8)-----(8)-||-(8)---------------|
|--8--------10-------6--||-(6)---------------|
|-----------------------||--5----------------|
|-----------------------||-------------------|
|-----------------------||-------------------|
|-----------------------||-------------------|


                  F5                  F5/G              F5Bb5
  +E  E E E E E E E   +E  E E E E E E E   +E  E E E E E E E
|-------------------|-------------------|-------------------|
|-------------------|-------------------|-------------------|
|-(2)-2-2-2-2-2-2---|-------------------|-----------------3-|
|-(3)-3-3-3-3-3-3-3-|-(3)-3-3-3-3-3-3-3-|-(3)-3-3-3-3-3-3-3-|
|-(0)-0-0-0-0-0-0-3-|-(3)-3-3-3-3-3-3-3-|-(3)-3-3-3-3-3-3-1-|
|-----------------3-|-(3)-3-3-3-3-3-3-5-|-(5)-5-5-5-5-5-3---|
|
| +W                  +W                  +W
|-(8)---------------|-(8)---------------|-(8)---------------|
|-------------------|-------------------|-------------------|
|-(5)---------------|-(5)---------------|-(5)---------------|
|-------------------|-------------------|-------------------|
|-------------------|-------------------|-------------------|
|-------------------|-------------------|-------------------|


                  F/A                 F5
  +E  E E E E E E E   +E  E E E E E E E
|-------------------|-------------------|
|-------------------|-------------------|
|-(3)-3-3-3-3-3-3-2-|-(2)-2-2-2-2-2-2---|
|-(3)-3-3-3-3-3-3-3-|-(3)-3-3-3-3-3-3-3-|
|-(1)-1-1-1-1-1-1-0-|-(0)-0-0-0-0-0-0-3-|
|-------------------|-----------------3-|
|
| +W                  +W
|-(8)---------------|-(8)---------------|
|-------------------|-------------------|
|-(5)---------------|-(5)---------------|
|-------------------|-------------------|
|-------------------|-------------------|
|-------------------|-------------------|


                  C/E                  F5Bb5
  +E  E E E E E E E   +E   E E E S S E E  E
|-------------------|-----------------------|
|-------------------|-----------------------|
|-------------------|---------------------3-|
|-(3)-3-3-3-3-3-3-2-|-(2)--2-2-2-2-2-2-3--3-|
|-(3)-3-3-3-3-3-3-3-|-(3)--3-3-3-3-3-3-3--1-|
|-(3)-3-3-3-3-3-3-2-|-(2)--2-2-2-2-2-2-3----|
|
| +W                  +H..                E
|-(8)---------------|-(8)----------------10-|
|-------------------|-----------------------|
|-(5)---------------|-(5)-----------------7-|
|-------------------|-----------------------|
|-------------------|-----------------------|
|-------------------|-----------------------|


                    F/A                    F5
   +E  E E E E E  E  E    +E  E E E E E  E  E
|----------------------|----------------------|
|----------------------|----------------------|
|--(3)-3-3-3-3-3--3--2-|--(2)-2-2-2-2-2--2----|
|--(3)-3-3-3-3-3--3--3-|--(3)-3-3-3-3-3--3--3-|
|--(1)-1-1-1-1-1--1--0-|--(0)-0-0-0-0-0--0--3-|
|----------------------|--------------------3-|
|
|  +H.            E  E    +H.            E  E
|-(10)-----------13----|----------------13-17-|
|-------------------13-|----------------------|
|--(7)-----------10----|----------------10-14-|
|-------------------10-|-(10)-----------------|
|----------------------|----------------------|
|----------------------|----------------------|


                      F5/G                 F5Bb5
   +E  E E E  E  E  E  E    +E   E E E E E E  E
|------------------------|----------------------|
|------------------------|----------------------|
|------------------------|--------------------3-|
|--(3)-3-3-3--3--3--3--3-|--(3)--3-3-3-3-3-3--3-|
|--(3)-3-3-3--3--3--3--3-|--(3)--3-3-3-3-3-3--1-|
|--(3)-3-3-3--3--3--3--5-|--(5)--5-5-5-5-5-3----|
|
|  +H         E  E  E  E    +H..              E
|-(17)-------17-15-13-15-|-(15)--------------10-|
|------------------------|----------------------|
|-(14)-------14-12-10-12-|-(12)---------------7-|
|------------------------|----------------------|
|------------------------|----------------------|
|------------------------|----------------------|


                    F/A                    F5
   +E  E E E E E  E  E    +E  E E E E E  E  E
|----------------------|----------------------|
|----------------------|----------------------|
|--(3)-3-3-3-3-3--3--2-|--(2)-2-2-2-2-2--2----|
|--(3)-3-3-3-3-3--3--3-|--(3)-3-3-3-3-3--3--3-|
|--(1)-1-1-1-1-1--1--0-|--(0)-0-0-0-0-0--0--3-|
|----------------------|--------------------3-|
|
|  +H.            E  E    +H.            E  E
|-(10)-----------13----|----------------13-17-|
|-------------------13-|-(13)-----------------|
|--(7)-----------10----|----------------10-14-|
|-------------------10-|-(10)-----------------|
|----------------------|----------------------|
|----------------------|----------------------|


                      C/E                 F5Bb5
   +E  E E E  E  E  E  E    +E  E E E E E E E
|------------------------|--------------------|
|------------------------|--------------------|
|------------------------|------------------3-|
|--(3)-3-3-3--3--3--3--2-|--(2)-2-2-2-2-2-3-3-|
|--(3)-3-3-3--3--3--3--3-|--(3)-3-3-3-3-3-3-1-|
|--(3)-3-3-3--3--3--3--2-|--(2)-2-2-2-2-2-3---|
|
|  +H         E  E  E  E    +W
|-(17)-------17-15-13-15-|-(15)---------------|
|------------------------|--------------------|
|-(14)-------14-12-10-12-|-(12)---------------|
|------------------------|--------------------|
|------------------------|--------------------|
|------------------------|--------------------|


  Gtrs I, IV
  +E  S S S S S S S S S S S S S S   S S S S S S S S S S S S S S S S
|---------------------------------|----------------------------------|
|---------------------------------|----------------------------------|
|-(3)-3-3-3-3-3-3-3-3-3-3-3-3-3-3-|-3-3-3-3-3-3-3-3-3-3-3-3-3-3-3-3--|
|-(3)-3-3-3-3-3-3-3-3-3-3-3-3-3-3-|-3-3-3-3-3-3-3-3-3-3-3-3-3-3-3-3--|
|-(1)-1-1-1-1-1-1-1-1-1-1-1-1-1-1-|-1-1-1-1-1-1-1-1-1-1-1-1-1-1-1-1--|
|---------------------------------|----------------------------------|


 Break
  C5                      C
  Gtrs I, IV
  >
  W          +W           +W           +W           +W
|----------|------------|------------|------------|--------|
|----------|------------|------------|------------|--------|
|-5--------|-(5)--------|-(5)--------|-(5)--------|-(5)----|
|-5--------|-(5)--------|-(5)--------|-(5)--------|-(5)----|
|-3--------|-(3)--------|-(3)--------|-(3)--------|-(3)----|
|----------|------------|------------|------------|--------|
|
| Gtr II
| W          +W            W           +W           +W
|-8--------|-(8)--------|-(8)--------|-(8)--------|--------|
|----------|------------|------------|------------|--------|
|----------|------------|--5---------|-(5)--------|-(5)----|
|----------|------------|------------|------------|--------|
|----------|------------|--3---------|-(3)--------|-(3)----|
|----------|------------|------------|------------|--------|


 Synth Interlude
 3/4
  Gtr II
  +H.        +H.        +H.        +H.        +H.
|----------|----------|----------|----------|--------|
|----------|----------|----------|----------|--------|
|-(5)------|-(5)------|-(5)------|-(5)------|-(5)----|
|----------|----------|----------|----------|--------|
|-(3)------|-(3)------|-(3)------|-(3)------|-(3)----|
|----------|----------|----------|----------|--------|


  C          Bbsus2/C   F5/C
   H.         H.         H.        +H.
|----------|----------|----------|--------|
|----------|----------|----------|--------|
|--5-------|--3-------|----------|--------|
|----------|----------|--3-------|-(3)----|
|-(3)------|-(3)------|-(3)------|-(3)----|
|----------|----------|----------|--------|


  C          Bbsus2/C   C
   H.         H.         H.        +H.
|----------|----------|----------|--------|
|----------|----------|----------|--------|
|--5-------|--3-------|----------|--------|
|----------|----------|--2-------|-(2)----|
|-(3)------|-(3)------|-(3)------|-(3)----|
|----------|----------|----------|--------|


  C          Bbsus2/C   F5/C
  Gtr II
   H.         H.         H.        +H.
|--8-------|--6-------|----------|--------|
|----------|----------|--6-------|-(6)----|
|--5-------|--3-------|----------|--------|
|----------|----------|--3-------|-(3)----|
|-(3)------|-(3)------|-(3)------|-(3)----|
|----------|----------|----------|--------|
|
| Gtr III
|  <
|  H.        +H.        +H.        +H.
|--8-------|-(8)------|-(8)------|-(8)----|
|--8-------|-(8)------|-(8)------|-(8)----|
|----------|----------|----------|--------|
|----------|----------|----------|--------|
|----------|----------|----------|--------|
|----------|----------|----------|--------|


  C          Bbsus2/C   C
  Gtrs I, IV
                         <
   H.         H.         Q   +Q   +Q     +Q   +Q   +Q
|----------|----------|----------------|----------------|
|----------|----------|----------------|----------------|
|----------|----------|----------------|----------------|
|----------|----------|--2---(2)--(2)--|-(2)--(2)--(2)--|
|----------|----------|--3---(3)--(3)--|-(3)--(3)--(3)--|
|----------|----------|--2---(2)--(2)--|-(2)--(2)--(2)--|
|
| Gtr II
|  H.         H.         H.              +H.
|--8-------|--6-------|----------------|----------------|
|----------|----------|--5-------------|-(5)------------|
|--5-------|--3-------|----------------|----------------|
|----------|----------|--2-------------|-(2)------------|
|-(3)------|-(3)------|-(3)------------|-(3)------------|
|----------|----------|----------------|----------------|
|
| Gtr III
| +H.        +H.        +H.              +H.
|-(8)------|-(8)------|-(8)------------|-(8)------------|
|-(8)------|-(8)------|-(8)------------|-(8)------------|
|----------|----------|----------------|----------------|
|----------|----------|----------------|----------------|
|----------|----------|----------------|----------------|
|----------|----------|----------------|----------------|


   Pre-Chorus
    C5        G5/C Bb5       F5/BbN.C.
    Gtrs I, IV
    S E E E S Q    S E E E S Q    S E E E S S E S   S E E E S S E S   4x
||---------------|--------------|-----------------|-------------------||
||o--------------|--------------|-----------------|------------------o||
||--5-5-5-5-5-7--|-3-3-3-3-3-5--|-----------------|-------------------||
||--5-5-5-5-5-5--|-3-3-3-3-3-3--|-----------------|-------------------||
||o-3-3-3-3-3-3--|-1-1-1-1-1-1--|-----------------|------------------o||
||---------------|--------------|-3-2-2-3-2-3-2-2-|-3-2-2-3-2-3-2-2---||


   Chorus
    C5      D5               (F/D)
   4/4
    Gtrs I, IV
    E E  E.  E. E E E          Q    E   Q    E   E   E
||-------------------------|------------8---------------|
||o------------------------|---6-------------6----------|
||--5-5--5---7--7-7-7------|--------5------------5------|
||--5-5--5---7--7-7-7------|--(7)--(7)-(7)--(7)-(7)--7--|
||o-3-3--3---5--5-5-5------|--(5)--(5)-(5)--(5)-(5)-(5)-|
||-------------------------|----------------------------|
|
|   Gtr V
|   Q   +E.  H         +S     +W
||--8---(8)-(8)--------(8)-|--(8)-----------------------|
||o-8---(8)-10--------(10)-|-(10)-----------------------|
||-------------------------|----------------------------|
||-------------------------|----------------------------|
||o------------------------|----------------------------|
||-------------------------|----------------------------|


 1.,2.,3.
  C5        D5      Bb5
   E  E E E  E  E E  E    +E  E E E E E E E   4x
|-----------------------|---------------------||
|-----------------------|--------------------o||
|--5--5-5-5--7--7-7--3--|-(3)-3-3-3-3-3-3-3---||
|--5--5-5-5--7--7-7--3--|-(3)-3-3-3-3-3-3-3---||
|--3--3-3-3--5--5-5--1--|-(1)-1-1-1-1-1-1-1--o||
|-----------------------|---------------------||
|
|  H         Q.      E    +W                  4x
|-(8)-------(8)-----(8)-|-(8)-----------------||
|--8--------10-------6--|-(6)----------------o||
|-----------------------|---------------------||
|-----------------------|---------------------||
|-----------------------|--------------------o||
|-----------------------|---------------------||


                          Interlude #2
  4.
  C5        D5      Bb5                FaF/Bb5             FaF/Bb5
   E  E E E  E  E E  E     +E  E E E E E E E   +E  E E E E E E E
|-----------------------||-------------------|-------------------|
|-----------------------||-------------------|-------------------|
|--5--5-5-5--7--7-7--3--||-(3)-3-3-3-3-0-2-3-|-(3)-3-3-3-3-0-2-3-|
|--5--5-5-5--7--7-7--3--||-(3)-3-3-3-3-3-3-3-|-(3)-3-3-3-3-3-3-3-|
|--3--3-3-3--5--5-5--1--||-(1)-1-1-1-1-0-0-1-|-(1)-1-1-1-1-0-0-1-|
|-----------------------||-------------------|-------------------|
|
|                    >
|  H         Q.      E     +W                   W
|-(8)-------(8)-----(8)-||-(8)---------------|-------------------|
|--8--------10-------6--||-(6)---------------|-------------------|
|-----------------------||-------------------|-------------------|
|-----------------------||-------------------|-------------------|
|-----------------------||-------------------|-------------------|
|-----------------------||-------------------|-------------------|


  +S  S S S S S S S S S S S S S S S   S S S S S S S S S S S S S S S S
|-----------------------------------|---------------------------------|
|-----------------------------------|---------------------------------|
|-(3)-3-3-3-3-3-3-3-3-3-3-3-3-3-3-3-|-3-3-3-3-3-3-3-3-3-3-3-3-3-3-3-3-|
|-(3)-3-3-3-3-3-3-3-3-3-3-3-3-3-3-3-|-3-3-3-3-3-3-3-3-3-3-3-3-3-3-3-3-|
|-(1)-1-1-1-1-1-1-1-1-1-1-1-1-1-1-1-|-1-1-1-1-1-1-1-1-1-1-1-1-1-1-1-1-|
|-----------------------------------|---------------------------------|


   Chorus
    C5      D5               (F/D)
   4/4
    Gtrs I, IV
    E E  E.  E. E E E          Q    E   Q    E   E   E
||-------------------------|------------8---------------|
||o------------------------|---6-------------6----------|
||--5-5--5---7--7-7-7------|--------5------------5------|
||--5-5--5---7--7-7-7------|--(7)--(7)-(7)--(7)-(7)--7--|
||o-3-3--3---5--5-5-5------|--(5)--(5)-(5)--(5)-(5)-(5)-|
||-------------------------|----------------------------|
|
|   Gtr V
|   Q   +E.  H         +S     +W
||--8---(8)-(8)--------(8)-|--(8)-----------------------|
||o-8---(8)-10--------(10)-|-(10)-----------------------|
||-------------------------|----------------------------|
||-------------------------|----------------------------|
||o------------------------|----------------------------|
||-------------------------|----------------------------|


 1.,2.,3.
  C5        D5      Bb5       F/BbF/BbF/BbF/A
                              PM  PM  PM  PM
   E  E E E  E  E E  E    +E  E E E E E E E   4x
|-----------------------|---------------------||
|-----------------------|--------------------o||
|--5--5-5-5--7--7-7--3--|-(3)-2-3-2-3-2-3-2---||
|--5--5-5-5--7--7-7--3--|-(3)-3-3-3-3-3-3-3---||
|--3--3-3-3--5--5-5--1--|-(1)-0-1-0-1-0-1-0--o||
|-----------------------|---------------------||
|
|  H         Q.      E    +W                  4x
|-(8)-------(8)-----(8)-|-(8)-----------------||
|--8--------10-------6--|-(6)----------------o||
|-----------------------|---------------------||
|-----------------------|---------------------||
|-----------------------|--------------------o||
|-----------------------|---------------------||


                         Interlude
  4.
  C5        D5      Bb5                     F/A
   E  E E E  E  E E  E     +E  E E E E E  E  E
|----------------------||----------------------|
|----------------------||----------------------|
|--5--5-5-5--7--7-7--3-||--(3)-3-3-3-3-3--3--2-|
|--5--5-5-5--7--7-7--3-||--(3)-3-3-3-3-3--3--3-|
|--3--3-3-3--5--5-5--1-||--(1)-1-1-1-1-1--1--0-|
|----------------------||----------------------|
|
|  H         Q.      E     +H.            E  E
|-(8)-------(8)-----10-||-(10)-----------13----|
|--8--------10---------||-------------------13-|
|--------------------7-||--(7)-----------10----|
|----------------------||-------------------10-|
|----------------------||----------------------|
|----------------------||----------------------|


                    F5                       F5/G                 F5Bb5
   +E  E E E E E  E  E    +E  E E E  E  E  E  E    +E   E E E E E E  E
|----------------------|------------------------|----------------------|
|----------------------|------------------------|----------------------|
|--(2)-2-2-2-2-2--2----|------------------------|--------------------3-|
|--(3)-3-3-3-3-3--3--3-|--(3)-3-3-3--3--3--3--3-|--(3)--3-3-3-3-3-3--3-|
|--(0)-0-0-0-0-0--0--3-|--(3)-3-3-3--3--3--3--3-|--(3)--3-3-3-3-3-3--1-|
|--------------------3-|--(3)-3-3-3--3--3--3--5-|--(5)--5-5-5-5-5-3----|
|
|  +H.            E  E    +H         E  E  E  E    +H..              E
|----------------13-17-|-(17)-------17-15-13-15-|-(15)--------------10-|
|----------------------|------------------------|----------------------|
|----------------10-14-|-(14)-------14-12-10-12-|-(12)---------------7-|
|-(10)-----------------|------------------------|----------------------|
|----------------------|------------------------|----------------------|
|----------------------|------------------------|----------------------|


                   F/A                    F5
  +E  E E E E E  E  E    +E  E E E E E  E  E
|---------------------|----------------------|
|---------------------|----------------------|
|-(3)-3-3-3-3-3--3--2-|--(2)-2-2-2-2-2--2----|
|-(3)-3-3-3-3-3--3--3-|--(3)-3-3-3-3-3--3--3-|
|-(1)-1-1-1-1-1--1--0-|--(0)-0-0-0-0-0--0--3-|
|---------------------|--------------------3-|
|
|  H.            E  E    +H.            E  E
|-10------------13----|----------------13-17-|
|------------------13-|-(13)-----------------|
|--7------------10----|----------------10-14-|
|------------------10-|-(10)-----------------|
|---------------------|----------------------|
|---------------------|----------------------|


                      C/E                 F5Bb5
   +E  E E E  E  E  E  E    +E  E E E E E E E
|------------------------|--------------------|
|------------------------|--------------------|
|------------------------|------------------3-|
|--(3)-3-3-3--3--3--3--2-|--(2)-2-2-2-2-2-3-3-|
|--(3)-3-3-3--3--3--3--3-|--(3)-3-3-3-3-3-3-1-|
|--(3)-3-3-3--3--3--3--2-|--(2)-2-2-2-2-2-3---|
|
|  +H         E  E  E  E    +W
|-(17)-------17-15-13-15-|-(15)---------------|
|------------------------|--------------------|
|-(14)-------14-12-10-12-|-(12)---------------|
|------------------------|--------------------|
|------------------------|--------------------|
|------------------------|--------------------|


                   F/A                    F5
  +E  E E E E E  E  E    +E  E E E E E  E  E
|---------------------|----------------------|
|---------------------|----------------------|
|-(3)-3-3-3-3-3--3--2-|--(2)-2-2-2-2-2--2----|
|-(3)-3-3-3-3-3--3--3-|--(3)-3-3-3-3-3--3--3-|
|-(1)-1-1-1-1-1--1--0-|--(0)-0-0-0-0-0--0--3-|
|---------------------|--------------------3-|
|
|  H.            E  E    +H.            E  E
|-10------------13----|----------------13-17-|
|------------------13-|-(13)-----------------|
|--7------------10----|----------------10-14-|
|------------------10-|-(10)-----------------|
|---------------------|----------------------|
|---------------------|----------------------|


                      C/E                    Bb5
   +E  E E E  E  E  E  E    +E   E E E E E E  E
|------------------------|----------------------|
|------------------------|----------------------|
|------------------------|--------------------3-|
|--(3)-3-3-3--3--3--3--2-|--(2)--2-2-2-2-2-2--3-|
|--(3)-3-3-3--3--3--3--3-|--(3)--3-3-3-3-3-3--1-|
|--(3)-3-3-3--3--3--3--2-|--(2)--2-2-2-2-2-2----|
|
|  +H         E  E  E  E    +H..              E
|-(17)-------17-15-13-15-|-(15)--------------10-|
|------------------------|----------------------|
|-(14)-------14-12-10-12-|-(12)---------------7-|
|------------------------|----------------------|
|------------------------|----------------------|
|------------------------|----------------------|


                    F/A                    F5                       C/E
   +E  E E E E E  E  E    +E  E E E E E  E  E    +E  E E E  E  E  E  E
|----------------------|----------------------|------------------------|
|----------------------|----------------------|------------------------|
|--(3)-3-3-3-3-3--3--2-|--(2)-2-2-2-2-2--2----|------------------------|
|--(3)-3-3-3-3-3--3--3-|--(3)-3-3-3-3-3--3--3-|--(3)-3-3-3--3--3--3--2-|
|--(1)-1-1-1-1-1--1--0-|--(0)-0-0-0-0-0--0--3-|--(3)-3-3-3--3--3--3--3-|
|----------------------|--------------------3-|--(3)-3-3-3--3--3--3--2-|
|
|  +H.            E  E    +H.            E  E    +H         E  E  E  E
|-(10)-----------13----|----------------13-17-|-(17)-------17-15-13-15-|
|-------------------13-|-(13)-----------------|------------------------|
|--(7)-----------10----|----------------10-14-|-(14)-------14-12-10-12-|
|-------------------10-|-(10)-----------------|------------------------|
|----------------------|----------------------|------------------------|
|----------------------|----------------------|------------------------|


                           F5Bb5
   +E  S S S S S S S S S S E E
|------------------------------||
|------------------------------||
|----------------------------3-||
|--(2)-2-2-2-2-2-2-2-2-2-2-3-3-||
|--(3)-3-3-3-3-3-3-3-3-3-3-3-1-||
|--(2)-2-2-2-2-2-2-2-2-2-2-3---||
|
|  +W
|-(15)-------------------------||
|------------------------------||
|-(12)-------------------------||
|------------------------------||
|------------------------------||
|------------------------------||


 Outro
             F/A            F5               F5/G
  +H..       E   +H..        E    +H..       E
|--------------|---------------|----------------|
|--------------|---------------|----------------|
|-(3)--------2-|-(2)-----------|----------------|
|-(3)--------3-|-(3)---------3-|--(3)--------3--|
|-(1)--------0-|-(0)---------3-|--(3)--------3--|
|--------------|-------------3-|--(3)--------5--|
|
|  H..       E   +H..        E    +H..       E
|--6---------5-|-(5)---------8-|--(8)--------3--|
|--------------|---------------|----------------|
|--------------|---------------|----------------|
|--8---------7-|-(7)--------10-|-(10)--------5--|
|--------------|---------------|----------------|
|--------------|---------------|----------------|


           F5   Bb5       F/A            F5               C/E
           PM
  +H.      q    H..       E   +H..        E    +H..       E
|-------------|-------------|---------------|---------------|
|-------------|-------------|---------------|---------------|
|-------------|-3---------2-|-(2)-----------|---------------|
|-(3)------3--|-3---------3-|-(3)---------3-|--(3)--------2-|
|-(3)------3--|-1---------0-|-(0)---------3-|--(3)--------3-|
|-(5)------3--|-------------|-------------3-|--(3)--------2-|
|
| +W            H..       E   +H..        E    +H..       E
|-(3)---------|-6---------5-|-(5)---------8-|--(8)--------3-|
|-------------|-------------|---------------|---------------|
|-------------|-------------|---------------|---------------|
|-(5)---------|-8---------7-|-(7)--------10-|-(10)--------5-|
|-------------|-------------|---------------|---------------|
|-------------|-------------|---------------|---------------|


                    Bb5       F/A            F5               F5/G
      PM-------|
  +E  E E E q  q    H..       E   +H..        E    +H..       E
|-----------------|-------------|---------------|---------------|
|-----------------|-------------|---------------|---------------|
|-----------------|-3---------2-|-(2)-----------|---------------|
|-(2)-2-2-2-2--2--|-3---------3-|-(3)---------3-|--(3)--------3-|
|-(3)-3-3-3-3--3--|-1---------0-|-(0)---------3-|--(3)--------3-|
|-(2)-2-2-2-2--2--|-------------|-------------3-|--(3)--------5-|
|
| +W                H..       E   +H..        E    +H..       E
|-(3)-------------|-6---------5-|-(5)---------8-|--(8)--------3-|
|-----------------|-------------|---------------|---------------|
|-----------------|-------------|---------------|---------------|
|-(5)-------------|-8---------7-|-(7)--------10-|-(10)--------5-|
|-----------------|-------------|---------------|---------------|
|-----------------|-------------|---------------|---------------|


           F5   Bb5       F/A            F5
           PM
  +H.      q    H..       E   +H..       E   +W
|-------------|-------------|--------------|--------|
|-------------|-------------|--------------|--------|
|-------------|-3---------2-|-(2)----------|--------|
|-(3)------3--|-3---------3-|-(3)--------3-|-(3)----|
|-(3)------3--|-1---------0-|-(0)--------3-|-(3)----|
|-(5)------3--|-------------|------------3-|-(3)----|
|
| +W            H..       E   +H..       E   +W
|-(3)---------|-6---------5-|-(5)--------1-|-(1)----|
|-------------|-------------|--------------|--------|
|-------------|-------------|--------------|--------|
|-(5)---------|-8---------7-|-(7)--------3-|-(3)----|
|-------------|-------------|--------------|--------|
|-------------|-------------|--------------|--------|


   >
  +W           +W           +W           +W
|------------|------------|------------|--------*|
|------------|------------|------------|--------*|
|------------|------------|------------|--------*|
|-(3)--------|-(3)--------|-(3)--------|-(3)----*|
|-(3)--------|-(3)--------|-(3)--------|-(3)----*|
|-(3)--------|-(3)--------|-(3)--------|-(3)----*|
|
|  >
| +W           +W           +W           +W
|-(1)--------|-(1)--------|-(1)--------|-(1)----*|
|------------|------------|------------|--------*|
|------------|------------|------------|--------*|
|-(3)--------|-(3)--------|-(3)--------|-(3)----*|
|------------|------------|------------|--------*|
|------------|------------|------------|--------*|



Duration Legend
---------------
W - whole; H - half; Q - quarter; E - 8th; S - 16th; T - 32nd; X - 64th; a - acciaccatura
+ - note tied to previous; . - note dotted; .. - note double dotted
Uncapitalized letters represent notes that are staccato (1/2 duration)
Irregular groupings are notated above the duration line
Duration letters will always appear directly above the note/fret number it represents the
duration for.  Duration letters with no fret number below them represent rests.  Multi-
bar rests are notated in the form Wxn, where n is the number of bars to rest for.  Low
melody durations appear below the staff

Tablature Legend
----------------
 h   - hammer-on
 p   - pull-off
 b   - bend
 pb  - pre-bend
 r   - bend release (if no number after the r, then release immediately)
 /\  - slide into or out of (from/to "nowhere")
 s   - legato slide
 S   - shift slide
<n> - natural harmonic
[n]  - artificial harmonic
n(n) - tapped harmonic
 ~   - vibrato
 tr  - trill
 T   - tap
 TP  - trem. picking
 PM  - palm muting
\n/  - tremolo bar dip; n = amount to dip
 \n  - tremolo bar down
 n/  - tremolo bar up
/n\  - tremolo bar inverted dip
 =   - hold bend; also acts as connecting device for hammers/pulls
 <> - volume swell (louder/softer)
 x   - on rhythm slash represents muted slash
 o   - on rhythm slash represents single note slash

Misc Legend
-----------
 |  - bar
||  - double bar
||o - repeat start
o|| - repeat end
*|  - double bar (ending)
 :  - bar (freetime)
 $  - Segno
 &  - Coda
Tempo markers - <E/E./Q/Q./H/H.> = BPM(8/16=s8/s16), where s8 = swing 8ths, s16 = swing 16ths

comments
We did not receive enough feedback on this tab! Please rate:
print report bad tab
1 2 3 4 5
1 comment total.
0 reply
peter.buzasi.7 wrote on October 17 2013, 04:14 am

Nope!
It's in standard A, 7 string.

I want to post or [tab]
guest
You may want to rate the tab now too:
select rating
Please do not post tabs as comments. Select "correction" instead!