Oops, an error
Loading. Please wait.

Shock Tab

ver2
ver2

Whole song

Interactive

More versions @911Tabs.com
2,098 views 1 this week
no commentswrite comment
1 2 3 4 5
accurate
x 2
Autoscroll
+/-
esc
set tempo
stop
Contributor
Hey! There's an official Ultimate Guitar app which is ideal
for learning songs when you're away from computer. Get the app
WARNING: You are trying to view
                                    content from Ultimate-Guitar.com
                                    in an unauthorized application,
                                    which is prohibited.

                                    Please use an official Ultimate
                                    Guitar Tabs application for iPhone,
                                    iPad or Android to access legitimate
                                    chords, guitar, bass, and drum tabs
                                    from Ultimate-Guitar.com database.

                                    Type "ultimate guitar tabs" in Apple
                                    App Store's or Android Market's
                                    search to find the application.
#----------------------------------PLEASE NOTE---------------------------------#
#This file is the author's own work and represents their interpretation of the #
#song. You may only use this file for private study, scholarship, or research. #
#------------------------------------------------------------------------------#

SHOCK
As recorded by Fear Factory
(From the 1998 Album OBSULETE)

Transcribed by pfiell
        

Words and Music by Dino Cazares, Raymond Herrera and Chrsitian Olde Wolber

Gtr I (A D G C F A D) - 'Gtr.1 W/Distortion'
Gtr II (A D G C F A D) - 'Gtr. 2 W/Distortion'

 Intro
  Q=178
 4/4
                Gtr I
                PM--------------|     PM------------------|   PM--------|
  Wx7           E E E S S E E E E   E S S E E E E E E   E E E S S E E E E
|------------||-------------------|-------------------|--------------------|
|------------||-------------------|-------------------|--------------------|
|------------||-------------------|-------------------|--------------------|
|------------||-------------------|-------------------|--------------------|
|------------||-------------------|-------------------|--------------------|
|------------||-------------------|-------------------|--------------------|
|------------||-3-2---2-2-2-2-3-2-|---2-2-2-2-3-2-3-2-|-3-2---2-2-2-2-3-2--|


    PM------------------------------------|     PM------------|
  E S S E E S S E S S E   E E E S S E E E E   E S S E E E E E E
|-----------------------|-------------------|-------------------|
|-----------------------|-------------------|-------------------|
|-----------------------|-------------------|-------------------|
|-----------------------|-------------------|-------------------|
|-----------------------|-------------------|-------------------|
|-----------------------|-------------------|-------------------|
|---2-2-2-2-3-3-3-3-3-3-|-3-2---2-2-2-2-3-2-|---2-2-2-2-3-2-3-2-|


  PM|   PM--------|     PM--------------------|
  E E E S S E E E E   E S S E E S S S S S S S S
|-------------------|---------------------------|
|-------------------|---------------------------|
|-------------------|---------------------------|
|-------------------|---------------------------|
|-------------------|---------------------------|
|-------------------|---------------------------|
|-3-2---2-2-2-2-3-2-|---2-2-2-2-3-3-3-3-3-3-3-3-|


  PM--------------|     PM---------------
  E E E S S E E E E   E S S E E E E E E
|-------------------|-------------------|
|-------------------|-------------------|
|-------------------|-------------------|
|-------------------|-------------------|
|-------------------|-------------------|
|-------------------|-------------------|
|-3-2---2-2-2-2-3-2-|---2-2-2-2-3-2-3-2-|


 ---|   PM--------|     PM----------------|
  E E E S S E E E E   E S S E E S S E S S E
|-------------------|-------------------------|
|-------------------|-------------------------|
|-------------------|-------------------------|
|-------------------|-------------------------|
|-------------------|-------------------------|
|-------------------|-------------------------|
|-3-2---2-2-2-2-3-2-|---2-2-2-2-3-3-3-3-3-3---|


  PM--------------|     PM---------------
  E E E S S E E E E   E S S E E E E E E
|-------------------|-------------------|
|-------------------|-------------------|
|-------------------|-------------------|
|-------------------|-------------------|
|-------------------|-------------------|
|-------------------|-------------------|
|-3-2---2-2-2-2-3-2-|---2-2-2-2-3-2-3-2-|


 ---|   PM--------|     PM------|
  E E E S S E E E E   E S S E E q  Q
|-------------------|------------------||
|-------------------|------------------||
|-------------------|------------------||
|-------------------|------------------||
|-------------------|------------------||
|-------------------|------------------||
|-3-2---2-2-2-2-3-2-|---2-2-2-2-3------||


  D5C#5         D5C#5           D5C#D5C#5
  E E E S S E E E E   E S S E E E E E E
|-------------------|-------------------|
|-------------------|-------------------|
|-------------------|-------------------|
|-------------------|-------------------|
|-------------------|-------------------|
|-5-4---4-4-4-4-5-4-|---4-4-4-4-5-4-5-4-|
|-3-2---2-2-2-2-3-2-|---2-2-2-2-3-2-3-2-|


  D5C#5         D5              D5C#D5C#5
  E E E S S E E E E   E S S E E E E E E
|-------------------|--------------------|
|-------------------|--------------------|
|-------------------|--------------------|
|-------------------|--------------------|
|-------------------|--------------------|
|-5-4---4-4-4-4-5-4-|---4-4-4-4-5-4-5-4--|
|-3-2---2-2-2-2-3-2-|---2-2-2-2-3-2-3-2--|


  D5C#5         D5C#5           D5C#D5C#5
  E E E S S E E E E   E S S E E E E E E
|-------------------|-------------------|
|-------------------|-------------------|
|-------------------|-------------------|
|-------------------|-------------------|
|-------------------|-------------------|
|-5-4---4-4-4-4-5-4-|---4-4-4-4-5-4-5-4-|
|-3-2---2-2-2-2-3-2-|---2-2-2-2-3-2-3-2-|


  E5D#5         E5D#5     E5
  E E E S S E E E E   E E S S E S S E E  E
|-------------------|-----------------------|
|-------------------|-----------------------|
|-------------------|-----------------------|
|-------------------|-----------------------|
|-------------------|-----------------------|
|-7-6---6-6-6-6-7-6-|-----7-7-7-7-7-7-7-----|
|-5-4---4-4-4-4-5-4-|---4-5-5-5-5-5-5-5s14\-|


  D5C#5         D5C#5           D5C#D5C#5
  E E E S S E E E E   E S S E E E E E E
|-------------------|-------------------|
|-------------------|-------------------|
|-------------------|-------------------|
|-------------------|-------------------|
|-------------------|-------------------|
|-5-4---4-4-4-4-5-4-|---4-4-4-4-5-4-5-4-|
|-3-2---2-2-2-2-3-2-|---2-2-2-2-3-2-3-2-|


  D5C#5         D5C#5           D5C#D5C#5
  E E E S S E E E E   E S S E E E E E E
|-------------------|--------------------|
|-------------------|--------------------|
|-------------------|--------------------|
|-------------------|--------------------|
|-------------------|--------------------|
|-5-4---4-4-4-4-5-4-|---4-4-4-4-5-4-5-4--|
|-3-2---2-2-2-2-3-2-|---2-2-2-2-3-2-3-2--|


  D5C#5         D5C#5           D5C#D5C#5 D5C#5         D5C#5           D5
  E E E S S E E E E   E S S E E E E E E   E E E S S E E E E   E S S E E q  Q
|-------------------|-------------------|-------------------|------------------|
|-------------------|-------------------|-------------------|------------------|
|-------------------|-------------------|-------------------|------------------|
|-------------------|-------------------|-------------------|------------------|
|-------------------|-------------------|-------------------|------------------|
|-5-4---4-4-4-4-5-4-|---4-4-4-4-5-4-5-4-|-5-4---4-4-4-4-5-4-|---4-4-4-4-5------|
|-3-2---2-2-2-2-3-2-|---2-2-2-2-3-2-3-2-|-3-2---2-2-2-2-3-2-|---2-2-2-2-3------|


   Verse
    PM--------------|     PM---------------
    E E E S S E E E E   E S S E E E E E E
||--------------------|-------------------|
||--------------------|-------------------|
||o-------------------|-------------------|
||--------------------|-------------------|
||o-------------------|-------------------|
||--------------------|-------------------|
||--3-2---2-2-2-2-3-2-|---2-2-2-2-3-2-3-2-|


 ---|   PM--------|     PM------------|
  E E E S S E E E E   E S S E E E E E E
|-------------------|-------------------|
|-------------------|-------------------|
|-------------------|-------------------|
|-------------------|-------------------|
|-------------------|-------------------|
|-------------------|-------------------|
|-3-2---2-2-2-2-3-2-|---2-2-2-2-3-2-3-2-|


  PM--------------|     PM------------|
  E E E S S E E E E   E S S E E E E E E
|-------------------|-------------------|
|-------------------|-------------------|
|-------------------|-------------------|
|-------------------|-------------------|
|-------------------|-------------------|
|-------------------|-------------------|
|-3-2---2-2-2-2-3-2-|---2-2-2-2-3-2-3-2-|


                     1.
          PM  PM--|     PM----------------|
  E E E S S E E E E   E E S S E S S E S S E
|-------------------|--------------------------||
|-------------------|--------------------------||
|-------------------|-------------------------o||
|-------------------|--------------------------||
|-------------------|-------------------------o||
|-------------------|--------------------------||
|-5-4---4-4-4-4-5-4-|---4-5-5-4-5-5-4-5-5-4----||


                    Pre-Chorus
  2.
                     C#5   D5    E5
                       PM|   PM|   PM-
  E S S E E q  Q     E E E E E E E E
|-----------------||-----------------|
|-----------------||-----------------|
|-----------------||-----------------|
|-----------------||-----------------|
|-----------------||-----------------|
|-----------------||-4-----5-----7---|
|---4-4-4-4-5-----||-2-0-0-3-0-0-5-0-|


    C#5             B5                Bb5
 -|   PM------|
  E E E E E E E E   E E E E E E E E   E E E E E E E E
|-----------------|-----------------|------------------|
|-----------------|-----------------|------------------|
|-----------------|-4-4-4-4-4-4-4-4-|-3-3-3-3-3-3-3-3--|
|-----------------|-4-4-4-4-4-4-4-4-|-3-3-3-3-3-3-3-3--|
|-----------------|-2-2-2-2-2-2-2-2-|-1-1-1-1-1-1-1-1--|
|---4-------------|-----------------|------------------|
|-0-2-0-3-2-3-2-0-|-----------------|------------------|


  C#5   D5    E5      C#5             A5                F#5
    PM|   PM|   PM--|   PM------|
  E E E E E E E E   E E E E E E E E   E E E E E E E E   E E E E E E E E
|-----------------|-----------------|-----------------|------------------|
|-----------------|-----------------|-----------------|------------------|
|-----------------|-----------------|-----------------|------------------|
|-----------------|-----------------|-7-7-7-7-7-7-7-7-|-4-4-4-4-4-4-4-4--|
|-----------------|-----------------|-7-7-7-7-7-7-7-7-|-4-4-4-4-4-4-4-4--|
|-4-----5-----7---|---4-------------|-5-5-5-5-5-5-5-5-|-2-2-2-2-2-2-2-2--|
|-2-0-0-3-0-0-5-0-|-0-2-0-3-2-3-2-0-|-----------------|------------------|


  C#5   D5    E5      C#5             B5                Bb5
    PM|   PM|   PM--|   PM------|
  E E E E E E E E   E E E E E E E E   E E E E E E E E   E E E E E E E E
|-----------------|-----------------|-----------------|------------------|
|-----------------|-----------------|-----------------|------------------|
|-----------------|-----------------|-4-4-4-4-4-4-4-4-|-3-3-3-3-3-3-3-3--|
|-----------------|-----------------|-4-4-4-4-4-4-4-4-|-3-3-3-3-3-3-3-3--|
|-----------------|-----------------|-2-2-2-2-2-2-2-2-|-1-1-1-1-1-1-1-1--|
|-4-----5-----7---|---4-------------|-----------------|------------------|
|-2-0-0-3-0-0-5-0-|-0-2-0-3-2-3-2-0-|-----------------|------------------|


  C#5   D5    E5      C#5
    PM|   PM|   PM--|   PM------|
  E E E E E E E E   E E E E E E E E
|-----------------|-----------------|
|-----------------|-----------------|
|-----------------|-----------------|
|-----------------|-----------------|
|-----------------|-----------------|
|-4-----5-----7---|---4-------------|
|-2-0-0-3-0-0-5-0-|-0-2-0-3-2-3-2-0-|


  A5
    PM--------------------------------------------|
  E E E E E E E E   S S S S S S S S S S S S S S S S
|-----------------|---------------------------------|
|-----------------|---------------------------------|
|-----------------|---------------------------------|
|-----------------|---------------------------------|
|-7-7-7-7-7-7-7-7-|-4-4-4-4-4-4-4-4-4-4-4-4-4-4-4-4-|
|-5-5-5-5-5-5-5-5-|---------------------------------|
|-----------------|---------------------------------|


   Chorus
    B5                Bb5               A5                G#5
    E E E E E E E E   E E E E E E E E   E E E E E E E E   E E E E E E E E
||------------------|-----------------|-----------------|-----------------|
||------------------|-----------------|-----------------|-----------------|
||o-4-4-4-4-4-4-4-4-|-3-3-3-3-3-3-3-3-|-2-2-2-2-2-2-2-2-|-----------------|
||--4-4-4-4-4-4-4-4-|-3-3-3-3-3-3-3-3-|-2-2-2-2-2-2-2-2-|-6-6-6-6-6-6-6-6-|
||o-2-2-2-2-2-2-2-2-|-1-1-1-1-1-1-1-1-|-0-0-0-0-0-0-0-0-|-6-6-6-6-6-6-6-6-|
||------------------|-----------------|-----------------|-4-4-4-4-4-4-4-4-|
||------------------|-----------------|-----------------|-----------------|


  B5                C#5               A5                A5    G#5   F#5
                                                          PM|   PM|
  E E E E E E E E   E E E E E E E E   E E E E E E E E   E E E E E E q
|-----------------|-----------------|-----------------|------------------||
|-----------------|-----------------|-----------------|------------------||
|-4-4-4-4-4-4-4-4-|-6-6-6-6-6-6-6-6-|-----------------|-----------------o||
|-4-4-4-4-4-4-4-4-|-6-6-6-6-6-6-6-6-|-7-7-7-7-7-7-7-7-|------------------||
|-2-2-2-2-2-2-2-2-|-4-4-4-4-4-4-4-4-|-7-7-7-7-7-7-7-7-|-7-----6-----4---o||
|-----------------|-----------------|-5-5-5-5-5-5-5-5-|-5-5-5-4-4-4-2----||
|-----------------|-----------------|-----------------|------------------||


  E5    D#5   C#5   A5    G#5   F#5   E5    D#5   C#5
    PM|   PM|   PM    PM|   PM|   PM    PM|   PM|   PM
  E E E E E E E E   E E E E E E E E   E E E E E E E E
|-----------------|-----------------|-----------------|
|-----------------|-----------------|-----------------|
|-----------------|-----------------|-----------------|
|-----------------|-----------------|-----------------|
|-----------------|-7-----6-----4---|-----------------|
|-7-----6-----4---|-5-5-5-4-4-4-2---|-7-----6-----4---|
|-5-5-5-4-4-4-2-2-|---------------0-|-5-5-5-4-4-4-2-2-|


   Verse
    PM--------------|     PM---------------
    E E E S S E E E E   E S S E E E E E E
||--------------------|-------------------|
||--------------------|-------------------|
||o-------------------|-------------------|
||--------------------|-------------------|
||o-------------------|-------------------|
||--------------------|-------------------|
||--3-2---2-2-2-2-3-2-|---2-2-2-2-3-2-3-2-|


 ---|   PM--------|     PM--------------------|
  E E E S S E E E E   E S S E E S S S S S S S S
|-------------------|------------------------------||
|-------------------|------------------------------||
|-------------------|-----------------------------o||
|-------------------|------------------------------||
|-------------------|-----------------------------o||
|-------------------|------------------------------||
|-3-2---2-2-2-2-3-2-|---2-2-2-2-3-3-3-3-3-3-3-3----||


    D5C#5         D5C#5           D5C#D5C#5
    E E E S S E E E E   E S S E E E E E E  3x
||--------------------|--------------------||
||--------------------|--------------------||
||o-------------------|-------------------o||
||--------------------|--------------------||
||o-------------------|-------------------o||
||--5-4---4-4-4-4-5-4-|---4-4-4-4-5-4-5-4--||
||--3-2---2-2-2-2-3-2-|---2-2-2-2-3-2-3-2--||


  D5C#5         D5C#5         C#D5
  E E E S S E E E E   E S S E E q  Q
|-------------------|-----------------|
|-------------------|-----------------|
|-------------------|-----------------|
|-------------------|-----------------|
|-------------------|-----------------|
|-5-4---4-4-4-4-5-4-|---4-4-4-4-5-----|
|-3-2---2-2-2-2-3-2-|---2-2-2-2-3-----|


    PM--------------|     PM---------------
    E E E S S E E E E   E S S E E E E E E
||--------------------|-------------------|
||--------------------|-------------------|
||o-------------------|-------------------|
||--------------------|-------------------|
||o-------------------|-------------------|
||--------------------|-------------------|
||--3-2---2-2-2-2-3-2-|---2-2-2-2-3-2-3-2-|


 ---|   PM--------|     PM------------|
  E E E S S E E E E   E S S E E E E E E
|-------------------|-------------------|
|-------------------|-------------------|
|-------------------|-------------------|
|-------------------|-------------------|
|-------------------|-------------------|
|-------------------|-------------------|
|-3-2---2-2-2-2-3-2-|---2-2-2-2-3-2-3-2-|


  PM--------------|     PM------------|
  E E E S S E E E E   E S S E E E E E E
|-------------------|-------------------|
|-------------------|-------------------|
|-------------------|-------------------|
|-------------------|-------------------|
|-------------------|-------------------|
|-------------------|-------------------|
|-3-2---2-2-2-2-3-2-|---2-2-2-2-3-2-3-2-|


          PM  PM--|     PM----------------|
  E E E S S E E E E   E E S S E S S E S S E
|-------------------|--------------------------||
|-------------------|--------------------------||
|-------------------|-------------------------o||
|-------------------|--------------------------||
|-------------------|-------------------------o||
|-------------------|--------------------------||
|-5-4---4-4-4-4-5-4-|---4-5-5-4-5-5-4-5-5-4----||


 Pre-Chorus
  C#5   D5    E5      C#5             B5                Bb5
    PM|   PM|   PM--|   PM------|
  E E E E E E E E   E E E E E E E E   E E E E E E E E   E E E E E E E E
|-----------------|-----------------|-----------------|------------------|
|-----------------|-----------------|-----------------|------------------|
|-----------------|-----------------|-4-4-4-4-4-4-4-4-|-3-3-3-3-3-3-3-3--|
|-----------------|-----------------|-4-4-4-4-4-4-4-4-|-3-3-3-3-3-3-3-3--|
|-----------------|-----------------|-2-2-2-2-2-2-2-2-|-1-1-1-1-1-1-1-1--|
|-4-----5-----7---|---4-------------|-----------------|------------------|
|-2-0-0-3-0-0-5-0-|-0-2-0-3-2-3-2-0-|-----------------|------------------|


  C#5   D5    E5      C#5             A5                F#5
    PM|   PM|   PM--|   PM------|
  E E E E E E E E   E E E E E E E E   E E E E E E E E   E E E E E E E E
|-----------------|-----------------|-----------------|------------------|
|-----------------|-----------------|-----------------|------------------|
|-----------------|-----------------|-----------------|------------------|
|-----------------|-----------------|-7-7-7-7-7-7-7-7-|-4-4-4-4-4-4-4-4--|
|-----------------|-----------------|-7-7-7-7-7-7-7-7-|-4-4-4-4-4-4-4-4--|
|-4-----5-----7---|---4-------------|-5-5-5-5-5-5-5-5-|-2-2-2-2-2-2-2-2--|
|-2-0-0-3-0-0-5-0-|-0-2-0-3-2-3-2-0-|-----------------|------------------|


  C#5   D5    E5      C#5             B5                Bb5
    PM|   PM|   PM--|   PM------|
  E E E E E E E E   E E E E E E E E   E E E E E E E E   E E E E E E E E
|-----------------|-----------------|-----------------|------------------|
|-----------------|-----------------|-----------------|------------------|
|-----------------|-----------------|-4-4-4-4-4-4-4-4-|-3-3-3-3-3-3-3-3--|
|-----------------|-----------------|-4-4-4-4-4-4-4-4-|-3-3-3-3-3-3-3-3--|
|-----------------|-----------------|-2-2-2-2-2-2-2-2-|-1-1-1-1-1-1-1-1--|
|-4-----5-----7---|---4-------------|-----------------|------------------|
|-2-0-0-3-0-0-5-0-|-0-2-0-3-2-3-2-0-|-----------------|------------------|


  C#5   D5    E5      C#5
    PM|   PM|   PM--|   PM------|
  E E E E E E E E   E E E E E E E E
|-----------------|-----------------|
|-----------------|-----------------|
|-----------------|-----------------|
|-----------------|-----------------|
|-----------------|-----------------|
|-4-----5-----7---|---4-------------|
|-2-0-0-3-0-0-5-0-|-0-2-0-3-2-3-2-0-|


  A5
    PM--------------------------------------------|
  E E E E E E E E   S S S S S S S S S S S S S S S S
|-----------------|---------------------------------|
|-----------------|---------------------------------|
|-----------------|---------------------------------|
|-----------------|---------------------------------|
|-7-7-7-7-7-7-7-7-|-4-4-4-4-4-4-4-4-4-4-4-4-4-4-4-4-|
|-5-5-5-5-5-5-5-5-|---------------------------------|
|-----------------|---------------------------------|


   Chorus
    B5                Bb5               A5                G#5
    E E E E E E E E   E E E E E E E E   E E E E E E E E   E E E E E E E E
||------------------|-----------------|-----------------|-----------------|
||------------------|-----------------|-----------------|-----------------|
||o-4-4-4-4-4-4-4-4-|-3-3-3-3-3-3-3-3-|-2-2-2-2-2-2-2-2-|-----------------|
||--4-4-4-4-4-4-4-4-|-3-3-3-3-3-3-3-3-|-2-2-2-2-2-2-2-2-|-6-6-6-6-6-6-6-6-|
||o-2-2-2-2-2-2-2-2-|-1-1-1-1-1-1-1-1-|-0-0-0-0-0-0-0-0-|-6-6-6-6-6-6-6-6-|
||------------------|-----------------|-----------------|-4-4-4-4-4-4-4-4-|
||------------------|-----------------|-----------------|-----------------|


  B5                C#5               A5                A5    G#5   F#5
                                                          PM|   PM|
  E E E E E E E E   E E E E E E E E   E E E E E E E E   E E E E E E q    4x
|-----------------|-----------------|-----------------|------------------||
|-----------------|-----------------|-----------------|------------------||
|-4-4-4-4-4-4-4-4-|-6-6-6-6-6-6-6-6-|-----------------|-----------------o||
|-4-4-4-4-4-4-4-4-|-6-6-6-6-6-6-6-6-|-7-7-7-7-7-7-7-7-|------------------||
|-2-2-2-2-2-2-2-2-|-4-4-4-4-4-4-4-4-|-7-7-7-7-7-7-7-7-|-7-----6-----4---o||
|-----------------|-----------------|-5-5-5-5-5-5-5-5-|-5-5-5-4-4-4-2----||
|-----------------|-----------------|-----------------|------------------||


                     Out-Chorus
  E5    D#5   C#5     B5                C#5
    PM|   PM|   PM
  E E E E E E E E     E E E E E E E E   E E E E E E E E
|-----------------||------------------|-----------------|
|-----------------||------------------|-----------------|
|-----------------||o-----------------|-----------------|
|-----------------||------------------|-----------------|
|-----------------||o-2-2-2-2-2-2-2-2-|-4-4-4-4-4-4-4-4-|
|-7-----6-----4---||--2-2-2-2-2-2-2-2-|-4-4-4-4-4-4-4-4-|
|-5-5-5-4-4-4-2-2-||--0-0-0-0-0-0-0-0-|-2-2-2-2-2-2-2-2-|


  E5/B              E5
                                ~~~~~~
  E E E E E E E E   E E E E E E E E      3x
|-----------------|----------------------||
|-----------------|----------------------||
|-----------------|---------------------o||
|-----------------|----------------------||
|-7-7-7-7-7-7-7-7-|---------------------o||
|-7-7-7-7-7-7-7-7-|-7-7-7-7-7------------||
|-----------------|-5-5-5-5-5-5-4-4b5----||


  B5                C#5               E5/B              E5  D#5E5 D#5
  E E E E E E E E   E E E E E E E E   E E E E E E E E   E E Q  Q  Q
|-----------------|-----------------|-----------------|---------------|
|-----------------|-----------------|-----------------|---------------|
|-----------------|-----------------|-----------------|---------------|
|-----------------|-----------------|-----------------|---------------|
|-2-2-2-2-2-2-2-2-|-4-4-4-4-4-4-4-4-|-7-7-7-7-7-7-7-7-|---------------|
|-2-2-2-2-2-2-2-2-|-4-4-4-4-4-4-4-4-|-7-7-7-7-7-7-7-7-|-7-7-6--7--6---|
|-0-0-0-0-0-0-0-0-|-2-2-2-2-2-2-2-2-|-----------------|-5-5-4--5--4---|


    B5                C#5               E5/B              E5
                                                                      ~~~~~~
    E E E E E E E E   E E E E E E E E   E E E E E E E E   E E E E E E E E    3x
||------------------|-----------------|-----------------|--------------------||
||------------------|-----------------|-----------------|--------------------||
||o-----------------|-----------------|-----------------|-------------------o||
||------------------|-----------------|-----------------|--------------------||
||o-2-2-2-2-2-2-2-2-|-4-4-4-4-4-4-4-4-|-7-7-7-7-7-7-7-7-|-------------------o||
||--2-2-2-2-2-2-2-2-|-4-4-4-4-4-4-4-4-|-7-7-7-7-7-7-7-7-|-7-7-7-7-7----------||
||--0-0-0-0-0-0-0-0-|-2-2-2-2-2-2-2-2-|-----------------|-5-5-5-5-5-5-4-4b5--||


  A5    G#5   F#5   E5    D#5   C#5   A5    G#5   F#5   E5    D#5   C#5
    PM|   PM|   PM    PM|   PM|   PM    PM|   PM|   PM    PM|   PM|   PM
  E E E E E E E E   E E E E E E E E   E E E E E E E E   E E E E E E E E
|-----------------|-----------------|-----------------|------------------|
|-----------------|-----------------|-----------------|------------------|
|-----------------|-----------------|-----------------|------------------|
|-----------------|-----------------|-----------------|------------------|
|-7-----6-----4---|-----------------|-7-----6-----4---|------------------|
|-5-5-5-4-4-4-2---|-7-----6-----4---|-5-5-5-4-4-4-2---|-7-----6-----4----|
|---------------0-|-5-5-5-4-4-4-2-2-|---------------0-|-5-5-5-4-4-4-2-2--|


 Outro
  D5C#5         D5C#5           D5C#D5C#5
  E E E S S E E E E   E S S E E E E E E
|-------------------|-------------------|
|-------------------|-------------------|
|-------------------|-------------------|
|-------------------|-------------------|
|-------------------|-------------------|
|-5-4---4-4-4-4-5-4-|---4-4-4-4-5-4-5-4-|
|-3-2---2-2-2-2-3-2-|---2-2-2-2-3-2-3-2-|


  D5C#5         D5C#5           D5C#D5C#5
  E E E S S E E E E   E S S E E E E E E
|-------------------|--------------------|
|-------------------|--------------------|
|-------------------|--------------------|
|-------------------|--------------------|
|-------------------|--------------------|
|-5-4---4-4-4-4-5-4-|---4-4-4-4-5-4-5-4--|
|-3-2---2-2-2-2-3-2-|---2-2-2-2-3-2-3-2--|


  D5C#5         D5C#5           D5C#D5C#5
  E E E S S E E E E   E S S E E E E E E
|-------------------|-------------------|
|-------------------|-------------------|
|-------------------|-------------------|
|-------------------|-------------------|
|-------------------|-------------------|
|-5-4---4-4-4-4-5-4-|---4-4-4-4-5-4-5-4-|
|-3-2---2-2-2-2-3-2-|---2-2-2-2-3-2-3-2-|


  E5D#5         E5D#5   E5
  E E E S S E E E E   E E S S E S S E E  E
|-------------------|-----------------------|
|-------------------|-----------------------|
|-------------------|-----------------------|
|-------------------|-----------------------|
|-------------------|-----------------------|
|-7-6---6-6-6-6-7-6-|---7-7-7-7-7-7-7-7-----|
|-5-4---4-4-4-4-5-4-|---5-5-5-5-5-5-5-5s14\-|


  Gtr I
  PM--------------|     PM------------------
  E E E S S E E E E   E S S  E E E E  E  E
|-------------------|----------------------|
|-------------------|----------------------|
|-------------------|----------------------|
|-------------------|----------------------|
|-------------------|----------------------|
|-------------------|----------------------|
|-3-2---2-2-2-2-3-2-|---2-2--2-2-3-2--3--2-|
|
| Gtr II
|                                     ~~~
| W                   Q      Q   E E  Q
|-------------------|----------------------|
|-------------------|----------------------|
|-------------------|----------------------|
|-------------------|----------------------|
|-------------------|----------------------|
|-------------------|----------------------|
|-------------------|-------/3s==2s0S14\---|


 ---|   PM--------|     PM---------------|
  E E E S S E E E E   E S S  E E E E  E  E
|-------------------|-----------------------|
|-------------------|-----------------------|
|-------------------|-----------------------|
|-------------------|-----------------------|
|-------------------|-----------------------|
|-------------------|-----------------------|
|-3-2---2-2-2-2-3-2-|---2-2--2-2-3-2--3--2--|
|
|                                     ~~~
| W                   Q      Q   E E  Q
|-------------------|-----------------------|
|-------------------|-----------------------|
|-------------------|-----------------------|
|-------------------|-----------------------|
|-------------------|-----------------------|
|-------------------|-----------------------|
|-------------------|-------/3s==2s0S14\----|


  PM|   PM--------|     PM---------------|
  E E E S S E E E E   E S S  E E E E  E  E
|-------------------|----------------------|
|-------------------|----------------------|
|-------------------|----------------------|
|-------------------|----------------------|
|-------------------|----------------------|
|-------------------|----------------------|
|-3-2---2-2-2-2-3-2-|---2-2--2-2-3-2--3--2-|
|
|                                     ~~~
| W                   Q      Q   E E  Q
|-------------------|----------------------|
|-------------------|----------------------|
|-------------------|----------------------|
|-------------------|----------------------|
|-------------------|----------------------|
|-------------------|----------------------|
|-------------------|-------/3s==2s0S14\---|


  E5D#5         E5D#5           E5D#5
  E E E S S E E E E   E S S E E E E q
|-------------------|-------------------*|
|-------------------|-------------------*|
|-------------------|-------------------*|
|-------------------|-------------------*|
|-------------------|-------------------*|
|-7-6---6-6-6-6-7-6-|---6-6-6-6-7-6-6---*|
|-5-4---4-4-4-4-5-4-|---4-4-4-4-5-4-4---*|
|
| W                   W
|-------------------|-------------------*|
|-------------------|-------------------*|
|-------------------|-------------------*|
|-------------------|-------------------*|
|-------------------|-------------------*|
|-------------------|-------------------*|
|-------------------|-------------------*|



Duration Legend
---------------
W - whole; H - half; Q - quarter; E - 8th; S - 16th; T - 32nd; X - 64th; a - acciaccatura
+ - note tied to previous; . - note dotted; .. - note double dotted
Uncapitalized letters represent notes that are staccato (1/2 duration)
Irregular groupings are notated above the duration line
Duration letters will always appear directly above the note/fret number it represents the
duration for.  Duration letters with no fret number below them represent rests.  Multi-
bar rests are notated in the form Wxn, where n is the number of bars to rest for.  Low
melody durations appear below the staff

Tablature Legend
----------------
 h   - hammer-on
 p   - pull-off
 b   - bend
 pb  - pre-bend
 r   - bend release (if no number after the r, then release immediately)
 /\  - slide into or out of (from/to "nowhere")
 s   - legato slide
 S   - shift slide
<n> - natural harmonic
[n]  - artificial harmonic
n(n) - tapped harmonic
 ~   - vibrato
 tr  - trill
 T   - tap
 TP  - trem. picking
 PM  - palm muting
\n/  - tremolo bar dip; n = amount to dip
 \n  - tremolo bar down
 n/  - tremolo bar up
/n\  - tremolo bar inverted dip
 =   - hold bend; also acts as connecting device for hammers/pulls
 <> - volume swell (louder/softer)
 x   - on rhythm slash represents muted slash
 o   - on rhythm slash represents single note slash

Misc Legend
-----------
 |  - bar
||  - double bar
||o - repeat start
o|| - repeat end
*|  - double bar (ending)
 :  - bar (freetime)
 $  - Segno
 &  - Coda
Tempo markers - <E/E./Q/Q./H/H.> = BPM(8/16=s8/s16), where s8 = swing 8ths, s16 = swing 16ths

comments
We did not receive enough feedback on this tab! Please rate:
print report bad tab
1 2 3 4 5
I want to post or [tab]
guest
You may want to rate the tab now too:
select rating
Please do not post tabs as comments. Select "correction" instead!