Oops, an error
Loading. Please wait.

Zero Signal Bass Tab

ver2
ver2

Whole song

More versions @911Tabs.com
220 views 1 this week
no commentswrite comment
1 2 3 4 5
please rate
Autoscroll
+/-
esc
set tempo
stop
Contributor
Tuning
B E A D F# B
WARNING: You are trying to view
                                    content from Ultimate-Guitar.com
                                    in an unauthorized application,
                                    which is prohibited.

                                    Please use an official Ultimate
                                    Guitar Tabs application for iPhone,
                                    iPad or Android to access legitimate
                                    chords, guitar, bass, and drum tabs
                                    from Ultimate-Guitar.com database.

                                    Type "ultimate guitar tabs" in Apple
                                    App Store's or Android Market's
                                    search to find the application.
#----------------------------------PLEASE NOTE---------------------------------#
#This file is the author's own work and represents their interpretation of the #
#song. You may only use this file for private study, scholarship, or research. #
#------------------------------------------------------------------------------#

ZERO SIGNAL (Bassline)
As recorded by Fear Factory
(From the 1995 Album DEMANUFACTURE)

Transcribed by erikthestupid@hotmail.com
	

Words by Burton C Bell Music by Fear Factory

Gtr I (B E A D) - 'Christian'

   Intro
    Q=180
   4/4
    Gtr I
    W          H    Q  Q    W          W     4x
||-----------|------------|----------|-------||
||o----------|------------|----------|------o||
||o----------|------------|----------|------o||
||--0--------|-0----0--0--|----------|-------||


  PM--------------------------------------------------------------|
  S S S S S S S S S S S S S S S S   S S S S S S S S S S S S S S S S
|---------------------------------|----------------------------------|
|---------------------------------|----------------------------------|
|---------------------------------|----------------------------------|
|-2-2-2-2-2-2-2-2-2-2-2-2-2-2-2-2-|-2-2-2-2-2-2-2-2-2-2-2-2-2-2-2-2--|


  PM--------------------------------------------------------------|
  S S S S S S S S S S S S S S S S   S S S S S S S S S S S S S S S S
|---------------------------------|----------------------------------|
|---------------------------------|----------------------------------|
|---------------------------------|----------------------------------|
|-2-2-2-2-2-2-2-2-2-2-2-2-2-2-2-2-|-2-2-2-2-2-2-2-2-2-2-2-2-2-2-2-2--|


  PM--------------------------------------------------------------|
  S S S S S S S S S S S S S S S S   S S S S S S S S S S S S S S S S
|---------------------------------|----------------------------------|
|---------------------------------|----------------------------------|
|---------------------------------|----------------------------------|
|-2-2-2-2-2-2-2-2-2-2-2-2-2-2-2-2-|-2-2-2-2-2-2-2-2-2-2-2-2-2-2-2-2--|


  PM--------------------------------------------------------------|
  S S S S S S S S S S S S S S S S   S S S S S S S S S S S S S S S S
|---------------------------------|----------------------------------|
|---------------------------------|----------------------------------|
|---------------------------------|----------------------------------|
|-2-2-2-2-2-2-2-2-2-2-2-2-2-2-2-2-|-2-2-2-2-2-2-2-2-2-2-2-2-2-2-2-2--|


  PM--------------------------------------------------------------|
  S S S S S S S S S S S S S S S S   S S S S S S S S S S S S S S S S
|---------------------------------|----------------------------------|
|---------------------------------|----------------------------------|
|---------------------------------|----------------------------------|
|-2-2-2-2-2-2-2-2-2-2-2-2-2-2-2-2-|-2-2-2-2-2-2-2-2-2-2-2-2-2-2-2-2--|


  PM--------------------------------------------------------------|
  S S S S S S S S S S S S S S S S   S S S S S S S S S S S S S S S S
|---------------------------------|----------------------------------|
|---------------------------------|----------------------------------|
|---------------------------------|----------------------------------|
|-2-2-2-2-2-2-2-2-2-2-2-2-2-2-2-2-|-2-2-2-2-2-2-2-2-2-2-2-2-2-2-2-2--|


  PM--------------------------------------------------------------|
  S S S S S S S S S S S S S S S S   S S S S S S S S S S S S S S S S
|---------------------------------|----------------------------------|
|---------------------------------|----------------------------------|
|---------------------------------|----------------------------------|
|-2-2-2-2-2-2-2-2-2-2-2-2-2-2-2-2-|-2-2-2-2-2-2-2-2-2-2-2-2-2-2-2-2--|


  PM--------------------------------------------------------------|
  S S S S S S S S S S S S S S S S   S S S S S S S S S S S S S S S S
|---------------------------------|----------------------------------|
|---------------------------------|----------------------------------|
|---------------------------------|----------------------------------|
|-2-2-2-2-2-2-2-2-2-2-2-2-2-2-2-2-|-2-2-2-2-2-2-2-2-2-2-2-2-2-2-2-2--|


   Pre-Verse                       Verse
    PM------------|                 PM----------------------------|
    S S S S S S S S E E E E 16x     S S S S S S S S S S S S S S S S  8x
||---------------------------||-||-----------------------------------||
||o-------------------------o||-||o---------------------------------o||
||o-------------------------o||-||o-0-0-0-0-0-0-0-0-0-0-0-0-0-0-0-0-o||
||--1-1-1-1-1-1-1-1-0-1-0-1--||-||-----------------------------------||


    PM------------|             PM----------------------------|
    S S S S S S S S E E E E  3x S S S S S S S S S S S S S S S S
||---------------------------||----------------------------------|
||o-------------------------o||----------------------------------|
||o-------------------------o||----------------------------------|
||--1-1-1-1-1-1-1-1-0-1-0-1--||-1-1-1-1-1-1-1-1-1-1-1-1-1-1-1-1--|


    PM--------------------------------------------------------|
    S S S S S S S S E E E E  3x S S S S S S S S S S S S S S S S
||---------------------------||----------------------------------|
||o-------------------------o||----------------------------------|
||o-------------------------o||----------------------------------|
||--1-1-1-1-1-1-1-1-0-1-0-1--||-1-1-1-1-1-1-1-1-1-1-1-1-1-1-1-1--|


 Pre-Verse
  PM--------------------------------------------------------------|
  S S S S S S S S S S S S S S S S   S S S S S S S S S S S S S S S S
|---------------------------------|----------------------------------|
|---------------------------------|----------------------------------|
|---------------------------------|----------------------------------|
|-2-2-2-2-2-2-2-2-2-2-2-2-2-2-2-2-|-2-2-2-2-2-2-2-2-2-2-2-2-2-2-2-2--|


  PM--------------------------------------------------------------|
  S S S S S S S S S S S S S S S S   S S S S S S S S S S S S S S S S
|---------------------------------|----------------------------------|
|---------------------------------|----------------------------------|
|---------------------------------|----------------------------------|
|-2-2-2-2-2-2-2-2-2-2-2-2-2-2-2-2-|-2-2-2-2-2-2-2-2-2-2-2-2-2-2-2-2--|


  PM--------------------------------------------------------------|
  S S S S S S S S S S S S S S S S   S S S S S S S S S S S S S S S S
|---------------------------------|----------------------------------|
|---------------------------------|----------------------------------|
|---------------------------------|----------------------------------|
|-2-2-2-2-2-2-2-2-2-2-2-2-2-2-2-2-|-2-2-2-2-2-2-2-2-2-2-2-2-2-2-2-2--|


  PM--------------------------------------------------------------|
  S S S S S S S S S S S S S S S S   S S S S S S S S S S S S S S S S
|---------------------------------|----------------------------------|
|---------------------------------|----------------------------------|
|---------------------------------|----------------------------------|
|-2-2-2-2-2-2-2-2-2-2-2-2-2-2-2-2-|-2-2-2-2-2-2-2-2-2-2-2-2-2-2-2-2--|


   Verse 2
    PM------------|             PM----------------------------|
    S S S S S S S S E E E E  3x S S S S S S S S S S S S S S S S
||---------------------------||----------------------------------|
||o-------------------------o||----------------------------------|
||o-------------------------o||----------------------------------|
||--1-1-1-1-1-1-1-1-0-1-0-1--||-1-1-1-1-1-1-1-1-1-1-1-1-1-1-1-1--|


    PM------------|             PM----------------------------|
    S S S S S S S S E E E E  3x S S S S S S S S S S S S S S S S
||---------------------------||----------------------------------|
||o-------------------------o||----------------------------------|
||o-------------------------o||----------------------------------|
||--1-1-1-1-1-1-1-1-0-1-0-1--||-1-1-1-1-1-1-1-1-1-1-1-1-1-1-1-1--|


 Chorus
  PM--------------------------------------------------------------|
  S S S S S S S S S S S S S S S S   S S S S S S S S S S S S S S S S
|---------------------------------|----------------------------------|
|---------------------------------|----------------------------------|
|-7-7-7-7-7-7-7-7-7-7-7-7-7-7-7-7-|-2-2-2-2-2-2-2-2-2-2-2-2-2-2-2-2--|
|---------------------------------|----------------------------------|


  PM--------------------------------------------------------------|
  S S S S S S S S S S S S S S S S   S S S S S S S S S S S S S S S S
|---------------------------------|----------------------------------|
|---------------------------------|----------------------------------|
|-0-0-0-0-0-0-0-0-0-0-0-0-0-0-0-0-|-5-5-5-5-5-5-5-5-5-5-5-5-5-5-5-5--|
|---------------------------------|----------------------------------|


  PM--------------------------------------------------------------|
  S S S S S S S S S S S S S S S S   S S S S S S S S S S S S S S S S
|---------------------------------|----------------------------------|
|---------------------------------|----------------------------------|
|-7-7-7-7-7-7-7-7-7-7-7-7-7-7-7-7-|-5-5-5-5-5-5-5-5-5-5-5-5-5-5-5-5--|
|---------------------------------|----------------------------------|


  PM--------------------------------------------------------------|
  S S S S S S S S S S S S S S S S   S S S S S S S S S S S S S S S S
|---------------------------------|----------------------------------|
|---------------------------------|----------------------------------|
|-4-4-4-4-4-4-4-4-4-4-4-4-4-4-4-4-|-5-5-5-5-5-5-5-5-5-5-5-5-5-5-5-5--|
|---------------------------------|----------------------------------|


  PM--------------------------------------------------------------|
  S S S S S S S S S S S S S S S S   S S S S S S S S S S S S S S S S
|---------------------------------|----------------------------------|
|---------------------------------|----------------------------------|
|-7-7-7-7-7-7-7-7-7-7-7-7-7-7-7-7-|----------------------------------|
|---------------------------------|-7-7-7-7-7-7-7-7-7-7-7-7-7-7-7-7--|


  PM--------------------------------------------------------------|
  S S S S S S S S S S S S S S S S   S S S S S S S S S S S S S S S S
|---------------------------------|----------------------------------|
|---------------------------------|----------------------------------|
|---------------------------------|-5-5-5-5-5-5-5-5-5-5-5-5-5-5-5-5--|
|-5-5-5-5-5-5-5-5-5-5-5-5-5-5-5-5-|----------------------------------|


  PM--------------------------------------------------------------|
  S S S S S S S S S S S S S S S S   S S S S S S S S S S S S S S S S
|---------------------------------|----------------------------------|
|---------------------------------|----------------------------------|
|-7-7-7-7-7-7-7-7-7-7-7-7-7-7-7-7-|-5-5-5-5-5-5-5-5-5-5-5-5-5-5-5-5--|
|---------------------------------|----------------------------------|


  S S S S S S S S S S S S S S S S   S S S S S S S S S S S S S S S S
|---------------------------------|----------------------------------|
|---------------------------------|----------------------------------|
|-4-4-4-4-4-4-4-4-4-4-4-4-4-4-4-4-|-5-5-5-5-5-5-5-5-5-5-5-5-5-5-5-5--|
|---------------------------------|----------------------------------|


   Interlude
    PM-----------------------------------------------------
    E E S S S S S E S S S E   E S S S E S +S  E S +S  E S
||--------------------------|-----------------------------|
||o-------------------------|-----------------------------|
||o-----2-2-2---------------|-----------------------------|
||--4-4-----------4-6-6-6---|-4-5-5-5---4-(4)-4-5-(5)-4-4-|


 -----------------------------------|
  E E S S S S S E S S S E   E S S S E S H
|-------------------------|-------------------||
|-------------------------|------------------o||
|-----2-2-2---------------|------------------o||
|-4-4-----------4-6-6-6---|-4-5-5-5-4---------||


    PM---------------------------------------------------------
    E E S S S S S E S S S S S   E S S S S S S +S  E S +S  E S
||----------------------------|-------------------------------|
||o---------------------------|-------------------------------|
||o-----1-1-1-1-1---0-0-0-0-0-|-------------------------------|
||--3-3-----------3-----------|-3-4-4-4-4-4-3-(3)-3-4-(4)-3-3-|


 ---------------------------------------------------------|
  E E S S S S S E S S S S S   E S S S S S S +S  E S +S  E S
|---------------------------|---------------------------------||
|---------------------------|--------------------------------o||
|-----1-1-1-1-1---0-0-0-0-0-|--------------------------------o||
|-3-3-----------3-----------|-3-4-4-4-4-4-3-(3)-3-4-(4)-3-3---||


  Q  Q  Q  Q    Q  Q  Q  Q    Q  Q  Q  Q    Q  Q  Q  Q
|-------------|-------------|-------------|--------------|
|-------------|-------------|-------------|--------------|
|-------------|-------------|-------------|--------------|
|-4--4--4--4--|-4--4--4--4--|-3--3--3--3--|-3--3--3--3---|


                                                  PM------------|
  Q  Q  Q  Q    Q  Q  Q  Q    Q  Q  Q  Q    Q  Q  S S S S S S S S
|-------------|-------------|-------------|------------------------|
|-------------|-------------|-------------|------------------------|
|-------------|-------------|-------------|------------------------|
|-4--4--4--4--|-4--4--4--4--|-0--0--0--0--|-2--2--2-2-2-2-2-2-2-2--|


  PM|   PM|   PM    PM  PM-------------------
  E E E E E E E E   E E E E S S S S S S S S
|-----------------|-------------------------|
|-----------------|-------------------------|
|-----6-----6---6-|---6---6-6-6-6-6-6-6-6-6-|
|-4-4---4-4---4---|-4---4-------------------|


 ---|   PM|   PM    PM  PM----------------|
  E E E E E E E E   E E E E S S S S S S S S
|-----------------|---------------------------|
|-----------------|---------------------------|
|-----5-----5---5-|---5---5-5-5-5-5-5-5-5-5---|
|-3-3---3-3---3---|-3---3---------------------|


  PM|   PM|   PM    PM  PM----------------------|   PM|   PM
  E E E E E E E E   E E E E S S S S S S S S   E E E E E E E E
|-----------------|-------------------------|-----------------|
|-----------------|-------------------------|-----------------|
|-----6-----6---6-|---6---6-6-6-6-6-6-6-6-6-|-----2-----2---0-|
|-4-4---4-4---4---|-4---4-------------------|-0-0---0-0---2---|


  PM  PM----------------------|   PM|   PM    PM  PM----------------|
  E E E E S S S S S S S S   E E E E E E E E   E E E E S S S S S S S S
|-------------------------|-----------------|-------------------------|
|-------------------------|-----------------|-------------------------|
|---2---4-4-4-4-4-4-4-4-4-|-----6-----6---6-|---6---6-6-6-6-6-6-6-6-6-|
|-4---2-------------------|-4-4---4-4---4---|-4---4-------------------|


  PM|   PM|   PM    PM  PM----------------------|   PM|   PM
  E E E E E E E E   E E E E S S S S S S S S   E E E E E E E E
|-----------------|-------------------------|-----------------|
|-----------------|-------------------------|-----------------|
|-----5-----5---5-|---5---5-5-5-5-5-5-5-5-5-|-----6-----6---6-|
|-3-3---3-3---3---|-3---3-------------------|-4-4---4-4---4---|


  PM  PM----------------|
  E E E E S S S S S S S S   W          W
|-------------------------|----------|------|
|-------------------------|----------|------|
|---6---6-6-6-6-6-6-6-6-6-|----------|------|
|-4---4-------------------|-0--------|-2----|


    PM------------|           PM------------|
    S S S S S S S S E E E E   S S S S S S S S E E E E
||--------------------------|-------------------------|
||o-------------------------|-------------------------|
||o-------------------------|-------------------------|
||--1-1-1-1-1-1-1-1-0-1-0-1-|-1-1-1-1-1-1-1-1-0-1-0-1-|


  PM------------|           PM----------------------------|
  S S S S S S S S E E E E   S S S S S S S S S S S S S S S S   5x
|-------------------------|-----------------------------------||
|-------------------------|----------------------------------o||
|-------------------------|----------------------------------o||
|-1-1-1-1-1-1-1-1-0-1-0-1-|-1-1-1-1-1-1-1-1-1-1-1-1-1-1-1-1---||


 Chorus
  PM--------------------------------------------------------------|
  S S S S S S S S S S S S S S S S   S S S S S S S S S S S S S S S S
|---------------------------------|----------------------------------|
|-2-2-2-2-2-2-2-2-2-2-2-2-2-2-2-2-|----------------------------------|
|---------------------------------|-2-2-2-2-2-2-2-2-2-2-2-2-2-2-2-2--|
|---------------------------------|----------------------------------|


  PM--------------------------------------------------------------|
  S S S S S S S S S S S S S S S S   S S S S S S S S S S S S S S S S
|---------------------------------|----------------------------------|
|---------------------------------|----------------------------------|
|---------------------------------|-5-5-5-5-5-5-5-5-5-5-5-5-5-5-5-5--|
|-5-5-5-5-5-5-5-5-5-5-5-5-5-5-5-5-|----------------------------------|


  PM--------------------------------------------------------------|
  S S S S S S S S S S S S S S S S   S S S S S S S S S S S S S S S S
|---------------------------------|----------------------------------|
|---------------------------------|----------------------------------|
|-7-7-7-7-7-7-7-7-7-7-7-7-7-7-7-7-|-5-5-5-5-5-5-5-5-5-5-5-5-5-5-5-5--|
|---------------------------------|----------------------------------|


  PM--------------------------------------------------------------|
  S S S S S S S S S S S S S S S S   S S S S S S S S S S S S S S S S
|---------------------------------|----------------------------------|
|---------------------------------|----------------------------------|
|-4-4-4-4-4-4-4-4-4-4-4-4-4-4-4-4-|-5-5-5-5-5-5-5-5-5-5-5-5-5-5-5-5--|
|---------------------------------|----------------------------------|


  PM--------------------------------------------------------------|
  S S S S S S S S S S S S S S S S   S S S S S S S S S S S S S S S S
|---------------------------------|----------------------------------|
|---------------------------------|----------------------------------|
|-7-7-7-7-7-7-7-7-7-7-7-7-7-7-7-7-|----------------------------------|
|---------------------------------|-7-7-7-7-7-7-7-7-7-7-7-7-7-7-7-7--|


  PM--------------------------------------------------------------|
  S S S S S S S S S S S S S S S S   S S S S S S S S S S S S S S S S
|---------------------------------|----------------------------------|
|---------------------------------|----------------------------------|
|---------------------------------|-5-5-5-5-5-5-5-5-5-5-5-5-5-5-5-5--|
|-5-5-5-5-5-5-5-5-5-5-5-5-5-5-5-5-|----------------------------------|


  PM--------------------------------------------------------------|
  S S S S S S S S S S S S S S S S   S S S S S S S S S S S S S S S S
|---------------------------------|----------------------------------|
|---------------------------------|----------------------------------|
|-7-7-7-7-7-7-7-7-7-7-7-7-7-7-7-7-|-5-5-5-5-5-5-5-5-5-5-5-5-5-5-5-5--|
|---------------------------------|----------------------------------|


  PM--------------------------------------------------------------|
  S S S S S S S S S S S S S S S S   S S S S S S S S S S S S S S S S
|---------------------------------|----------------------------------|
|---------------------------------|----------------------------------|
|-4-4-4-4-4-4-4-4-4-4-4-4-4-4-4-4-|-5-5-5-5-5-5-5-5-5-5-5-5-5-5-5-5--|
|---------------------------------|----------------------------------|


  PM--------------------------------------------------------------|
  S S S S S S S S S S S S S S S S   S S S S S S S S S S S S S S S S
|---------------------------------|----------------------------------|
|---------------------------------|----------------------------------|
|-7-7-7-7-7-7-7-7-7-7-7-7-7-7-7-7-|----------------------------------|
|---------------------------------|-7-7-7-7-7-7-7-7-7-7-7-7-7-7-7-7--|


  PM--------------------------------------------------------------|
  S S S S S S S S S S S S S S S S   S S S S S S S S S S S S S S S S
|---------------------------------|----------------------------------|
|---------------------------------|----------------------------------|
|---------------------------------|-5-5-5-5-5-5-5-5-5-5-5-5-5-5-5-5--|
|-5-5-5-5-5-5-5-5-5-5-5-5-5-5-5-5-|----------------------------------|


  PM--------------------------------------------------------------|
  S S S S S S S S S S S S S S S S   S S S S S S S S S S S S S S S S
|---------------------------------|----------------------------------|
|---------------------------------|----------------------------------|
|-7-7-7-7-7-7-7-7-7-7-7-7-7-7-7-7-|-5-5-5-5-5-5-5-5-5-5-5-5-5-5-5-5--|
|---------------------------------|----------------------------------|


  PM--------------------------------------------------------------|
  S S S S S S S S S S S S S S S S   S S S S S S S S S S S S S S S S
|---------------------------------|----------------------------------|
|---------------------------------|----------------------------------|
|-4-4-4-4-4-4-4-4-4-4-4-4-4-4-4-4-|-5-5-5-5-5-5-5-5-5-5-5-5-5-5-5-5--|
|---------------------------------|----------------------------------|


  PM--------------------------------------------------------------|
  S S S S S S S S S S S S S S S S   S S S S S S S S S S S S S S S S
|---------------------------------|----------------------------------|
|---------------------------------|----------------------------------|
|-7-7-7-7-7-7-7-7-7-7-7-7-7-7-7-7-|----------------------------------|
|---------------------------------|-7-7-7-7-7-7-7-7-7-7-7-7-7-7-7-7--|


  PM--------------------------------------------------------------|
  S S S S S S S S S S S S S S S S   S S S S S S S S S S S S S S S S
|---------------------------------|----------------------------------|
|---------------------------------|----------------------------------|
|---------------------------------|-5-5-5-5-5-5-5-5-5-5-5-5-5-5-5-5--|
|-5-5-5-5-5-5-5-5-5-5-5-5-5-5-5-5-|----------------------------------|


  PM--------------------------------------------------------------|
  S S S S S S S S S S S S S S S S   S S S S S S S S S S S S S S S S
|---------------------------------|----------------------------------|
|---------------------------------|----------------------------------|
|-7-7-7-7-7-7-7-7-7-7-7-7-7-7-7-7-|-5-5-5-5-5-5-5-5-5-5-5-5-5-5-5-5--|
|---------------------------------|----------------------------------|


  PM--------------------------------------------------------------|
  S S S S S S S S S S S S S S S S   S S S S S S S S S S S S S S S S
|---------------------------------|----------------------------------|
|---------------------------------|----------------------------------|
|-4-4-4-4-4-4-4-4-4-4-4-4-4-4-4-4-|-5-5-5-5-5-5-5-5-5-5-5-5-5-5-5-5--|
|---------------------------------|----------------------------------|


  Q  Q  Q  Q    Q  Q  Q  Q    Q  Q  Q  Q    Q  Q  Q  Q
|-------------|-------------|-------------|--------------|
|-------------|-------------|-------------|--------------|
|-7--7--7--7--|-------------|-------------|-5--5--5--5---|
|-------------|-7--7--7--7--|-5--5--5--5--|--------------|


  Q  Q  Q  Q    Q  Q  Q  Q    Q  Q  Q  Q    Q  Q  Q  Q
|-------------|-------------|-------------|--------------|
|-------------|-------------|-------------|--------------|
|-7--7--7--7--|-5--5--5--5--|-4--4--4--4--|-5--5--5--5---|
|-------------|-------------|-------------|--------------|


  Q  Q  Q  Q    Q  Q  Q  Q    Q  Q  Q  Q    Q  Q  Q  Q
|-------------|-------------|-------------|--------------|
|-------------|-------------|-------------|--------------|
|-7--7--7--7--|-------------|-------------|-5--5--5--5---|
|-------------|-7--7--7--7--|-5--5--5--5--|--------------|


  Q  Q  Q  Q    Q  Q  Q  Q    Q  Q  Q  Q    Q  Q  Q  Q
|-------------|-------------|-------------|--------------|
|-------------|-------------|-------------|--------------|
|-7--7--7--7--|-5--5--5--5--|-4--4--4--4--|-5--5--5--5---|
|-------------|-------------|-------------|--------------|


 Outro
  Q  E E Q  E E   Q  E E Q  E E   Q  E E Q  E E   Q  E E Q  E E
|---------------|---------------|---------------|----------------|
|---------------|---------------|---------------|----------------|
|-7--7-7-7--7-7-|---------------|---------------|-5--5-5-5--5-5--|
|---------------|-7--7-7-7--7-7-|-5--5-5-5--5-5-|----------------|


  Q  E E Q  E E   Q  E E Q  E E   Q  E E Q  E E   Q  E E Q  E E
|---------------|---------------|---------------|----------------|
|---------------|---------------|---------------|----------------|
|-7--7-7-7--7-7-|-5--5-5-5--5-5-|-4--4-4-4--4-4-|-5--5-5-5--5-5--|
|---------------|---------------|---------------|----------------|


  Q  E E Q  E E   Q  E E Q  E E   Q  E E Q  E E   Q  E E Q  E E
|---------------|---------------|---------------|----------------|
|---------------|---------------|---------------|----------------|
|-7--7-7-7--7-7-|---------------|---------------|-5--5-5-5--5-5--|
|---------------|-7--7-7-7--7-7-|-5--5-5-5--5-5-|----------------|


  Q  E E Q  E E   Q  E E Q  E E   Q  E E Q  E E   Q  E E Q  E E
|---------------|---------------|---------------|----------------|
|---------------|---------------|---------------|----------------|
|-7--7-7-7--7-7-|-5--5-5-5--5-5-|-4--4-4-4--4-4-|-5--5-5-5--5-5--|
|---------------|---------------|---------------|----------------|


  Q  E E Q  E E   Q  E E Q  E E   Q  E E Q  E E   Q  E E Q  E E
|---------------|---------------|---------------|----------------|
|---------------|---------------|---------------|----------------|
|-7--7-7-7--7-7-|---------------|---------------|-5--5-5-5--5-5--|
|---------------|-7--7-7-7--7-7-|-5--5-5-5--5-5-|----------------|


  Q  E E Q  E E   Q  E E Q  E E   Q  E E Q  E E   Q  E E Q  E E
|---------------|---------------|---------------|----------------*|
|---------------|-5--5-5-5--5-5-|-7--7-7-7--7-7-|----------------*|
|-7--7-7-7--7-7-|---------------|---------------|-9--9-9-9--9-9--*|
|---------------|---------------|---------------|----------------*|



Duration Legend
---------------
W - whole; H - half; Q - quarter; E - 8th; S - 16th; T - 32nd; X - 64th; a - acciaccatura
+ - note tied to previous; . - note dotted; .. - note double dotted
Uncapitalized letters represent notes that are staccato (1/2 duration)
Irregular groupings are notated above the duration line
Duration letters will always appear directly above the note/fret number it represents the
duration for.  Duration letters with no fret number below them represent rests.  Multi-
bar rests are notated in the form Wxn, where n is the number of bars to rest for.  Low
melody durations appear below the staff

Tablature Legend
----------------
 h   - hammer-on
 p   - pull-off
 b   - bend
 pb  - pre-bend
 r   - bend release (if no number after the r, then release immediately)
 /\  - slide into or out of (from/to "nowhere")
 s   - legato slide
 S   - shift slide
 - natural harmonic
[n]  - artificial harmonic
n(n) - tapped harmonic
 ~   - vibrato
 tr  - trill
 T   - tap
 TP  - trem. picking
 PM  - palm muting
\n/  - tremolo bar dip; n = amount to dip
 \n  - tremolo bar down
 n/  - tremolo bar up
/n\  - tremolo bar inverted dip
 =   - hold bend; also acts as connecting device for hammers/pulls
 <> - volume swell (louder/softer)
 x   - on rhythm slash represents muted slash
 o   - on rhythm slash represents single note slash

Misc Legend
-----------
 |  - bar
||  - double bar
||o - repeat start
o|| - repeat end
*|  - double bar (ending)
 :  - bar (freetime)
 $  - Segno
 &  - Coda
Tempo markers -  = BPM(8/16=s8/s16), where s8 = swing 8ths, s16 = swing 16ths

comments
We did not receive enough feedback on this tab! Please rate:
1 2 3 4 5
I want to post or [tab]
guest
You may want to rate the tab now too:
select rating
Please do not post tabs as comments. Select "correction" instead!