Oops, an error
Loading. Please wait.

Daddys Girl Tab

1,423 views 6 this week
no commentswrite comment
1 2 3 4 5
accurate
x 3
add to favorites launch autoscroll
font size
0
reset
Autoscroll
+/-
esc
set tempo
stop
Contributor
Tuning
Tabbers playing skills
A# F A# D# G C
advanced +
WARNING: You are trying to view
                                    content from Ultimate-Guitar.com
                                    in an unauthorized application,
                                    which is prohibited.

                                    Please use an official Ultimate
                                    Guitar Tabs application for iPhone,
                                    iPad or Android to access legitimate
                                    chords, guitar, bass, and drum tabs
                                    from Ultimate-Guitar.com database.

                                    Type "ultimate guitar tabs" in Apple
                                    App Store's or Android Market's
                                    search to find the application.
Title: Daddy's Girl
Artist: Feared
Music: Ola Englund
Tabber: Jordan Guthrie
Tempo = 146
Electric Guitar

Legend
L - tied note
x - dead note
h - hammer on/pull off
b - bend
s - slide
~ - vibrato
g - ghost note
> - accentuated note
t - trill
M - palm mute
. - staccato
P - popping (bass)
S - slapping (bass)
+ - tapping
W - wide vibrato
< - fade in
w - whammy bar
= - tremolo picking
v - brush up
^ - brush down
V - pick stroke up
n - pick stroke down


C |----------------------------------------------------|
G |----------------------------------------------------|
D#|----------------------------------------------------|
A#|----------------------------------------------------|
F |----------------------------------------------------|
A#|--0--0--0--0--0--0--0--0-----0--0-----0--0-----0----|


----------------------------------------------------|
----------------------------------------------------|
----------------------------------------------------|
----------------------------------------------------|
--------------------------------------5--4--3--0----|
--0-----0--0-----0--0-----5--4--3--0----------------|


----------------------------------------------------|
----------------------------------------------------|
----------------------------------------------------|
----------------------------------------------------|
----------------------------------------------------|
--0--0--0--0--0--0--0--0-----0--0-----0--0-----0----|


----------------------------------------------------|
----------------------------------------------------|
----------------------------------------------------|
--------------------------------------4-------------|
--------------------------5--4--5--6-----6--5s------|
--0-----0--0-----0--0-------------------------------|


----------------------------------------------------|
----------------------------------------------------|
----------------------------------------------------|
----------------------------------------------------|
----------------------------------------------------|
--3--3--3--3--3--3--3--3-----3--3-----3--3-----3----|


----------------------------------------------------|
----------------------------------------------------|
----------------------------------------------------|
--5-----------5-----7-----------5-----------5-------|
--3-----------3-----5-----------3-----------3-------|
--------0--0--------------0--0--------0--0----------|


----------------------------------------------------|
----------------------------------------------------|
----------------------------------------------------|
--7-------------------------------------------------|
--5-------------------------------------------------|
--------0--0--0--0-----0--0-----0--0--0--0-----0----|


----------------------------------------------------|
----------------------------------------------------|
----------------------------------------------------|
-----------------------------------7--0-----6--0----|
--------------------------5--0--0--------0----------|
--0-----0--0--0--0-----0----------------------------|


----------------------------------------------------|
----------------------------------------------------|
----------------------------------------------------|
----------------------------------------------------|
----------------------------------------------------|
--0--0--0--0--0--0--0--0-----0--0-----0--0-----0----|


----------------------------------------------------|
----------------------------------------------------|
----------------------------------------------------|
----------------------------------------------------|
--------------------------------------5--4--3--0----|
--0-----0--0-----0--0-----5--4--3--0----------------|


----------------------------------------------------|
----------------------------------------------------|
----------------------------------------------------|
----------------------------------------------------|
----------------------------------------------------|
--0--0--0--0--0--0--0--0-----0--0-----0--0-----0----|


----------------------------------------------------|
----------------------------------------------------|
----------------------------------------------------|
--------------------------------------4-------------|
--------------------------5--4--5--6-----6--5s------|
--0-----0--0-----0--0-------------------------------|


----------------------------------------------------|
----------------------------------------------------|
----------------------------------------------------|
----------------------------------------------------|
----------------------------------------------------|
--3--3--3--3--3--3--3--3-----3--3-----3--3-----3----|


----------------------------------------------------|
----------------------------------------------------|
----------------------------------------------------|
--5-----------5-----7-----------5-----------5-------|
--3-----------3-----5-----------3-----------3-------|
--------0--0--------------0--0--------0--0----------|


----------------------------------------------------|
----------------------------------------------------|
----------------------------------------------------|
--7-------------------------------------------------|
--5-------------------------------------------------|
--------0--0--0--0-----0--0-----0--0--0--0-----0----|


----------------------------------------------------|
----------------------------------------------------|
----------------------------------------------------|
-----------------------------------7--0-----6--0----|
--------------------------5--0--0--------0----------|
--0-----0--0--0--0-----0----------------------------|


----------------------------------------------------|
----------------------------------------------------|
----------------------------------------------------|
----------------------------------------------------|
----------------------------------------------------|
--0--0--0--0--0--0--0--0-----0--0-----0--0-----0----|


----------------------------------------------------|
----------------------------------------------------|
----------------------------------------------------|
----------------------------------------------------|
--------------------------------------5--4--3--0----|
--0-----0--0-----0--0-----5--4--3--0----------------|


----------------------------------------------------|
----------------------------------------------------|
----------------------------------------------------|
----------------------------------------------------|
----------------------------------------------------|
--0--0--0--0--0--0--0--0-----0--0-----0--0-----0----|


----------------------------------------------------|
----------------------------------------------------|
----------------------------------------------------|
--------------------------------------4-------------|
--------------------------5--4--5--6-----6--5s------|
--0-----0--0-----0--0-------------------------------|


----------------------------------------------------|
----------------------------------------------------|
----------------------------------------------------|
----------------------------------------------------|
----------------------------------------------------|
--3--3--3--3--3--3--3--3-----3--3-----3--3-----3----|


----------------------------------------------------|
----------------------------------------------------|
----------------------------------------------------|
--5-----------5-----7-----------5-----------5-------|
--3-----------3-----5-----------3-----------3-------|
--------0--0--------------0--0--------0--0----------|


----------------------------------------------------|
----------------------------------------------------|
----------------------------------------------------|
--7-------------------------------------------------|
--5-------------------------------------------------|
--------0--0--0--0-----0--0-----0--0--0--0-----0----|


----------------------------------------------------|-------|----------|
----------------------------------------------------|-------|----------|
----------------------------------------------------|-------|----------|
-----------------------------------7--0-----6--0----|--4~---|--2~-5~---|
--------------------------5--0--0--------0----------|-------|----------|
--0-----0--0--0--0-----0----------------------------|-------|----------|


----------------------------|----------------------------|
----------------------------|----------------------------|
----------------------------|----------------------------|
----------------------------|----------------------------|
--------4-------------------|--4-----------------4-------|
--1--0-----0-----0--1--0----|-----0-----0--1--0-----0----|


----------------------------|----------------------------|
----------------------------|----------------------------|
----------------------------|----------------------------|
----------------------------|----------------------------|
--------4-------------------|--4-----------------4-------|
--1--0-----0-----0--1--0----|-----0-----0--1--0-----0----|


----------------------------|----------------------------|
----------------------------|----------------------------|
----------------------------|----------------------------|
----------------------------|----------------------------|
--1M-0M-4--0M----0M-1M-0M---|--4--0M----0M-1M-0M-4--0M---|
--1--0-----0-----0--1--0----|-----0-----0--1--0-----0----|


----------------------------|----------------------------|
----------------------------|----------------------------|
----------------------------|----------------------------|
----------------------------|----------------------------|
--1M-0M-4--0M----0M-1M-0M---|--4--0M----0M-1M-0M-4--0M---|
--1--0-----0-----0--1--0----|-----0-----0--1--0-----0----|


----------------------------|----------------------------|
----------------------------|----------------------------|
----------------------------|----------------------------|
----------------------------|----------------------------|
--1--0--1--3-----0--1--4L---|--4--0--1--3-----0--1--1----|
--1--0--1--3-----0--1--4L---|--4--0--1--3-----0--1-------|


----------------------------|----------------------------|
----------------------------|----------------------------|
----------------------------|----------------------------|
----------------------------|----------------------------|
--1--0--1--3-----0--1--4L---|--4--0--1--3-----0----------|
--1--0--1--3-----0--1--4L---|--4--0--1--3-----0--3~------|


----------------------------|----------------------------|
----------------------------|----------------------------|
----------------------------|----------------------------|
----------------------------|----------------------------|
--1--0--1--3-----0--1--4L---|--4--0--1--3-----0--1--1----|
--1--0--1--3-----0--1--4L---|--4--0--1--3-----0--1-------|


----------------------------|----------------------------|
----------------------------|----------------------------|
----------------------------|----------------------------|
----------------------------|----------------------------|
--1--0--1--3-----0--1--4L---|--4--0--1--3-----0----------|
--1--0--1--3-----0--1--4L---|--4--0--1--3-----0--3~------|


----------------------------|----------------------------|
----------------------------|----------------------------|
----------------------------|----------------------------|
----------------------------|----------------------------|
--------4-------------------|--4-----------------4-------|
--1--0-----0-----0--1--0----|-----0-----0--1--0-----0----|


----------------------------|----------------------------|
----------------------------|----------------------------|
----------------------------|----------------------------|
----------------------------|----------------------------|
--------4-------------------|--4-----------------4-------|
--1--0-----0-----0--1--0----|-----0-----0--1--0-----0----|


----------------------------|----------------------------|
----------------------------|----------------------------|
----------------------------|----------------------------|
----------------------------|----------------------------|
--1M-0M-4--0M----0M-1M-0M---|--4--0M----0M-1M-0M-4--0M---|
--1--0-----0-----0--1--0----|-----0-----0--1--0-----0----|


----------------------------|----------------------------|
----------------------------|----------------------------|
----------------------------|----------------------------|
----------------------------|----------------------------|
--1M-0M-4--0M----0M-1M-0M---|--4--0M----0M-1M-0M-4--0M---|
--1--0-----0-----0--1--0----|-----0-----0--1--0-----0----|


----------------------------|----------------------------|
----------------------------|----------------------------|
----------------------------|----------------------------|
----------------------------|----------------------------|
--1--0--1--3-----0--1--4L---|--4--0--1--3-----0--1--1----|
--1--0--1--3-----0--1--4L---|--4--0--1--3-----0--1-------|


----------------------------|----------------------------|
----------------------------|----------------------------|
----------------------------|----------------------------|
----------------------------|----------------------------|
--1--0--1--3-----0--1--4L---|--4--0--1--3-----0----------|
--1--0--1--3-----0--1--4L---|--4--0--1--3-----0--3~------|


----------------------------|----------------------------|
----------------------------|----------------------------|
----------------------------|----------------------------|
----------------------------|----------------------------|
--1--0--1--3-----0--1--4L---|--4--0--1--3-----0--1--1----|
--1--0--1--3-----0--1--4L---|--4--0--1--3-----0--1-------|


----------------------------|----------------------------|
----------------------------|----------------------------|
----------------------------|----------------------------|
----------------------------|----------------------------|
--1--0--1--3-----0--1--4L---|--4--0--1--3-----0----------|
--1--0--1--3-----0--1--4L---|--4--0--1--3-----0--3~------|


----------------------------------------------------|
----------------------------------------------------|
----------------------------------------------------|
--------------------------1-----3-----1-------------|
--0-----------------------1L----1-------------------|
--0-----------0--0--0--0--1L----1-----------0L------|


----------------------------------------------------|
----------------------------------------------------|
----------------------------------------------------|
--------------4-----------4--5--4-----------4-------|
--------5-----------5-----------------5-------------|
--0-------------------------------------------------|


----------------------------------------------------|
----------------------------------------------------|
----------------------------------------------------|
--------------------------1-----3-----1-------------|
--0-----------------------1L----1-------------------|
--0-----------0--0--0--0--1L----1-----------0L------|


----------------------------------------------------|
----------------------------------------------------|
----------------------------------------------------|
--------------4-----------4--5--4-----------4-------|
--------5-----------5-----------------5-------------|
--0-------------------------------------------------|


----------------------------------------------------|
----------------------------------------------------|
--7-----------------------7-----------------6L------|
--5-----------------------5-----------------4L------|
--5-----------------------5-----------------4L------|
--5-----------5--5--5--5--5-----5-----5-----4L------|


----------------------------------------------------|
----------------------------------------------------|
--6-----------6-----------6--7--6-----------6-------|
--4-----4-----------4-----------------4-------------|
--4-------------------------------------------------|
--4-------------------------------------------------|


----------------------------------------------------|
----------------------------------------------------|
--7-----------------------7-----------------6L------|
--5-----------------------5-----------------4L------|
--5-----------------------5-----------------4L------|
--5-----------5--5--5--5--5-----5-----5-----4L------|


----------------------------------------------------|
----------------------------------------------------|
--6-----------6-----------6--7--6-----------6-------|
--4-----4-----------4-----------------4-------------|
--4-------------------------------------------------|
--4-------------------------------------------------|


----------------------------------------------------|
----------------------------------------------------|
----------------------------------------------------|
--------------------------1-----3-----1-------------|
--0-----------------------1L----1-------------------|
--0-----------0--0--0--0--1L----1-----------0L------|


----------------------------------------------------|
----------------------------------------------------|
----------------------------------------------------|
--------------4-----------4--5--4-----------4-------|
--------5-----------5-----------------5-------------|
--0-------------------------------------------------|


----------------------------------------------------|
----------------------------------------------------|
----------------------------------------------------|
--------------------------1-----3-----1-------------|
--0-----------------------1L----1-------------------|
--0-----------0--0--0--0--1L----1-----------0L------|


----------------------------------------------------|
----------------------------------------------------|
----------------------------------------------------|
--------------4-----------4--5--4-----------4-------|
--------5-----------5-----------------5-------------|
--0-------------------------------------------------|


----------------------------------------------------|
----------------------------------------------------|
--7-----------------------7-----------------6L------|
--5-----------------------5-----------------4L------|
--5-----------------------5-----------------4L------|
--5-----------5--5--5--5--5-----5-----5-----4L------|


----------------------------------------------------|
----------------------------------------------------|
--6-----------6-----------6--7--6-----------6-------|
--4-----4-----------4-----------------4-------------|
--4-------------------------------------------------|
--4-------------------------------------------------|


----------------------------------------------------|
----------------------------------------------------|
--7-----------------------7-----------------6L------|
--5-----------------------5-----------------4L------|
--5-----------------------5-----------------4L------|
--5-----------5--5--5--5--5-----5-----5-----4L------|


----------------------------------------------------|
----------------------------------------------------|
--6-----------6-----------6--7--6-----------6-------|
--4-----4-----------4-----------------4-------------|
--4-------------------------------------------------|
--4-------------------------------------------------|


----------------------------|----------------------------|
----------------------------|----------------------------|
----------------------------|----------------------------|
--5--------5--7-------------|--------------5--------5----|
--3--0--0--3--5--0--3--0----|--0--3--5--0--3--0--0--3----|
-----0--0--------0--3--0----|--0--3--5--0-----0--0-------|


----------------------------|----------------------------|
----------------------------|----------------------------|
----------------------------|----------------------------|
--7-------------------------|--5--------5--7-------------|
--5--0--------5-------------|--3--0--0--3--5--0--3--0----|
-----0--5--6-----6--5--3----|-----0--0--------0--3--0----|


----------------------------|----------------------------|
----------------------------|----------------------------|
----------------------------|----------------------------|
--------------5--------5----|--7-------------------------|
--0--3--5--0--3--0--0--3----|--5--0--------5-------------|
--0--3--5--0-----0--0-------|-----0--5--6-----6--5--3----|


----------------------------|----------------------------|
----------------------------|----------------------------|
----------------------------|----------------------------|
----------------------------|----------------------------|
--------4-------------------|--4-----------------4-------|
--1--0-----0-----0--1--0----|-----0-----0--1--0-----0----|


----------------------------|----------------------------|
----------------------------|----------------------------|
----------------------------|----------------------------|
----------------------------|----------------------------|
--------4-------------------|--4-----------------4-------|
--1--0-----0-----0--1--0----|-----0-----0--1--0-----0----|


----------------------------|----------------------------|
----------------------------|----------------------------|
----------------------------|----------------------------|
----------------------------|----------------------------|
--1M-0M-4--0M----0M-1M-0M---|--4--0M----0M-1M-0M-4--0M---|
--1--0-----0-----0--1--0----|-----0-----0--1--0-----0----|


----------------------------|----------------------------|
----------------------------|----------------------------|
----------------------------|----------------------------|
----------------------------|----------------------------|
--1M-0M-4--0M----0M-1M-0M---|--4--0M----0M-1M-0M-4--0M---|
--1--0-----0-----0--1--0----|-----0-----0--1--0-----0----|


----------------------------|----------------------------|
----------------------------|----------------------------|
----------------------------|----------------------------|
----------------------------|----------------------------|
--1--0--1--3-----0--1--4L---|--4--0--1--3-----0--1--1----|
--1--0--1--3-----0--1--4L---|--4--0--1--3-----0--1-------|


----------------------------|----------------------------|
----------------------------|----------------------------|
----------------------------|----------------------------|
----------------------------|----------------------------|
--1--0--1--3-----0--1--4L---|--4--0--1--3-----0----------|
--1--0--1--3-----0--1--4L---|--4--0--1--3-----0--3~------|


----------------------------|----------------------------|
----------------------------|----------------------------|
----------------------------|----------------------------|
----------------------------|----------------------------|
--1--0--1--3-----0--1--4L---|--4--0--1--3-----0--1--1----|
--1--0--1--3-----0--1--4L---|--4--0--1--3-----0--1-------|


----------------------------|----------------------------|
----------------------------|----------------------------|
----------------------------|----------------------------|
----------------------------|----------------------------|
--1--0--1--3-----0--1--4L---|--4--0--1--3-----0----------|
--1--0--1--3-----0--1--4L---|--4--0--1--3-----0--3~------|


----------------------------|----------------------------|
----------------------------|----------------------------|
----------------------------|----------------------------|
----------------------------|----------------------------|
--------4-------------------|--4-----------------4-------|
--1--0-----0-----0--1--0----|-----0-----0--1--0-----0----|


----------------------------|----------------------------|
----------------------------|----------------------------|
----------------------------|----------------------------|
----------------------------|----------------------------|
--------4-------------------|--4-----------------4-------|
--1--0-----0-----0--1--0----|-----0-----0--1--0-----0----|


----------------------------|----------------------------|
----------------------------|----------------------------|
----------------------------|----------------------------|
----------------------------|----------------------------|
--1M-0M-4--0M----0M-1M-0M---|--4--0M----0M-1M-0M-4--0M---|
--1--0-----0-----0--1--0----|-----0-----0--1--0-----0----|


----------------------------|----------------------------|
----------------------------|----------------------------|
----------------------------|----------------------------|
----------------------------|----------------------------|
--1M-0M-4--0M----0M-1M-0M---|--4--0M----0M-1M-0M-4--0M---|
--1--0-----0-----0--1--0----|-----0-----0--1--0-----0----|


----------------------------|----------------------------|
----------------------------|----------------------------|
----------------------------|----------------------------|
----------------------------|----------------------------|
--1--0--1--3-----0--1--4L---|--4--0--1--3-----0--1--1----|
--1--0--1--3-----0--1--4L---|--4--0--1--3-----0--1-------|


----------------------------|----------------------------|
----------------------------|----------------------------|
----------------------------|----------------------------|
----------------------------|----------------------------|
--1--0--1--3-----0--1--4L---|--4--0--1--3-----0----------|
--1--0--1--3-----0--1--4L---|--4--0--1--3-----0--3~------|


----------------------------|----------------------------|
----------------------------|----------------------------|
----------------------------|----------------------------|
----------------------------|----------------------------|
--1--0--1--3-----0--1--4L---|--4--0--1--3-----0--1--1----|
--1--0--1--3-----0--1--4L---|--4--0--1--3-----0--1-------|


----------------------------|----------------------------|
----------------------------|----------------------------|
----------------------------|----------------------------|
----------------------------|----------------------------|
--1--0--1--3-----0--1--4L---|--4--0--1--3-----0----------|
--1--0--1--3-----0--1--4L---|--4--0--1--3-----0--3~------|


----------------------------------------------------|
----------------------------------------------------|
----------------------------------------------------|
--------------------------1-----3-----1-------------|
--0-----------------------1L----1-------------------|
--0-----------0--0--0--0--1L----1-----------0L------|


----------------------------------------------------|
----------------------------------------------------|
----------------------------------------------------|
--------------4-----------4--5--4-----------4-------|
--------5-----------5-----------------5-------------|
--0-------------------------------------------------|


----------------------------------------------------|
----------------------------------------------------|
----------------------------------------------------|
--------------------------1-----3-----1-------------|
--0-----------------------1L----1-------------------|
--0-----------0--0--0--0--1L----1-----------0L------|


----------------------------------------------------|
----------------------------------------------------|
----------------------------------------------------|
--------------4-----------4--5--4-----------4-------|
--------5-----------5-----------------5-------------|
--0-------------------------------------------------|


----------------------------------------------------|
----------------------------------------------------|
--7-----------------------7-----------------6L------|
--5-----------------------5-----------------4L------|
--5-----------------------5-----------------4L------|
--5-----------5--5--5--5--5-----5-----5-----4L------|


----------------------------------------------------|
----------------------------------------------------|
--6-----------6-----------6--7--6-----------6-------|
--4-----4-----------4-----------------4-------------|
--4-------------------------------------------------|
--4-------------------------------------------------|


----------------------------------------------------|
----------------------------------------------------|
--7-----------------------7-----------------6L------|
--5-----------------------5-----------------4L------|
--5-----------------------5-----------------4L------|
--5-----------5--5--5--5--5-----5-----5-----4L------|


----------------------------------------------------|
----------------------------------------------------|
--6-----------6-----------6--7--6-----------6-------|
--4-----4-----------4-----------------4-------------|
--4-------------------------------------------------|
--4-------------------------------------------------|


----------------------------------------------------|
----------------------------------------------------|
--7-----------------------------------7-------------|
----------------------------------------------------|
--5-----------------------------------5-------------|
--------------0--0--0--0--0--0--0--0----------------|


----------------------------------------------------|
----------------------------------------------------|
--------------------------7-----------7-------------|
----------------------------------------------------|
--------------------------5-----------5-------------|
--0--0--0--0--0--0--0--0--------0--0--------0--0----|


----------------------------------------------------|
----------------------------------------------------|
--6-----------------------------------9-------------|
----------------------------------------------------|
--4-----------------------------------7-------------|
--------------0--0--0--0--0--0--0--0----------------|


----------------------------------------------------|
----------------------------------------------------|
--------------------------10-------10-------10------|
----------------------------------------------------|
--------------------------8--------8--------8-------|
--0--0--0--0--0--0--0--0----------------------------|


----------------------------------------------------|
----------------------------------------------------|
--7-----------------------------------7-------------|
----------------------------------------------------|
--5-----------------------------------5-------------|
--------------0--0--0--0--0--0--0--0----------------|


----------------------------------------------------|
----------------------------------------------------|
--------------------------7-----------7-------------|
----------------------------------------------------|
--------------------------5-----------5-------------|
--0--0--0--0--0--0--0--0--------0--0--------0--0----|


----------------------------------------------------|
----------------------------------------------------|
--6-----------------------------------3-------------|
----------------------------------------------------|
--4-----------------------------------1-------------|
--------------0--0--0--0--0--0--0--0----------------|


----------------------------------------------------|
----------------------------------------------------|
----------------------------------------------------|
--------------------------4-----4-----4-----4-------|
----------------------------------------------------|
--0--0--0--0--0--0--0--0--4-----4-----4-----4-------|


----------------------------------------------------|
----------------------------------------------------|
--7-----------------------------------7-------------|
----------------------------------------------------|
--5-----------------------------------5-------------|
--------------0--0--0--0--0--0--0--0----------------|


----------------------------------------------------|
----------------------------------------------------|
--------------------------7-----------7-------------|
----------------------------------------------------|
--------------------------5-----------5-------------|
--0--0--0--0--0--0--0--0--------0--0--------0--0----|


----------------------------------------------------|
----------------------------------------------------|
--6-----------------------------------9-------------|
----------------------------------------------------|
--4-----------------------------------7-------------|
--------------0--0--0--0--0--0--0--0----------------|


----------------------------------------------------|
----------------------------------------------------|
--------------------------10-------10-------10------|
----------------------------------------------------|
--------------------------8--------8--------8-------|
--0--0--0--0--0--0--0--0----------------------------|


----------------------------------------------------|
----------------------------------------------------|
--7-----------------------------------7-------------|
----------------------------------------------------|
--5-----------------------------------5-------------|
--------------0--0--0--0--0--0--0--0----------------|


----------------------------------------------------|
----------------------------------------------------|
--------------------------7-----------7-------------|
----------------------------------------------------|
--------------------------5-----------5-------------|
--0--0--0--0--0--0--0--0--------0--0--------0--0----|


----------------------------------------------------|
----------------------------------------------------|
--6-----------------------------------3-------------|
----------------------------------------------------|
--4-----------------------------------1-------------|
--------------0--0--0--0--0--0--0--0----------------|


----------------------------------------------------|
----------------------------------------------------|
----------------------------------------------------|
----------------------------------------------------|
----------------------------------------------------|
--0--0--0--0--0--0--0--0--10s-----------------------|


----------------------------------------------------|
----------------------------------------------------|
----------------------------------------------------|
--4s------------------------------------------------|
--3s------------------------------------------------|
--------------0--0--0-----0--0--0-----0--0--0-------|


----------------------------------------------------|
----------------------------------------------------|
----------------------------------------------------|
----------------------------------------------------|
--------------------------2-----------1-------------|
--0--0--0-----0--0--0-----------3-----------2-------|


----------------------------------------------------|
----------------------------------------------------|
----------------------------------------------------|
--0-------------------------------------------------|
--0-------------------------------------------------|
--------------0--0--0-----0--0--0-----0--0--0-------|


----------------------------|
----------------------------|
----------------------------|
----------------------------|
-----------1-----------2----|
--0--1--2-----0--2--3-------|


----------------------------------------------------|
----------------------------------------------------|
----------------------------------------------------|
--4s------------------------------------------------|
--3s------------------------------------------------|
--------------0--0--0-----0--0--0-----0--0--0-------|


----------------------------------------------------|
----------------------------------------------------|
----------------------------------------------------|
----------------------------------------------------|
--------------------------2-----------1-------------|
--0--0--0-----0--0--0-----------3-----------2-------|


----------------------------------------------------|
----------------------------------------------------|
----------------------------------------------------|
--0-------------------------------------------------|
--0-------------------------------------------------|
--------------0--0--0-----0--0--0-----0--0--0-------|


----------------------------|
----------------------------|
----------------------------|
----------------------------|
-----------1-----------2----|
--0--1--2-----0--2--3-------|


----------------------------------------------------|
----------------------------------------------------|
----------------------------------------------------|
--4s------------------------------------------------|
--3s------------------------------------------------|
--------------0--0--0-----0--0--0-----0--0--0-------|


----------------------------------------------------|
----------------------------------------------------|
----------------------------------------------------|
----------------------------------------------------|
--------------------------2-----------1-------------|
--0--0--0-----0--0--0-----------3-----------2-------|


----------------------------------------------------|
----------------------------------------------------|
----------------------------------------------------|
--0-------------------------------------------------|
--0-------------------------------------------------|
--------------0--0--0-----0--0--0-----0--0--0-------|


----------------------------|
----------------------------|
----------------------------|
----------------------------|
-----------1-----------2----|
--0--1--2-----0--2--3-------|


----------------------------------------------------|
----------------------------------------------------|
----------------------------------------------------|
--4s------------------------------------------------|
--3s------------------------------------------------|
--------------0--0--0-----0--0--0-----0--0--0-------|


----------------------------------------------------|
----------------------------------------------------|
----------------------------------------------------|
----------------------------------------------------|
--------------------------2-----------1-------------|
--0--0--0-----0--0--0-----------3-----------2-------|


----------------------------------------------------|
----------------------------------------------------|
----------------------------------------------------|
--0-------------------------------------------------|
--0-------------------------------------------------|
--------------0--0--0-----0--0--0-----0--0--0-------|


----------------------------|
----------------------------|
----------------------------|
----------------------------|
-----------1-----------2----|
--0--1--2-----0--2--3-------|


----------------------------------------------------|
----------------------------------------------------|
----------------------------------------------------|
--------------------------1-----3-----1-------------|
--0-----------------------1L----1-------------------|
--0-----------0--0--0--0--1L----1-----------0L------|


----------------------------------------------------|
----------------------------------------------------|
----------------------------------------------------|
--------------4-----------4--5--4-----------4-------|
--------5-----------5-----------------5-------------|
--0-------------------------------------------------|


----------------------------------------------------|
----------------------------------------------------|
----------------------------------------------------|
--------------------------1-----3-----1-------------|
--0-----------------------1L----1-------------------|
--0-----------0--0--0--0--1L----1-----------0L------|


----------------------------------------------------|
----------------------------------------------------|
----------------------------------------------------|
--------------4-----------4--5--4-----------4-------|
--------5-----------5-----------------5-------------|
--0-------------------------------------------------|


----------------------------------------------------|
----------------------------------------------------|
--7-----------------------7-----------------6L------|
--5-----------------------5-----------------4L------|
--5-----------------------5-----------------4L------|
--5-----------5--5--5--5--5-----5-----5-----4L------|


----------------------------------------------------|
----------------------------------------------------|
--6-----------6-----------6--7--6-----------6-------|
--4-----4-----------4-----------------4-------------|
--4-------------------------------------------------|
--4-------------------------------------------------|


----------------------------------------------------|
----------------------------------------------------|
--7-----------------------7-----------------6L------|
--5-----------------------5-----------------4L------|
--5-----------------------5-----------------4L------|
--5-----------5--5--5--5--5-----5-----5-----4L------|


----------------------------------------------------|
----------------------------------------------------|
--6-----------6-----------6--7--6-----------6-------|
--4-----4-----------4-----------------4-------------|
--4-------------------------------------------------|
--4-------------------------------------------------|


----------------------------------------------------|
----------------------------------------------------|
----------------------------------------------------|
--------------------------1-----------3-------------|
--0-----------------------1L----------1-------------|
--0-----------0--0--0--0--1L----------1-----0L------|


----------------------------|
----------------------------|
----------------------------|
--------------4-----4--5----|
-----------------5----------|
--0--0--0-------------------|


----------------------------------------------------|
----------------------------------------------------|
----------------------------------------------------|
--------------------------1-----------3-------------|
--0-----------------------1L----------1-------------|
--0-----------0--0--0--0--1L----------1-----0L------|


----------------------------|
----------------------------|
----------------------------|
--------------4-----4--5----|
-----------------5L-5L-5----|
--0--0--0-------------------|


----------------------------------------------------|
----------------------------------------------------|
----------------------------------------------------|
----------------------------------------------------|
--3-----------3--3--3--3--3-----3-----3-----2L------|
--3-----------3--3--3--3--3-----3-----3-----2L------|


----------------------------|
----------------------------|
----------------------------|
----------------------------|
--2--2--2--2--1--1--1--1----|
--2--2--2--2--1--1--1--1----|


----------------------------------------------------|
----------------------------------------------------|
----------------------------------------------------|
--------------------------1-----------3-------------|
--0-----------------------1L----------1-------------|
--0-----------0--0--0--0--1L----------1-----0L------|


----------------------------|
----------------------------|
----------------------------|
--------------4-----4--5----|
-----------------5----------|
--0--0--0-------------------|


----------------------------------------------------|
----------------------------------------------------|
----------------------------------------------------|
--------------------------1-----------3-------------|
--0-----------------------1L----------1-------------|
--0-----------0--0--0--0--1L----------1-----0L------|


----------------------------|
----------------------------|
----------------------------|
--------------4-----4--5----|
-----------------5----------|
--0--0--0-------------------|


----------------------------------------------------|
----------------------------------------------------|
----------------------------------------------------|
--------------------------1-----------3-------------|
--0-----------------------1L----------1-------------|
--0-----------0--0--0--0--1L----------1-----0L------|


----------------------------|
----------------------------|
----------------------------|
--------------4-----4--5----|
-----------------5L-5L-5----|
--0--0--0-------------------|


----------------------------------------------------|
----------------------------------------------------|
----------------------------------------------------|
----------------------------------------------------|
--3-----------3--3--3--3--3-----3-----3-----2L------|
--3-----------3--3--3--3--3-----3-----3-----2L------|


----------------------------|
----------------------------|
----------------------------|
----------------------------|
--2--2--2--2--1--1--1--1----|
--2--2--2--2--1--1--1--1----|


----------------------------------------------------|
----------------------------------------------------|
----------------------------------------------------|
--------------------------1-----------3-------------|
--0-----------------------1L----------1-------------|
--0-----------0--0--0--0--1L----------1-----0L------|


----------------------------||
----------------------------||
----------------------------||
--------------4-----4--5----||
-----------------5----------||
--0--0--0-------------------||
comments
We did not receive enough feedback on this tab! Please rate:
print report bad tab
1 2 3 4 5
I want to post or [tab]
guest
You may want to rate the tab now too:
select rating
Please do not post tabs as comments. Select "correction" instead!