Oops, an error
Loading. Please wait.

Scent Of Divine Blood Bass Tab

72 views 1 this week
no commentswrite comment
1 2 3 4 5
please rate
add to favorites launch autoscroll
font size
0
reset
Autoscroll
+/-
esc
set tempo
stop
Contributor
WARNING: You are trying to view
                                    content from Ultimate-Guitar.com
                                    in an unauthorized application,
                                    which is prohibited.

                                    Please use an official Ultimate
                                    Guitar Tabs application for iPhone,
                                    iPad or Android to access legitimate
                                    chords, guitar, bass, and drum tabs
                                    from Ultimate-Guitar.com database.

                                    Type "ultimate guitar tabs" in Apple
                                    App Store's or Android Market's
                                    search to find the application.
                          Scent of Divine Blood (Bass Line)
                                Recorded by Fearscape
                                  www.fearscape.com

Words by: Matthew Brown
Music by: Fearscape
Tabbed by: PRB75

Standard tuning:

4/4 (130 bpm)
Intro: (Bass enters at 1:00)
G||------------------|---------------------|---------------------|
D||o---9---9---9---9-|---9---9---9---9---9-|---10---10---10---10-|
A||o-7---7---7---7---|-7---7---7---7---7---|-7----7----7----7----|
E||------------------|---------------------|---------------------|
                    
                    4x   6/8  (hold for 7 bars)
G|--------------------||   ||---------------------|---------------------|
D|-------------------o||   ||---------------------|---------------------|
A|---9---9---10---10-o||   ||-7-------------------|-(7)--------------7\-|
E|-8---8---8----8-----||   ||-0-------------------|-(0)-----------------| 

Intro 2: (faster 195 bpm)
G||--------------|----------------|-------------|---------------|
D||o-------------|----------------|-------------|-10-9-7--------|
A||o-------9-9-9-|-------10-10-10-|-------------|--------10-9-7-|
E||--0-0-0-------|-0-0-0----------|-8-8-8-7-7-7-|---------------|

G|----------------|-------------|-------------|-------------|
D|----------------|-------------|-------------|-------------|
A|-------10-10-10-|-------9-9-9-|-------------|-8-8-8-9-9-9-|
E|-0-0-0----------|-0-0-0-------|-8-8-8-7-7-7-|-------------|
 _______________
 1.
G|-------------|----------------|-------------|---------------|
D|-------------|----------------|-------------|-10-9-7--------|
A|-------9-9-9-|-------10-10-10-|-------------|--------10-9-7-|
E|-0-0-0-------|-0-0-0----------|-8-8-8-7-7-7-|---------------|
 
G|----------------|-------------|-------------|--------------||
D|----------------|-------------|-------------|-------------o||
A|-------10-10-10-|-------9-9-9-|-------------|-8-8-8-9-9-9-o||
E|-0-0-0----------|-0-0-0-------|-8-8-8-7-7-7-|--------------||
  _____________
  2.
G|-------------|----------------|-------------|-------------|
D|-------------|----------------|-------------|-------------|
A|-------9-9-9-|-------10-10-10-|-8-8-8-9-9-9-|-------------|
E|-0-0-0-------|-0-0-0----------|-------------|-3-3-3-1-1-1-|


Verse: 1
G||-----------------|--------------|----------------|---------------|
D||o-------10-10-10-|-9-9-9-7------|-------10-10-10-|--------8-7----|
A||o-7-7-7----------|---------10-9-|-7-7-7----------|-7-9-10-----10-|
E||-----------------|--------------|----------------|---------------|

G|----------------|--------------|----------------|---------------|
D|-------10-10-10-|-9-9-9-7------|-------10-10-10-|------8-10-9-7-|
A|-7-7-7----------|---------10-9-|-7-7-7----------|-7-10----------|
E|----------------|--------------|----------------|---------------|

G|----------------|----------------|----------------|----------------|
D|----------------|------7-9-12-11-|----------------|------7-9-12-11-|
A|-7-7-7-10-10-10-|-7-10-----------|-7-7-7-10-10-10-|-7-10-----------|
E|----------------|----------------|----------------|----------------|

G|------------------|-------------|----------------|-------------||
D|-10---10-10-10-10-|-8---8-8-8-8-|----------------|------------o||
A|------------------|-------------|-10---10-8------|------------o||
E|------------------|-------------|-----------10-8-|-3-----1-----||

Instrumental:
G||--------------|-------------|-------------|-------------|
D||o-------------|-------------|-------------|-------5-----|
A||o-------3-3-3-|-2-----5-8-7-|-------3-3-3-|-5-7-8---8-7-|
E||--0-0-0-------|---0-0-------|-0-0-0-------|-------------|

G|-------------|-------------|-------------|--------------||
D|-------------|-------2-3-5-|-7-7-7-5-5-5-|-----5-------o||
A|-------3-3-3-|-2-3-5-------|-------------|-8-7---8-7-5-o||
E|-0-0-0-------|-------------|-------------|--------------||

Verse: 2
G||-----------------|--------------|----------------|---------------|
D||o-------10-10-10-|-9-9-9-7------|-------10-10-10-|--------8-7----|
A||o-7-7-7----------|---------10-9-|-7-7-7----------|-7-9-10-----10-|
E||-----------------|--------------|----------------|---------------|

G|----------------|--------------|----------------|---------------|
D|-------10-10-10-|-9-9-9-7------|-------10-10-10-|------8-10-9-7-|
A|-7-7-7----------|---------10-9-|-7-7-7----------|-7-10----------|
E|----------------|--------------|----------------|---------------|

G|----------------|----------------|----------------|----------------|
D|----------------|------7-9-12-11-|----------------|------7-9-12-11-|
A|-7-7-7-10-10-10-|-7-10-----------|-7-7-7-10-10-10-|-7-10-----------|
E|----------------|----------------|----------------|----------------|
 ____________________
 1.
G|------------------|-------------|----------------|-------------||
D|-10---10-10-10-10-|-8---8-8-8-8-|----------------|------------o||
A|------------------|-------------|-10---10-8------|------------o||
E|------------------|-------------|-----------10-8-|-3-----1-----||
 _______________________
 2.
G|-------------|-------------|-------------|-------------|
D|-------------|-------------|-------------|-------------|
A|-3-3-3-3-----|-3-3-3-3-----|-3-3-3-3-----|-------------|
E|-------------|-------------|-------------|-3-----1-----|

Chorus: 1
G||--------------|-------------|----------------12-|-12-12----12-12----|
D||o-------------|-------------|-------------12----|-------12-------12-|
A||o-------------|-----7-7-7-7-|-10-10-10-10-------|-------------------|
E||--0-0-0-0-0-0-|-0-0---------|-------------------|-------------------|

G|-------------|-------------|------------11-|-11-11----11-11----|
D|12\----------|-------------|---------11----|-------11-------11-|
A|-------------|-----7-7-7-7-|-9-9-9-9-------|-------------------|
E|---0-0-0-0-0-|-0-0---------|---------------|-------------------|

G|-------------|-------------|-------------|---------------|
D|11\----------|-------------|-------------|--------7------|
A|-------------|-7-7-7-7-7-7-|-6-6-6-6-6-6-|-7-9-10---10-9-|
E|---0-0-0-0-0-|-------------|-------------|---------------|
                                                          
                                                          3x
G|-------------|-------------|-------------|--------------||
D|-------------|-------------|-------------|-------------o||
A|-3-3-3-3-3-3-|-2-2-2-2-2-2-|-------------|-5-3-2-------o||
E|-------------|-------------|-3-3-3-3-3-3-|-------5-3-2--||

Break: (bass tapping) t = right hand  T = left hand
G|---------16------|---------16------|--------16------|
D|o---9-14---------|----9-14---------|---9-14---------|
A|o-7--------------|--7--------------|-7--------------|
E|-----------------|-----------------|----------------|
   T T t  t           T T t  t         T T t  t

G|---------------|--------16------|--------16------|--------16------|
D|---9-14---9-14-|---9-14---------|---9-14---------|---9-14---------|
A|-7------7------|-7--------------|-7--------------|-7--------------|
E|---------------|----------------|----------------|----------------|
   T T t  T T t    T T t  t         T T t  t (sim)        

G|---------------|--------16------|--------16------|--------16------|
D|---9-14---9-14-|---9-14---------|---9-14---------|---9-14---------|
A|-7------7------|-7--------------|-7--------------|-7--------------|
E|---------------|----------------|----------------|----------------|

G|---------------|---------------|---------------|---------------|
D|---9-14---9-14-|---7-12---7-12-|---7-12---7-12-|---8-13---8-13-|
A|-7------7------|-5------5------|-5------5------|-6------6------|
E|---------------|---------------|---------------|---------------|                               
                 
                 5x
G|---------------||
D|---8-13---8-13o||
A|-6------6-----o||
E|---------------||

                                                        (end tapping)  3x
G||---------16------|--------16------|--------16------|----------------||
D||o---9-14---------|---9-14---------|---9-14---------|---9-14---9-14-o||
A||o-7--------------|-7--------------|-7--------------|-7------7------o||
E||-----------------|----------------|----------------|----------------||

G|-------------|-------------|-------------|-------------|
D|-------------|-------------|-------------|-------------|
A|-5-5-5-5-5-5-|-5-5-5-5-5-5-|-5-5-5-5-5-5-|-5-5-5-5-5-5-|
E|-------------|-------------|-------------|-------------|

G|-------------|-------------|------------------------------------|
D|-------------|-------------|------------------------------------|
A|-6-6-6-6-6-6-|-6-6-6-6-6-6/|19-19-19-19-19-19-19-19-19-19-19-19-|
E|-------------|-------------|------------------------------------|

G|-------------------------------||
D|-------------------------------||
A|-19-19-19-19-19-19-19-19-19\---||
E|-------------------------------||

Verse: 3
G||-----------------|--------------|----------------|---------------|
D||o-------10-10-10-|-9-9-9-7------|-------10-10-10-|--------8-7----|
A||o-7-7-7----------|---------10-9-|-7-7-7----------|-7-9-10-----10-|
E||-----------------|--------------|----------------|---------------|

G|----------------|--------------|----------------|---------------|
D|-------10-10-10-|-9-9-9-7------|-------10-10-10-|------8-10-9-7-|
A|-7-7-7----------|---------10-9-|-7-7-7----------|-7-10----------|
E|----------------|--------------|----------------|---------------|

G|----------------|----------------|----------------|----------------|
D|----------------|------7-9-12-11-|----------------|------7-9-12-11-|
A|-7-7-7-10-10-10-|-7-10-----------|-7-7-7-10-10-10-|-7-10-----------|
E|----------------|----------------|----------------|----------------|

G|------------------|-------------|----------------|-------------||
D|-10---10-10-10-10-|-8---8-8-8-8-|----------------|------------o||
A|------------------|-------------|-10---10-8------|------------o||
E|------------------|-------------|-----------10-8-|-3-----1-----||

Instrumental:
G||--------------|-------------|-------------|-------------|
D||o-------------|-------------|-------------|-------5-----|
A||o-------3-3-3-|-2-----5-8-7-|-------3-3-3-|-5-7-8---8-7-|
E||--0-0-0-------|---0-0-------|-0-0-0-------|-------------|

G|-------------|-------------|-------------|--------------||
D|-------------|-------2-3-5-|-7-7-7-5-5-5-|-----5-------o||
A|-------3-3-3-|-2-3-5-------|-------------|-8-7---8-7-5-o||
E|-0-0-0-------|-------------|-------------|--------------||

Verse: 4 (same as verse: 3)

Pre Chorus:
G|----------|-----|-----|-----|-----|-----|-----|
D|----------|-----|-----|-----|-----|-----|-----|
A|----------|-----|-----|-----|-----|-----|-----|
E|-0--------|-----|-----|-----|-----|-----|-----|

G|--------------|----------|-----|-----|-----|-----|-----|-----|
D|--------------|----------|-----|-----|-----|-----|-----|-----|
A|-----7-9h10p9-|-7\-------|-----|-----|-----|-----|-----|-----|
E|--------------|----------|-----|-----|-----|-----|-----|-----|

G|-------------||-------------|----------------|---------------|
D|-------------||o------------|----------------|---------------|
A|-------------||o------------|-------10-10-10-|-9-------------|
E|-----0-2h3p2-||-0---0-0-0-0-|-0---0----------|-----0-0-0-0-0-|

G|-------------|-------------|-------------|-------------|--------------||
D|-------------|-------------|-------------|-------------|-------------o||
A|-------6-6-6-|-7-----------|-------3-3-3-|-2-----------|-------------o||
E|-0---0-------|-----0-0-0-0-|-0---0-------|-----0-0-0-0-|-0---0-2h3p2--||

Chorus: 2
G||---------------|---------------|-------------|-------------|
D||o--------------|---------------|-------------|-------------|
A||o-------10-----|-10-----10-9-9-|-------6-----|-6-----6-7-7-|
E||--0-0-0------0-|------0--------|-0-0-0-----0-|-----0-------|

G|-------------|-------------|-------------|-------------|
D|-------------|-------------|-------------|-------------|
A|-------3-----|-3-----3-2-2-|-------------|-------------|
E|-0-0-0-----0-|-----0-------|-0---0-2---2-|-3---0-2h3p2-|

G|--------------|---------------|-------------|-------------|
D|--------------|---------------|-------------|-------------|
A|-------10-----|-10-----10-9-9-|-------6-----|-6-----6-7-7-|
E|-0-0-0------0-|------0--------|-0-0-0-----0-|-----0-------|

G|-------------|-------------|-------------|--------------||
D|-------------|-------------|-------------|-------------o||
A|-------3-----|-3-----3-2-2-|-------------|-------------o||
E|-0-0-0-----0-|-----0-------|-3---3-3-3-3-|-2---2-2-2-2--||

 (faster)4/4
G||------------------|---------------------|-------------------------|
D||o-----------------|---------------------|-------------------------|
A||o-----------------|-10-10-10-10---------|-10-10-10-10-10-10-10-10-|
E||--0-0-0-0-0-0-0-0-|-------------0-0-0-0-|-------------------------|

G|-----------------|-----------------|-----------------|
D|-----------------|-----------------|-----------------|
A|-9-9-9-9-9-9-9-9-|-----------------|-6-6-6-6---------|
E|-----------------|-0-0-0-0-0-0-0-0-|---------0-0-0-0-|

G|-----------------|-----------------------------------|
D|-----------------|-----------------|-----------------|
A|-6-6-6-6-6-6-6-6-|-7-7-7-7-7-7-7-7-|-----------------|
E|-----------------|-----------------|-0-0-0-0-0-0-0-0-|

G|-----------------|-----------------|-----------------|
D|-----------------|-----------------|-----------------|
A|-3-3-3-3---------|-3-3-3-3-3-3-3-3-|-2-2-2-2-2-2-2-2-|
E|---------0-0-0-0-|-----------------|-----------------|

(Triplet feel for next 3 1/2 bars)
G|-------------------------|-------------------------|
D|-------------------------|-------------------------|
A|-------------------------|-------------------------|
E|-0-0-0-0-0-0-2-2-2-2-2-2-|-3-3-3-3-3-3-0-0-0-0-0-0-|

G|-------------------------|-------------------------||
D|-------------------------|------------------------o||
A|-------------------------|------------------------o||
E|-3-3-3-3-3-3-5-5-5-5-5-5-|-0-0-0-0-0-0-6--6--6--6--||

Instrumental:
G||-------------------|---------------------|-----------------|
D||o------------------|---------------------|-----------------|
A||o---------10-------|-10-10-10-10-9-9-9-9-|---------6-------|
E||--0-0-0-0------0---|---------------------|-0-0-0-0-----0---|

G|-----------------|-----------------|-----------------|
D|-----------------|-----------------|-----------------|
A|-6-6-6-6-7-7-7-7-|---------3-------|-3-3-3-3-2-2-2-2-|
E|-----------------|-0-0-0-0-----0---|-----------------|

G|-------------|-------------||--------------|----------------|
D|-------------|------------0||--------------|----------------|
A|-------------|------------0||----9--10-----|-10--12-----13--|
E|-0--2--3--0--|-3--5--0--6--||-0---------0--|---------0------|

Outro:                                                          8x
G||---------------|--------------|--------------|---------------||
D||o--------------|--------------|--------------|--------------0||
A||o-------10-----|-9---------7--|-------10-----|-9---------7--0||
E||--0--7------0--|----10--0-----|-0--7------0--|----10--0------||

G||------------------|-----------------|-----------------|
D||o-----------------|-----------------|-----------------|
A||o-----------------|-----------------|-9-9-9-9-9-9-9-9-|
E||--0-0-0-0-0-0-0-0-|-7-7-7-7-7-7-7-7-|-----------------|

G|-------------------------|-----------------|-----------------|
D|-------------------------|-----------------|-----------------|
A|-10-10-10-10-10-10-10-10-|-----------------|-----------------|
E|-------------------------|-8-8-8-8-8-8-8-8-|-8-8-8-8-8-8-8-8-|

G|-----------------|-----------------|-----------------|-----------------|
D|-----------------|-----------------|-----------------|-----------------|
A|-----------------|-----------------|-----------------|-----------------|
E|-8-8-8-8-8-8-8-8-|-8-7-7-7-7-7-7-7-|-0-0-0-0-0-0-0-0-|-7-7-7-7-7-7-7-7-|

G|-----------------|-------------------------|-------------------------|
D|-----------------|-------------------------|-------------------------|
A|-9-9-9-9-9-9-9-9-|-10-10-10-10-10-10-10-10-|-12-12-12-12-12-12-12-12-|
E|-----------------|-------------------------|-------------------------|

G|-------------------------|-------------------------|-------------------||
D|-------------------------|-------------------------|------------------o||
A|-12-12-12-12-12-12-12-12-|-12-10-10-10-10-10-10-10-|-10-9-9-9-9-9-9-9-o||
E|-------------------------|-------------------------|-------------------||

Final Outro:
G||--------------|-------------|-------------|--------------|-------------|
D||o-------------|-------------|-------------|--------------|-------------|
A||o-------------|-------------|-9-----------|-10-----------|-10----------|
E||--0--0--0--0--|-7--7--7--7--|-7--7--7--7--|-7--7--7--7---|-8--8--8--8--|

G|-------------|-------------|-------------|
D|-------------|-------------|-------------|
A|-------------|-------------|-------------|
E|-8--8--8--8--|-8--8--8--8--|-8--7--7--7--|

G|-------------|-------------|-------------|--------------|
D|-------------|-------------|-------------|--------------|
A|-------------|-------------|-9-----------|-10-----------|
E|-0--0--0--0--|-7--7--7--7--|-7--7--7--7--|-7--7--7--7---|
  ___________________
  1.
G|-----------------|-----------------|--------------|--------------||
D|-----------------|-----------------|--------------|-------------o||
A|-12--------------|-----------------|--------------|-------------o||
E|-10--10--10--10--|-10--10--10--10--|-10--3--3--3--|-3--2--2--2---||
  _________________
  2.
G|----------|------------|------------|---------|-----------||
D|----------|------------|------------|---------|-----------||
A|-12-------|-10----9----|-10----9----|---------|-----------||
E|----------|------------|------------|-10------|-(10)------||
comments
We did not receive enough feedback on this tab! Please rate:
1 2 3 4 5
I want to post or [tab]
guest
You may want to rate the tab now too:
select rating
Please do not post tabs as comments. Select "correction" instead!