Oops, an error
Loading. Please wait.

The Cost Of Living Tab

509 views 1 this week
no commentswrite comment
1 2 3 4 5
excellent!
x 1
Autoscroll
+/-
esc
set tempo
stop
Contributor
Difficulty
Tuning
advanced
D A D G B E
Hey! There's an official Ultimate Guitar app which is ideal
for learning songs when you're away from computer. Get the app
WARNING: You are trying to view
                                    content from Ultimate-Guitar.com
                                    in an unauthorized application,
                                    which is prohibited.

                                    Please use an official Ultimate
                                    Guitar Tabs application for iPhone,
                                    iPad or Android to access legitimate
                                    chords, guitar, bass, and drum tabs
                                    from Ultimate-Guitar.com database.

                                    Type "ultimate guitar tabs" in Apple
                                    App Store's or Android Market's
                                    search to find the application.
Fei Comodo
The Cost Of Living
Guitar Tab
Drop D Tuning - DADGBE
Tabbed By Jonathan Mack


. Palm Mute
x Muted String (Dead Note)
h Hammer On
p Pull Off
R Ring Out (Hold Note)
/ Slide Up
\ Slide Down
v Vibrato
* Pinch Harmonic
t Tremelo



Intro


Rhythm Guitar
0:00
|-------------------------------------|---------------------------------|
|-------------------------------------|---------------------------------|
|-------------------------------------|---------------------------------|
|--------0h5h7---8---5---7---3---5---0|----0h5h7-----------8---7---5-7\\| x2
|-------------------------------------|------------0h5h7----------------|
|3-0-0-0-------0---0---0---0---0---0--|0-0-------0-------0---0---0------|
     . .       .   .   .   .   .   .   . .       .       .   .   .

0:09
|-------------------------------------|---------------------------------|
|-------------------------------------|---------------------------------|
|-------------------------------------|---------------------------------|
|--------0h5h7---8---5---7---3---5---0|----0h5h7-----------8---7---5-7\\| x1
|3------------------------------------|------------0h5h7----------------|
|3---0-0-------0---0---0---0---0---0--|0-0-------0-------0---0---0------|
     . .       .   .   .   .   .   .   . .       .       .   .   .

0:13
|-------------------------------------|---------------------------------|
|-------------------------------------|---------------------------------|
|-------------------------------------|---------------------------------|
|--------0h5h7---8---5---7---3---5---0|----0h5h7-----------8---7---5-7\\| x1
|-------------------------------------|------------0h5h7----------------|
|3-0-0-0-------0---0---0---0---0---0--|0-0-------0-------0---0---0------|
     . .       .   .   .   .   .   .   . .       .       .   .   .

Lead Guitar
0:00
|-------------------------------------|---------------------------------|
|-------------------------------------|---------------------------------|
|-------------------------------------|---------------------------------|
|--------0h5h7---8---5---7---3---5---0|----0h5h7-----------8---7---5-7\\| x2
|-------------------------------------|------------0h5h7----------------|
|3-0-0-0-------0---0---0---0---0---0--|0-0-------0-------0---0---0------|
     . .       .   .   .   .   .   .   . .       .       .   .   .

0:09
|-------------------------------------|---------------------------------|
|-------------------------------------|---------------------------------|
|--------0h3h5---7---3---5---2---3---0|----0h3h5-----------7---5---3-5\\|
|-------------------------------------|------------0h3h5----------------| x1
|3------------------------------------|---------------------------------|
|3---0-0-------0---0---0---0---0---0--|0-0-------0-------0---0---0------|
     . .       .   .   .   .   .   .   . .       .       .   .   .
0:13
|-------------------------------------|---------------------------------|
|-------------------------------------|---------------------------------|
|--------0h3h5---7---3---5---2---3---0|----0h3h5-----------7---5---3-5\\|
|-------------------------------------|------------0h3h5----------------| x1
|-------------------------------------|---------------------------------|
|3-0-0-0-------0---0---0---0---0---0--|0-0-------0-------0---0---0------|
     . .       .   .   .   .   .   .   . .       .       .   .   .


Verse One


Rhythm Guitar
0:18
|--------------------------------|
|--------------------------------|
|--------------------------------|
|---------------7h8p7---5---3---7| x2
|----0-0-0--0-0------------------|
|3-0-0-0-0--0-0-------0---0---0--|
     . . .  . .       .   .   .

0:22
|-------------------------------|----------------------|
|-------------------------------|----------------------|
|-------------------------------|----------------------|
|----------------8\7---5--------|----8--8-8-12p10-8-7-8| x1
|----5-5-5-5-5-5-----------8---7|----8--8-8------------|
|3-5-5-5-5-5-5-5-----5---5---5--|5-5-8--8-8------------|
     . . . . . .    .   .   .    . .    

0:27
|----------------------|--------------------------------|
|----------------------|--------------------------------|
|----------------------|--------------------------------|
|-----7h8p7---5---3---7|---------------7h8p7---5---3---7| x1
|----------------------|0-0-0-0-0--0-0------------------|
|0-0--------0---0---0--|0-0-0-0-0--0-0-------0---0---0--|
            .   .   .   . . . . .  . .       .   .   .

0:31
|-------------------------------|----------------------|
|-------------------------------|----------------------|
|-------------------------------|----------------------|
|----------------8\7---5--------|----8--8-8-12p10-8-7--| x1
|----5-5-5-5-5-5-----------8---7|----8--8-8------------|
|3-5-5-5-5-5-5-5-----5---5---5--|5-5-8--8-8------------|
     . . . . . .    .   .   .    . .                    

Lead Guitar
0:18
|--------------------------------|--------------------------------|
|--------------------------------|--------------------------------|
|--------------------------------|---------------5h7p5---3---2---5|
|---------------7h8p7---5---3---7|--------------------------------| x1
|----0-0-0--0-0------------------|----0-0-0--0-0------------------|
|3-0-0-0-0--0-0-------0---0---0--|3-0-0-0-0--0-0-------0---0---0--|
     . . .  . .       .   .   .       . . .  . .       .   .   .

0:22
|-------------------------------|----------------------|
|-------------------------------|----------------------|
|-------------------------------|----------------------|
|----------------8\7---5--------|----8--8-8------------| x1
|----5-5-5-5-5-5-----------8---7|----8--8-8-8p7-5-3----|
|3-5-5-5-5-5-5-5-----5---5---5--|5-5-8--8-8------------|
     . . . . . .    .   .   .    . .    

0:27
|----------------------|--------------------------------|
|----------------------|--------------------------------|
|----------------------|---------------5h7p5---3---2---5|
|-----7h8p7---5---3---7|--------------------------------| x1
|----------------------|0-0-0-0-0--0-0------------------|
|0-0--------0---0---0--|0-0-0-0-0--0-0-------0---0---0--|
            .   .   .   . . . . .  . .       .   .   .

0:31
|---------------------------------|----------------------|
|---------------------------------|----------------------|
|---------------------------------|----------------------|
|------------------8\7---5--------|----8--8-8------------| x1
|----5-5-5-5-5-5-5-----------8---7|----8--8-8-8p7-5-3----|
|3-5-5-5-5-5-5-5-5-----5---5---5--|5-5-8--8-8------------|
     . . . . . . .     .   .   .   . .



Chorus One

   
Rhythm Guitar
0:36
|--------------------------------|
|--------------------------------|
|--------------------------------|
|3-0-0000-88-8888-55-5555-77-7777| x4
|3-0-0000-88-8888-55-5555-77-7777|
|3-0-0000-88-8888-55-5555-77-7777|


Lead Guitar
0:36
|-------------------------|----------------------|
|------6------6h8p6-6-----|6h8p6-6-5--5h6p5-5----|
|5h7p5---7-77---------7-77|-------------------5-5|
|-------------------------|----------------------| x1
|-------------------------|----------------------|
|-------------------------|----------------------|
           ..           ..                    . .

0:40
|--------------------|-----------------------|
|------6----------6--|6h8p6-6-5-5h6p5-5------|
|5h7-----7--5h7-----7|------------------5-5-5|
|--------------------|-----------------------| x1
|--------------------|-----------------------|
|--------------------|-----------------------|
                                        . . .

0:45
|----------------------|----------5h8p5-5--|
|------6------6h8p6-6--|6h8p6-6-5---------5|
|5h7p5---7-77---------7|-------------------|
|----------------------|-------------------| x1
|----------------------|-------------------|
|----------------------|-------------------|
           ..          

0:49
|-------------------------|-----------------------|
|--5/6------6--------6----|6h8p6-6-5-5h6p5-5------|
|5-----7-7----7-5h7----7-7|------------------5-5-5|
|-------------------------|-----------------------| x1
|-------------------------|-----------------------|
|-------------------------|-----------------------|
 .       .               .                   . . .


Post Chorus


Rhythm Guitar
0:53
|---------------------------------|----------------------------------|
|---------------------------------|1110------------1110--------------|
|---------------------------------|-x-x-------------x-x--------------|
|--------0h5h7---8---5---7---3----|-8-7-------------8-7--------------| x1
|---------------------------------|----------------------------------|
|3-0-0-0-------0---0---0---0---0-0|----------------------------12--\\|
     . .       .   .   .   .   . . 

Lead Guitar
0:53
|---------------------------------|----------------------------------|
|---------------------------------|----------------------------------|
|---------------------------------|8-7-------------8-7---------------|
|--------0h5h7---8---5---7---3----|x-x-------------x-x---------------| x1
|---------------------------------|6-5-------------6-5---------------|
|3-0-0-0-------0---0---0---0---0-0|----------------------------12--\\|
     . .       .   .   .   .   . .



Intro Riff


Rhythm Guitar
0:58
|-------------------------------------|---------------------------------|
|-------------------------------------|---------------------------------|
|-------------------------------------|---------------------------------|
|--------0h5h7---8---5---7---3---5---0|----0h5h7-----------8---7---5-7\\| x2
|-------------------------------------|------------0h5h7----------------|
|3-0-0-0-------0---0---0---0---0---0--|0-0-------0-------0---0---0------|
     . .       .   .   .   .   .   .   . .       .       .   .   .

1:07
|-------------------------------------|---------------------------------|
|-------------------------------------|---------------------------------|
|-------------------------------------|---------------------------------|
|--------0h5h7---8---5---7---3---5---0|----0h5h7-----------8---7---5-7\\| x1
|3------------------------------------|------------0h5h7----------------|
|3---0-0-------0---0---0---0---0---0--|0-0-------0-------0---0---0------|
     . .       .   .   .   .   .   .   . .       .       .   .   .

1:11
|-------------------------------------|---------------------------------|
|-------------------------------------|---------------------------------|
|-------------------------------------|---------------------------------|
|--------0h5h7---8---5---7---3---5---0|---------------------------------| x1
|-------------------------------------|---------------------------------|
|3-0-0-0-------0---0---0---0---0---0--|0-0-0----------------------------|
     . .       .   .   .   .   .   .   . .

Lead Guitar
0:58
|-------------------------------------|---------------------------------|
|-------------------------------------|---------------------------------|
|-------------------------------------|---------------------------------|
|--------0h5h7---8---5---7---3---5---0|----0h5h7-----------8---7---5-7\\| x1
|-------------------------------------|------------0h5h7----------------|
|3-0-0-0-------0---0---0---0---0---0--|0-0-------0-------0---0---0------|
     . .       .   .   .   .   .   .   . .       .       .   .   .

1:02
|-------------------------------------|---------------------------------|
|-------------------------------------|---------------------------------|
|-------------------------------------|---------------------------------|
|--------0h5h7---8---5---7---3---5---0|----0h5h7-----------8---7---5-7\\| x1
|3------------------------------------|------------0h5h7----------------|
|3---0-0-------0---0---0---0---0---0--|0-0-------0-------0---0---0------|
     . .       .   .   .   .   .   .   . .       .       .   .   .

1:07
|-------------------------------------|---------------------------------|
|-------------------------------------|---------------------------------|
|--------0h3h5---7---3---5---2---3---0|----0h3h5-----------7---5---3-5\\|
|-------------------------------------|------------0h3h5----------------| x1
|-------------------------------------|---------------------------------|
|3-0-0-0-------0---0---0---0---0---0--|0-0-------0-------0---0---0------|
     . .       .   .   .   .   .   .   . .       .       .   .   .

1:11
|-------------------------------------|---------------------------------|
|-------------------------------------|---------------------------------|
|--------0h3h5---7---3---5---2---3---0|---------------------------------|
|-------------------------------------|---------------------------------| x1
|-------------------------------------|---------------------------------|
|3-0-0-0-------0---0---0---0---0---0--|0-0-0----------------------------|
     . .       .   .   .   .   .   .   . .



Verse Two


Rhythm Guitar
1:16
|--------------------------------|
|--------------------------------|
|--------------------------------|
|---------------7h8p7---5---3---7| x2
|----0-0-0--0-0------------------|
|3-0-0-0-0--0-0-------0---0---0--|
     . . .  . .       .   .   .

1:20
|-------------------------------|-------------------------|
|-------------------------------|-----------15\13-11-10-11|
|-------------------------------|------------x--x--x--x--x|
|----------------8\7---5--------|----8--8-8-12\10--8--7--8| x1
|----5-5-5-5-5-5-----------8---7|----8--8-8---------------|
|3-5-5-5-5-5-5-5-----5---5---5--|5-5-8--8-8---------------|
     . . . . . .    .   .   .    . .      

1:25
|-------------------------|--------------------------|
|-------------------------|--------------------------|
|-------------------------|--------------------------|
|--------7h8p7---5---3---7|---------7h8p7---5---3---7| x1
|-------------------------|0--0--0-------------------|
|12-12-\-------0---0---0--|0--0--0--------0---0---0--|
               .   .   .   .  .  .        .   .   .

1:29
|-------------------------------|------------------------|
|-------------------------------|-----------15\13-11-10--|
|-------------------------------|------------x--x--x--x--|
|----------------8\7---5--------|----8--8-8-12\10--8--7--| x1
|----5-5-5-5-5-5-----------8---7|----8--8-8--------------|
|3-5-5-5-5-5-5-5-----5---5---5--|5-5-8--8-8--------------|
     . . . . . .    .   .   .    . .                    


Lead Guitar
1:16
|--------------------------------|--------------------------------|
|--------------------------------|--------------------------------|
|--------------------------------|---------------5h7p5---3---2---5|
|---------------7h8p7---5---3---7|--------------------------------| x1
|----0-0-0--0-0------------------|----0-0-0--0-0------------------|
|3-0-0-0-0--0-0-------0---0---0--|3-0-0-0-0--0-0-------0---0---0--|
     . . .  . .       .   .   .       . . .  . .       .   .   .

1:20
|-------------------------------|-----------------------|
|-------------------------------|-----------------------|
|-------------------------------|-----------------------|
|----------------8\7---5--------|----8--8-8-------------| x1
|----5-5-5-5-5-5-----------8---7|----8--8-8--8p7-5-3-5--|
|3-5-5-5-5-5-5-5-----5---5---5--|5-5-8--8-8-------------|
     . . . . . .    .   .   .    . .    

1:25
|-----------------------|--------------------------|
|7-7-\------------------|--------------------------|
|x-x--------------------|---------5h7p5---3---2---5|
|4-4-\-7h8p7---5---3---7|--------------------------| x1
|-----------------------|0--0--0-------------------|
|------------0---0---0--|0--0--0--------0---0---0--|
             .   .   .   .  .  .        .   .   .

1:29
|---------------------------------|----------------------|
|---------------------------------|----------------------|
|---------------------------------|----------------------|
|------------------8\7---5--------|----8--8-8------------| x1
|----5-5-5-5-5-5-5-----------8---7|----8--8-8-8p7-5-3----|
|3-5-5-5-5-5-5-5-5-----5---5---5--|5-5-8--8-8------------|
     . . . . . . .     .   .   .   . .


Chorus Two


Rhythm Guitar
1:34
|--------------------------------|
|--------------------------------|
|--------------------------------|
|3-0-0000-88-8888-55-5555-77-7777| x4
|3-0-0000-88-8888-55-5555-77-7777|
|3-0-0000-88-8888-55-5555-77-7777|


Lead Guitar
1:34
|-------------------------|----------------------|
|------6------6h8p6-6-----|6h8p6-6-5--5h6p5-5----|
|5h7p5---7-77---------7-77|-------------------5-5|
|-------------------------|----------------------| x1
|-------------------------|----------------------|
|-------------------------|----------------------|
           ..           ..                    . .

1:38
|--------------------|-----------------------|
|------6----------6--|6h8p6-6-5-5h6p5-5------|
|5h7-----7--5h7-----7|------------------5-5-5|
|--------------------|-----------------------| x1
|--------------------|-----------------------|
|--------------------|-----------------------|
                                        . . .

1:43
|----------------------|----------5h8p5-5--|
|------6------6h8p6-6--|6h8p6-6-5---------5|
|5h7p5---7-77---------7|-------------------|
|----------------------|-------------------| x1
|----------------------|-------------------|
|----------------------|-------------------|
           ..          

1:47
|-------------------------|--------------------|
|--5/6------6--------6----|6h8p6-6-5-5h6p5-5---|
|5-----7-7----7-5h7----7-7|------------------5-|
|-------------------------|--------------------| x1
|-------------------------|--------------------|
|-------------------------|--------------------|
 .       .               .                   . 



Chorus Extension


Rhythm Guitar
1:51
|-----------------------------------|
|-----------------------------------|
|-----------------------------------|
|3-0-0000-88888888-55555555-77777777| x2
|3-0-0000-88888888-55555555-77777777|
|3-0-0000-88888888-55555555-77777777|

2:00
|----------------------------|
|----------------------------|
|----------------------------|
|3-0-x-0-88-x-8-55-x-5-77-x-7| x2
|3-0-x-0-88-x-8-55-x-5-77-x-7|
|3-0-x-0-88-x-8-55-x-5-77-x-7|


Lead Guitar
1:51
|-------------------------|
|-------------------------|
|77777777-7/1010101010-6-6|
|xxxxxxxx-x--x-x-x-x-x-x-x| x2
|55555555-5/-8-8-8-8-8-4-4|
|-------------------------|

2:00
|----------------------------------|
|----------------------------------|
|77-x-7--77-x-7-1010-x-14--1010-x-6|
|xx-x-x--xx-x-x--x-x-x--x---x-x-x-x| x1
|55-x-5--55-x-5--8-8-x-12---8-8-x-4|
|----------------------------------|

2:05
|----------------------------------|
|--------------------------15151414|
|77-x-7--77-x-7-1010-x-10---x-x-x-x|
|xx-x-x--xx-x-x--x-x-x--x--12121111| x1
|55-x-5--55-x-5--8-8-x--8----------|
|----------------------------------|



Break Down


Rhythm Guitar
2:09
|---------------------|---------------------|
|------------5h6p5----|------------5h6p5----|
|--------5h7-------5h7|--------5h7-------5h7|
|0-0-0-0--------------|0-0-0-0--------------| x1
|---------------------|---------------------|
|---------------------|---------------------|

2:13
|------------5h8p5----5------------|
|--------5h6------5h6---8-8-6------|
|----------------------------------|
|0-0-0-0--------------------------8| x1
|-----------------------------8-8--|
|----------------------------------|

2:16
|---------------------|---------------------|
|------------5h6p5----|------------5h6p5----|
|--------5h7-------5h7|--------5h7-------5h7|
|0-0-0-0--------------|0-0-0-0--------------| x1
|---------------------|---------------------|
|---------------------|---------------------|

2:20
|------------5h8p5----5--------------------|
|--------5h6------5h6---8-8-6---------8-8-8|
|-------------------------------------x-x-x|
|0-0-0-0----------------------3-3-3-3/5-5-5| x1
|------------------------------------------|
|------------------------------------------|


Lead Guitar

2:09
|--------------------|--------------------|
|--------------------|--------------------|
|-----------5h7p5----|-----------5h7p5----|
|-4-4-4-5h7-------5h7|-4-4-4-5h7-------5h7| x1
|--------------------|--------------------|
|--------------------|--------------------|

2:13
|--------------------|-------------|
|-----------5h6p5----|6-5-5--------|
|-------5h7-------5h7|------7------|
|-4-4-4--------------|--------7-7-8| x1
|--------------------|-------------|
|--------------------|-------------|

2:16
|--------------------|--------------------|
|--------------------|--------------------|
|-----------5h7p5----|-----------5h7p5----|
|-4-4-4-5h7-------5h7|-4-4-4-5h7-------5h7| x1
|--------------------|--------------------|
|--------------------|--------------------|

2:20
|--------------------|-------------------|
|-----------5h6p5----|6-5-5--------------|
|-------5h7-------5h7|------7------------|
|-4-4-4--------------|--------7-7-7-8-8-8| x1
|--------------------|-------------------|
|--------------------|-------------------|

 


Bridge Section



Rhythm Guitar (Played Clean)
2:24
|---------------------|-------------------------|
|6R----5R----10R----3R|6R----5R----10R----3R----|
|x-----x------x-----x-|x-----x------x-----x-----|
|7R----5R----10R----3R|7R----5R----10R----3R----| x1
|5R----3R-----8R----1R|5R----3R-----8R----1R----|
|---------------------|-------------------------|

2:31
|---------------------|-------------------------|
|6R----5R----10R----3R|6R----5R----10R----3R--5R|
|x-----x------x-----x-|x-----x------x-----x---x-|
|7R----5R----10R----3R|7R----5R----10R----3R--5R| x1
|5R----3R-----8R----1R|5R----3R-----8R----1R--3R|
|---------------------|-------------------------|

2:38
|--------0----|-----------------|---------------------|----------------|
|----6-----6--|----5---8p6p5----|-----10--------10----|----3---3/6-5---|
|-------------|--------------5-0|---------------------|--------------7v|
|--7---7-----7|--5---5----------|--10----10---10---10\|--3---3---------| x2
|5------------|3----------------|8----------8---------|1---------------|
|-------------|-----------------|---------------------|----------------|


Lead Guitar (Played Clean)
2:24
|---------------------|-------------------------|
|6R----5R----10R----3R|6R----5R----10R----3R----|
|x-----x------x-----x-|x-----x------x-----x-----|
|7R----5R----10R----3R|7R----5R----10R----3R----| x1
|5R----3R-----8R----1R|5R----3R-----8R----1R----|
|---------------------|-------------------------|

2:31
|----------------------|
|----------------------|
|----------------------|
|----------------------| x1
|8-8/10-8-7-5-3-0-3-5-3|
|----------------------|

2:38
|--------0----|----------------|-------------------|---------------|
|----6-----6--|----5--6p5p3----|----10-10-----10-10|---------------|
|-------------|-------------5-0|-----x--x------x--x|--------5/7-5--|
|--7---7-----7|--5---5---------|----10-10-----10-10|----7---------8| x2
|5------------|3---------------|8-8-------8-8------|8-8---8--------|
|-------------|----------------|-------------------|---------------|



Chorus Build Up


Rhythm Guitar
2:53
|--------------------|
|-----------5h6p5----|
|-------5h7-------5h7|
|00-0-0--------------| x5
|--------------------|
|--------------------|
 .. . .

3:02
|-------------------|
|-----------5h6*----|
|-------5h7------5h7|
|00-0-0-------------| x2
|-------------------|
|-------------------|
 .. . .

3:04
|-------------------|
|-------6-----------|
|-------x-----------|
|00-0-0-3-----------| x1
|-------------------|
|-------------------|
 .. . .

Lead Guitar
2:53
|--------------------|
|--------------------|
|-----------5h7p5----|
|00-0-0-5h7-------5h7| x5
|--------------------|
|--------------------|
 .. . .

3:02
|-----------------------|
|-----------------------|
|------------5*h7p5-----|
|00-0-0-5*h7--------5*h7| x1
|-----------------------|
|-----------------------|
 .. . .

3:03
|--------------------|
|--------------------|
|-----------5h7p5----|
|00-0-0-5h7-------5h7| x1
|--------------------|
|--------------------|
 .. . .

3:04
|-------------------|
|-------------------|
|-------------------|
|00-0-0-3-----------| x1
|-------3-----------|
|-------3-----------|
 .. . .



Final Chorus


Rhythm Guitar
3:07
|-------------------------------------------------------------------------|
|-------------------------------------------------------------------------|
|------------------------------------10-10101010-10-10101010--------------|
|0-0000-0-0000-10-101010-10-10101010-10-10101010-10-10101010-8-8888-8-8888| x1
|0-0000-0-0000-10-101010-10-10101010--8--8-8-8-8--8--8-8-8-8-8-8888-8-8888|
|0-0000-0-0000-10-101010-10-10101010-------------------------8-8888-8-8888|

3:14
|-----------------------------------------------------------------------|
|-----------------------------------------------------------------------|
|7----7----------------------------10-10101010-10-10101010--------------|
|x-00-x-0000-10-101010-10-10101010-10-10101010-10-10101010-8-8888-8-8888| x1
|5-00-5-0000-10-101010-10-10101010--8--8-8-8-8--8--8-8-8-8-8-8888-8-8888|
|--00---0000-10-101010-10-10101010-------------------------8-8888-8-8888|
   ..

3:22
|-------------------------------------------------------------------------|
|-------------------------------------------------------------------------|
|------------------------------------10-10101010-10-10101010--------------|
|0-0000-0-0000-10-101010-10-10101010-10-10101010-10-10101010-8-8888-8-8888| x1
|0-0000-0-0000-10-101010-10-10101010--8--8-8-8-8--8--8-8-8-8-8-8888-8-8888|
|0-0000-0-0000-10-101010-10-10101010-------------------------8-8888-8-8888|

3:29
|--------------------------------------------------------------------------------|
|--------------------------------------------------------------------------------|
|------------------------------------10-10101010-10-10101010---------------------|
|0-0000-0-0000-10-101010-10-10101010-10-10101010-10-10101010-8-8888--------------| x1
|0-0000-0-0000-10-101010-10-10101010--8--8-8-8-8--8--8-8-8-8-8-8888--------------|
|0-0000-0-0000-10-101010-10-10101010-------------------------8-8888-88888-1010-12|



Lead Guitar
3:07
|---------------------------------------------------------------------------|
|---------------------------------------------------------------------------|
|7-7777-7-7777-5-5555-5-5555-10-10101010-10-10101010-10-10101010-10-10101010|
|x-xxxx-x-xxxx-x-xxxx-x-xxxx--x--x-x-x-x--x--x-x-x-x--x--x-x-x-x--x--x-x-x-x| x1
|5-5555-5-5555-3-3333-3-3333--8--8-8-8-8--8--8-8-8-8--8--8-8-8-8--8--8-8-8-8|
|---------------------------------------------------------------------------|

3:14
|-------------------------------------------------------------------------|
|-------------------------------------------------------------------------|
|7----7-7777-5-5555-5-5555-10-10101010-10-14141414-10-10101010-10-12121414|
|x-00-x-xxxx-x-xxxx-x-xxxx--x--x-x-x-x--x--x-x-x-x--x--x-x-x-x--x--x-x-x-x| x1
|5-00-5-5555-3-3333-3-3333--8--8-8-8-8--8-12121212--8--8-8-8-8--8-10101212|
|--00---------------------------------------------------------------------|

3:22
|-------------------------------------------------------------------|
|-------------------------------------------------------------------|
|7-7777-7-7777-5-5555-5-5555-10-10101010-10-10101010--3-3333--3-3333|
|x-xxxx-x-xxxx-x-xxxx-x-xxxx--x--x-x-x-x--x--x-x-x-x--x-xxxx--x-xxxx| x1
|5-5555-5-5555-3-3333-3-3333--8--8-8-8-8--8--8-8-8-8--1-1111--1-1111|
|-------------------------------------------------------------------|

3:29
|-----------------------------------------------------------------------|
|-----------------------------------------------------------------------|
|7-7777-7-7777-5-5555-5-5555-10-10101010-10-10101010--3-3333--33333-55-7|
|x-xxxx-x-xxxx-x-xxxx-x-xxxx--x--x-x-x-x--x--x-x-x-x--x-xxxx--xxxxx-xx-x| x1
|5-5555-5-5555-3-3333-3-3333--8--8-8-8-8--8--8-8-8-8--1-1111--11111-33-5|
|-----------------------------------------------------------------------|


Outro

Rhythm Guitar
3:36
|----------------------------------|
|----------------------------------|
|----------------------------------|
|----------------------------------|  x1
|00-0-0--00-0-0--00-0-0--00-0-0----|
|00-0-0--00-0-0--00-0-0--00-0-0-8-7|
 .. . .  .. . .  .. . .  .. . .

3:43
|--------------------------------|
|--------------------------------|
|--------------------------------|
|--------------------------------| x1
|00-0-0--00-0-0--0000-0-0--00-0-0|
|00-0-0--00-0-0--0000-0-0--00-0-0|
 .. . .  .. . .  .... . .  .. . .

3:51
|---------------------------------------|
|---------------------------------------|
|---------------------------------------|
|---------------------------------------| x1
|00-0-0--00-0-0--00-0-0--00-0-0-0000-0-0|
|00-0-0--00-0-0--00-0-0--00-0-0-0000-0-0|
 .. . .  .. . .  .. . .  .. . . .... . .

3:58                                    tttttt
|------------------------------------------------|
|------------------------------------------------|
|------------------------------------------------|
|----------------------------------------------0R| x1
|00-0-0-0R--00-0-0-0R--00-0-0-0R-00-0-0-333555-0R|
|00-0-0-0R--00-0-0-0R--00-0-0-0R-00-0-0--------0R|
 .. . . .   .. . . .   .. . . .  .. . . 


Lead Guitar

3:36
|------------------------------------|
|-------------------------------11-10|
|--------------------------------x--x|
|--------------------------------8--7|  x1
|00-0-0--00-0-0--00-0-0--00-0-0------|
|00-0-0--00-0-0--00-0-0--00-0-0------|
 .. . .  .. . .  .. . .  .. . .

3:43
|------------------------------------------------|
|------------------10101010-101010---------------|
|7777-777-9999-999--x-x-x-x--x-x-x-10101010-6-6-6|
|xxxx-xxx-xxxx-xxx--7-7-7-7--7-7-7--x-x-x-x-x-x-x| x1
|5555-555-7777-777------------------8-8-8-8-4-4-4|
|------------------------------------------------|

3:50
|-------------------------------------------------|
|------------------10101010-101010-15151515-141414|
|7777-777-9999-999--x-x-x-x--x-x-x--x-x-x-x--x-x-x|
|xxxx-xxx-xxxx-xxx--7-7-7-7--7-7-7-12121212-111111| x1
|5555-555-7777-777--------------------------------|
|-------------------------------------------------|

3:58                                    tttttt
|------------------------------------------------|
|------------------------------------------------|
|------------------------------------------------|
|----------------------------------------------0R| x1
|00-0-0-0R--00-0-0-0R--00-0-0-0R-00-0-0--------0R|
|00-0-0-0R--00-0-0-0R--00-0-0-0R-00-0-0-222333-0R|
 .. . . .   .. . . .   .. . . .  .. . . 
comments
We did not receive enough feedback on this tab! Please rate:
print report bad tab
1 2 3 4 5
I want to post or [tab]
guest
You may want to rate the tab now too:
select rating
Please do not post tabs as comments. Select "correction" instead!