Oops, an error
Loading. Please wait.

Age Of Deception Tab

1,199 views 1 this week
no commentswrite comment
1 2 3 4 5
accurate
x 2
add to favorites launch autoscroll
font size
0
reset
Autoscroll
+/-
esc
set tempo
stop
Contributor
Difficulty
intermediate
WARNING: You are trying to view
                                    content from Ultimate-Guitar.com
                                    in an unauthorized application,
                                    which is prohibited.

                                    Please use an official Ultimate
                                    Guitar Tabs application for iPhone,
                                    iPad or Android to access legitimate
                                    chords, guitar, bass, and drum tabs
                                    from Ultimate-Guitar.com database.

                                    Type "ultimate guitar tabs" in Apple
                                    App Store's or Android Market's
                                    search to find the application.
Age of Deception by Fellsilent
Album: The Hidden Words
Tab: Foster (bornofmaya) - http://www.last.fm/user/bornofmaya

Tuning: Drop G# (G# D# G# C# F A#)
Notes: Tuning might be wrong. I also didn't tab all the ambient riffs.

Legend:
*  - palm-mute
b  - bend
br - bend-release
X  - dead-note
|| - open-close bar

(x4)
||----------------------------------------------------------|
||----------------------------------------------------------|
||----------------------------------------------------------|
||----------------------------------------------------------|
||-5--5------------------------------------5-----5----------|
||----------0--0-----0-----0-----0--1br----------------0--0-|
            *                    *                     *

|----------------------------------------------------------||
|----------------------------------------------------------||
|----------------------------------------------------------||
|----------------------------------------------------------||
|----------------------------------------------------------||
|-0--1-----1br----0--0-----0--1-----1br----0--0-----0--1br-||
  *               *        *               *        *

(x8)
||-------------------------------------||
||-------------------------------------||
||-------------------------------------||
||-1-----------1-----------------------||
||-------------------------------------||
||----1-----------1b--------------1--1-||
                                  *  *

(x4)
||-------------------------------------------------------------|
||-------------------------------------------------------------|
||-------------------------------------------------------------|
||-1-----------1------------------------------1-----------1----|
||-------------------------------------------------------------|
||----1-----------1b--------------1--1-----------1-----------1-|
                                  *  *

|-----------------------------||
|-----------------------------||
|-----------------------------||
|-----------------------------||
|-----------------------------||
|-1--1-----1-----1--1-----1-1-||
  *              *  *     * *

(x2)
Note: Listen and follow.
||---|----|---|----|----|----|----||
||---|----|---|----|----|----|----||
||-7-|-15-|-7-|-17-|-15-|-14-|-12-||
||---|----|---|----|----|----|----||
||-5-|-13-|-5-|-15-|-13-|-12-|-10-||
||---|----|---|----|----|----|----||


(x2)
||-------------------------------------------------------|
||-------------------------------------------------------|
||-------------------------------------------------------|
||-------------------------------------------------------|
||-5------------------------------------5-----5----------|
||-------0--0-----0-----0-----0--1br----------------0--0-|
         *                    *                     *

|---------------------------------------------------------------||
|---------------------------------------------------------------||
|---------------------------------------------------------------||
|---------------------------------------------------------------||
|-------------------------------------------------------------5-||
|-0--1-----1br----0--0-----0--1-----1br----0--0-----0--1br------||
  *               *        *               *        *


||------------------||
||------------------||
||------------------||
||------------------||
||------------------||
||-0----------------||

  
||------------------------------------------------------|
||------------------------------------------------------|
||------------------------------------------------------|
||------------------------------------------------------|
||-4-----5----------------------------------------------|
||----1------1----1----1----1-------1----1-------1----1-|
      *
  
|---------------------------------------------------||
|---------------------------------------------------||
|---------------------------------------------------||
|---------------------------------------------------||
|-4-----5-------------------------------------------||
|----1------1----1----1----1-------1-----1--------1-||
     *

(x2)
||-------------------------------------------||
||-------------------------------------------||
||-------------------------------------------||
||--------------------------1----------------||
||-4-----5-----------------------------------||
||----1------1----1----1----1----------------||
      *

||-------------------------------------------------------------|
||-------------------------------------------------------------|
||-------------------------------------------------------------|
||-------------------------------------------------------------|
||-4-----5-----------------------------------------------------|
||----1------1----1----1----1-------1--X--1--------1---------1-|
      *

|---------------------------------------------------||
|---------------------------------------------------||
|---------------------------------------------------||
|---------------------------------------------------||
|-4-----5-------------------------------------------||
|----1------1----1----1----1-------1--X--1--------1-||
     *
  
||--------------------------------------------------------|
||--------------------------------------------------------|
||--------------------------------------------------------|
||------------------------------------2----2-------3----4-|
||-4-----5------------------------------------------------|
||----1------1----1----1----1---------2----2-------3----4-|
      *
 
|-----------------------------------------------------------|
|-----------------------------------------------------------|
|-----------------------------------------------------------|
|-----------------------------------------------------------|
|-4-----5---------------------------------------------------|
|----1------1----1----1----1---------2----2-------2-------2-|
     *

|--------------------------------------------------------|
|--------------------------------------------------------|
|--------------------------------------------------------|
|------------------------------------2----2-------3----4-|
|-4-----5------------------------------------------------|
|----1------1----1----1----1---------2----2-------3----4-|
     *

|----------------------------|
|----------------------------|
|----------------------------|
|----------------------------|
|-4-----5--------------------|
|----1------1----1----1----1-|
     *

(x2)
|----------------------------------------------------------------||-----------------||
|----------------------------------------------------------------||-----------------||
|----------------------------------------------------------------||-----------------||
|----------------------------------------------------------------||-----------------||
|----------------------------------------------------------------||-----------------||
|-2-----2--------2--------2-----2-----2--------2--------2--------||-2---2---2-----0-||

(x2)
||---------------------------------------------------------|
||---------------------------------------------------------|
||---------------------------------------------------------|
||---------------------------------------------------------|
||-5-------------------------------------------------------|
||----0-----0----0--------------0----0-----0----0--------X-|
      *          *                   *          *
   
|-------------------------------------------------------||
|-------------------------------------------------------||
|-------------------------------------------------------||
|-------------------------------------------------------||
|-------------------------------------------------------||
|-0----0-----0----0-----------0----0-----0----0-----0-0-||
       *          *                *          *     * *

(x4)
||----------------------------|
||----------------------------|
||----------------------------|
||----------------------------|
||------5---------5---------5-|
||-0---------0-----------0----|

|----------------------------|
|----------------------------|
|----------------------------|
|----------------------------|
|------5---------5---------5-|
|-2---------2-----------2----|

|----------------------------|
|----------------------------|
|----------------------------|
|----------------------------|
|------5---------5---------5-|
|-3---------3-----------3----|

|----------------------------||
|----------------------------||
|----------------------------||
|----------------------------||
|------5---------7---------7-||
|-3---------3-----------3----||


||-----------------------------------------------------------|
||-----------------------------------------------------------|
||-----------------------------------------------------------|
||-----------------------------------------------------------|
||-----------------------------------------------------------|
||-0----0-----0----0--------------0----0-----0----0--------X-|
        *          *                   *          *
   
|-------------------------------------------------------|
|-------------------------------------------------------|
|-------------------------------------------------------|
|-------------------------------------------------------|
|-------------------------------------------------------|
|-0----0-----0----0-----------0----0-----0----0-----0-0-|
       *          *                *          *     * *

|---------------------------------------------------------|
|---------------------------------------------------------|
|---------------------------------------------------------|
|---------------------------------------------------------|
|-5-------------------------------------------------------|
|----0-----0----0--------------0----0-----0----0--------X-|
     *          *                   *          *
   
|------------------------------------------||
|------------------------------------------||
|------------------------------------------||
|------------------------------------------||
|------------------------------------------||
|-0----0-----0----0-----------0----0-----0-||
       *          *                *

||---------------------------------------------------------|
||---------------------------------------------------------|
||---------------------------------------------------------|
||---------------------------------------------------------|
||---------------------------------------------------------|
||-1----1-----1----1-----------1----1-----1----1-----------|

|----------------------------------------------|
|----------------------------------------------|
|----------------------------------------------|
|-------------1--------------------------------|
|----------------------------------------------|
|-1----1b----------1----1-----1----1-----------|

|-----------------------------------||
|-----------------------------------||
|-----------------------------------||
|-----------------------------------||
|-----------------------------------||
|-1----1----1-----------0-----------||

||----------------------------------------------||
||----------------------------------------------||
||----------------------------------------------||
||----------------------------------------------||
||---------------------------------4b-----------||
||-0-0-----0-0-----0-0-----0-0------------0-----||
   * *     *       * *     * *

Note: Rhythms change.
||---------------------------------------|
||---------------------------------------|
||---------------------------------------|
||---------------------------------------|
||--------------4-------------4----------|
||-0-0--0-0-----------0-0------------0-0-|
   * *  * *           * *            *

|---------------------------------------||
|---------------------------------------||
|---------------------------------------||
|---------------------------------------||
|--------------4-------------4----------||
|-0-0--0-0-----------0-0------------0-0-||
  * *  * *           * *            *

(x2)
||----------------------------------||
||----------------------------------||
||----------------------------------||
||----------------------------------||
||---------4-------------4----------||
||-0-0-----------0-0------------0-0-||
   * *           * *            *

||---------------------------------------|
||---------------------------------------|
||---------------------------------------|
||---------------------------------------|
||--------------4-------------4----------|
||-0-0--0-0-----------0-0------------0-0-|
   * *  * *           * *            *

|-------------------||
|-------------------||
|-------------------||
|-------------------||
|---------4--4b-----||
|-0-0---------------||
  * *
comments
We did not receive enough feedback on this tab! Please rate:
1 2 3 4 5
I want to post or [tab]
guest
You may want to rate the tab now too:
select rating
Please do not post tabs as comments. Select "correction" instead!