Oops, an error
Loading. Please wait.

Andante Tab

ver2
ver2

Whole song

Interactive

More versions @911Tabs.com
3,872 views 24 this week
no commentswrite comment
1 2 3 4 5
excellent!
x 3
Autoscroll
+/-
esc
set tempo
stop
Contributor
Tabbers playing skills
advanced
Hey! There's an official Ultimate Guitar app which is ideal
for learning songs when you're away from computer. Get the app
WARNING: You are trying to view
                                    content from Ultimate-Guitar.com
                                    in an unauthorized application,
                                    which is prohibited.

                                    Please use an official Ultimate
                                    Guitar Tabs application for iPhone,
                                    iPad or Android to access legitimate
                                    chords, guitar, bass, and drum tabs
                                    from Ultimate-Guitar.com database.

                                    Type "ultimate guitar tabs" in Apple
                                    App Store's or Android Market's
                                    search to find the application.
E-|---Song:-Andante--------------------------------|
A-|---Author:-Ferdinando-Carulli-------------------|
D-|---Transcription-by:Christian Liang-------------|
G-|---E-Mail:christian.liang@gmail.com-------------|   
B-|---http://www.classclef.com---------------------|
E-|---Enjoy!---------------------------------------|


Andante by Ferdinando Carulli (1770-1841)

4/4 Time Signature. 51 Bars. Standard Tuning.

[1]

E|------------------------|-0-----0-----1-----1----|
B|----------------0--1--3-|-1-----1-----3-----3----|
G|-------------2----------|------------------------|
D|------------------------|------------------------|
A|------------------------|----0-----0-----0-----0-|
E|------------------------|------------------------|
LH             2     1  4   1     1     1     1      
                                        4     4						  
RH             i  m  i  m   m  p  m  p  m  p  m  p   
                            i     i     i     i      

[3]

E|-0-----0----------------|------------------------|
B|-1-----1-----3--1--0----|-0-----0-----3-----3----|
G|----------------------2-|-1-----1-----4-----4----|
D|------------------------|------------------------|
A|----0-----0-------------|------------------------|
E|------------------------|----0-----0-----0-----0-|

LH 1     1     4  1     2   1     1     2     2 
                                        3     3
RH m  p  m  p  m  i  m  i   m  p  m  p  m  p  m  p 
   i     i                  i     i     i     i

[5]

E|------------------------|-0-----0-----1-----1----|
B|-1-----1--------0--1--3-|-1-----1-----3-----3----|
G|-2-----2-----2----------|------------------------|
D|------------------------|------------------------|
A|----0-----0-------------|----0-----0-----0-----0-|
E|------------------------|------------------------|

LH 1     1     2     1  4   1     1     1     1      
   3     3                              4     4                            
RH m  p  m  p  i  m  i  m   m  p  m  p  m  p  m  p   
   i     i                  i     i     i     i      

[7]

E|-0-----0-----1-----1----|-0-----0-----1--0-------|
B|-1-----1-----3-----3----|-1-----1-----------3--1-|
G|------------------------|------------------------|
D|------------------------|------------------------|
A|---0------0-----0-----0-|----0-----0-------------|
E|------------------------|------------------------|

LH 1     1     1     1      1     1     1     4  1
               4     4
RH m  p  m  p  m  p  m  p   m  p  m  p  m  i  m  i 
   i     i     i     i      i     i

[9]

E|-3--1--0----------------|----------------0-----0-|
B|----------3--1--0-------|-------------4-----4----|
G|-------------------2--1-|-2----------------------|
D|-0----------------------|------------------------|
A|------------------------|-0----------------------|
E|-------------0----------|------------------------|


LH 4  1     4  1     2  1   2           4     4      
                                                                 
RH m  i  m  i  m  m  i  i   m           i  m  i  m   
   p           p            p                        

[11]

E|------------------------|----------------0-----0-|
B|-0-----0-----3-----3----|-1-----1-----4-----4----|
G|-1-----1-----4-----4----|-2-----2----------------|
D|------------------------|------------------------|
A|------------------------|----0-----0-------------|
E|----0-----0-----0-----0-|------------------------|

LH 1     1     2     2      1     1     4     4
               3     3      3     3
RH m  p  m  p  m  p  m  p   m  p  m  p  i  m  i  m 
   i     i     i     i      i     i 

[13]

E|-1-----0----------------|----------------0-----0-|
B|-3-----1-----3-----1----|-1-----0-----4-----4----|
G|-------------4-----2----|-2-----1----------------|
D|------------------------|------------------------|
A|----0-----0-----0-----0-|------------------------|
E|------------------------|----0-----0-------------|

LH 1     1     2     1      1     1     4     4      
   4           3     3      3				           
RH m  p  m  p  m  p  m  p   m  p  m  p  i  m  i  m   
   i     i     i     i      i     i                  

[15]

E|------------------------|----------------0-----0-|
B|-0-----0-----3-----3----|-1-----1-----4-----4----|
G|-1-----1-----4-----4----|-2-----2----------------|
D|------------------------|------------------------|
A|------------------------|----0-----0-------------|
E|----0-----0-----0-----0-|------------------------|

LH 1     1     2     2      1     1     4     4
               3     3      3     3  
RH m  p  m  p  m  p  m  p   m  p  m  p  i  m  i  m 
   i     i     i     i      i     i 

[17]  reverse: Bass first

E|----1-----0-------------|------------------------|
B|----3-----1-----3-----1-|-0--------------0--1--3-|
G|----------------4-----2-|-1-----------2----------|
D|-0-----0-----0-----1----|-2----------------------|
A|------------------------|------------------------|
E|------------------------|------------------------|

LH    1     1     2  1  2   1           2     1  4   
      4           3     3   3                                         
RH p  m  p  m  p  m  p  m   p,i,m       i  m  i  m  
      i     i     i     i 			     

[19]

E|-0-----0-----1-----1----|-0-----0----------------|
B|-1-----1-----3-----3----|-1-----1-----3--1--0----|
G|------------------------|----------------------2-|
D|------------------------|------------------------|
A|----0-----0-----0-----0-|----0-----0-------------|
E|------------------------|------------------------|

LH 1     1     1     1      1     1     4  1     2
               4     4 
RH m  p  m  p  m  p  m  p   m  p  m  p  m  i  m  i   
   i     i     i     i      i     i

[21]

E|------------------------|------------------------|
B|-0-----0-----3-----3----|-1-----1--------0--1--3-|
G|-1-----1-----4-----4----|-2-----2-----2----------|
D|------------------------|------------------------|
A|------------------------|----0-----0-------------|
E|----0-----0-----0-----0-|------------------------|
 
LH 1     1     2     2      1     1     2     1  4   
               3     3      3     3				                   
RH m  p  m  p  m  p  m  p   m  p  m  p  i  m  i  m   
   i     i     i     i      i     i                  

[23]

E|-0-----0-----1-----1----|-0-----0-----1--0-------|
B|-1-----1-----3-----3----|-1-----1-----------3--1-|
G|------------------------|------------------------|
D|------------------------|------------------------|
A|----0-----0-----0-----0-|----0-----0-------------|
E|------------------------|------------------------|

LH 1     1     1     1      1     1     1     4  1
               4     4 
RH m  p  m  p  m  p  m  p   m  p  m  p  m  i  m  i
   i     i     i     i      i     i

[25]

E|-3--1--0----------------|------------------------|
B|----------3--1--0-------|------------------------|
G|-------------------2--1-|-2----------------------|
D|-0----------------------|------------------------|
A|------------------------|-0----------------------|
E|-------------0----------|------------------------|

LH 4  1     4  1     2  1   2                                       
           								      
RH m  i  m  i  m  m  i  i   m		                         
   p           p            p						     

[27]
E|------------------------|------------------------|
B|-------------------0----|-1-----1-----3-----3----|
G|-------------0--2-----0-|----0-----0-----0-----0-|
D|------------------------|------------------------|
A|------------------------|-3-----3-----2-----2----|
E|------------------------|------------------------|

LH                2         1     1     4     4
                            3     3     2     2
RH             i  i  m  i   m  i  m  i  m  i  m  i 
                            p     p     p     p

[29]

E|-0-----0-----1-----1----|-3-----3-----1-----0----|
B|------------------------|------------------------|
G|----0-----0-----0-----0-|----0-----0-----0-----0-|
D|-------------0-----0----|-2-----2-----0----------|
A|-3-----3----------------|-------------------3----|
E|------------------------|------------------------|
LH 3     3     1     1      4     4     1            
                            2     2                  
RH m  i  m  i  m  i  m  i   m  i  m  i  m  i  m  i   
   p     p     p     p      p     p     p     p      


[31]

E|------------------------|------------------------|
B|-3-----3-----------0----|-1-----1-----3-----3----|
G|----0--------0--2-----0-|----0-----0-----0-----0-|
D|------------------------|------------------------|
A|-2-----2----------------|-3-----3-----2-----2----|
E|------------------------|------------------------|

LH 4     4        2         1     1     4     4
   2     2                  3     3     2     2
RH m  i  m     i  i  m  i   m  i  m  i  m  i  m  i
   p     p                  p     p     p     p

[33]

E|-0-----0-----1-----1----|-3-----1-----0----------|
B|------------------------|-------------------3----|
G|----0-----0-----0-----0-|----0-----0-----0-----0-|
D|-------------0-----0----|-2-----0----------------|
A|-3-----3----------------|-------------3-----2----|
E|------------------------|------------------------|

LH 3     3     1     1      4     1     3     4      
                            2                 2      
RH m  i  m  i  m  i  m  i   m  i  m  i  m  i  m  i      
   p     p     p     p      p     p     p     p      

[35]

E|------------------------|------------------------|
B|-1----------------------|-0-----0----------------|
G|----------------0-----0-|----0-----0-----0-----0-|
D|-------------4-----4----|-3-----3-----4-----4----|
A|-3----------------------|------------------------|
E|------------------------|------------------------|

LH 1           3     3      3     3     3     3
   3
RH m           p  i  p  i   m  i  m  i  m  i  m  i
   p                        p     p     p     p

[37]

E|------------------------|-1-----1-----0-----0----|
B|-1-----1----------------|------------------------|
G|----0-----0-----0-----0-|----0-----0-----0-----0-|
D|-2-----2-----4-----4----|-0-----0----------------|
A|------------------------|-------------3-----3----|
E|------------------------|------------------------|

LH 1     1     3     3      1     1     3     3      
   2     2                                           
RH m  i  m  i  p  i  p  i   m  i  m  i  m  i  m  i   
   p     p                  p     p     p     p      

[39]

E|------------------------|------------------------|
B|-3-----3----------------|-0-----0----------------|
G|----0-----0-----0-----0-|----0-----0-----0-----0-|
D|-------------4-----4----|-3-----3-----4-----4----|
A|-2-----2----------------|------------------------|
E|------------------------|------------------------|

LH 4     4     3     3      3     3     3     3
   2     2
RH m  i  m  i  p  i  p  i   m  i  m  i  p  i  p  i
   p     p                  p     p 

[41]

E|------------------------|-1-----1-----0-----0----|
B|-1-----1----------------|------------------------|
G|----0-----0-----0-----0-|----0-----0-----0-----0-|
D|-2-----2-----4-----4----|-0-----0----------------|
A|------------------------|-------------3-----3----|
E|------------------------|------------------------|

LH 1     1     3     3      1     1     3     3      
   2     2                                           
RH m  i  m  i  m  i  m  i   m  i  m  i  m  i  m  i   
   p     p     p     p      p     p     p     p      
 
[43]

E|------------------------|------------------------|
B|-3-----------------0----|-1-----1-----3-----3----|
G|-------------0--2-----0-|----0-----0-----0-----0-|
D|------------------------|------------------------|
A|-2----------------------|-3-----3-----2-----2----|
E|------------------------|------------------------|

LH 4              2         1     1     4     4
   2                        3     3     2     2
RH m           i  i  m  i   m  i  m  i  m  i  m  i
   p                        p     p     p     p
  
[45]

E|-0-----0-----1-----1----|-3-----3-----1-----0----|
B|------------------------|------------------------|
G|----0-----0-----0-----0-|----0-----0-----0-----0-|
D|-------------0-----0----|-2-----2-----0----------|
A|-3-----3----------------|-------------------3----|
E|------------------------|------------------------|

LH 3     3     1     1      4     4     1     3      
                            2     2                  
RH m  i  m  i  m  i  m  i   m  i  m  i  m  i  m  i   
   p     p     p     p      p     p     p     p      

[47]

E|------------------------|------------------------|
B|-3-----3-----------0----|-1-----1-----3-----3----|
G|----0--------0--2-----0-|----0-----0-----0-----0-|
D|------------------------|------------------------|
A|-2-----2----------------|-3-----3-----2-----2----|
E|------------------------|------------------------|

LH 4     4        2         1     1     4     4
   2     2                  3     3     2     2
RH m  i  m     i  i  m  i   m  i  m  i  m  i  m  i
   p     p                  p     p     p     p

[49]

E|-0-----0-----1-----1----|-3-----1-----0----------|
B|------------------------|-------------------3----|
G|----0-----0-----0-----0-|----0-----0-----0-----0-|
D|-------------0-----0----|-2-----0----------------|
A|-3-----3----------------|-------------3-----2----|
E|------------------------|------------------------|

LH 3     3     1     1      4     1     3     4      
                            2                 2
RH m  i  m  i  m  i  m  i   m  i  m  i  m  i  m  i   
   p     p     p     p      p     p     p     p      

[51]

E|------------------------|
B|-1----------------------|
G|------------------------|
D|------------------------|
A|-3----------------------|
E|------------------------|

LH 1

RH m
   p
comments
We did not receive enough feedback on this tab! Please rate:
print report bad tab
1 2 3 4 5
I want to post or [tab]
guest
You may want to rate the tab now too:
select rating
Please do not post tabs as comments. Select "correction" instead!