Oops, an error
Loading. Please wait.

Op 76 No 2 Tab

508 views 1 this week
no commentswrite comment
1 2 3 4 5
please rate
Autoscroll
+/-
esc
set tempo
stop
Contributor
Hey! There's an official Ultimate Guitar app which is ideal
for learning songs when you're away from computer. Get the app
WARNING: You are trying to view
                                    content from Ultimate-Guitar.com
                                    in an unauthorized application,
                                    which is prohibited.

                                    Please use an official Ultimate
                                    Guitar Tabs application for iPhone,
                                    iPad or Android to access legitimate
                                    chords, guitar, bass, and drum tabs
                                    from Ultimate-Guitar.com database.

                                    Type "ultimate guitar tabs" in Apple
                                    App Store's or Android Market's
                                    search to find the application.
SOLO Op 76 No 2 - FERDINANDO CARULLI (1770-1841)

tabbed by andrewlee6@hotmail.com
                               
 tuning - E A D G B E

 Q=40    6/8

                                      |----6----|
  E   E S S T X X X X X X X X X X T T T T T T T T
|---|-2-----------2-0-3-2-5-3-7-5-9-7-5-3-2-5-3-0-|
|---|-3-5-3-2-5-4---------------------------------|
|-2-|-2-----0-------------------------------------|
|---|-0-----0-------------------------------------|
|---|---------------------------------------------|
|---|---------------------------------------------|

  S X X X X X X X X X X X X X X X X X X X X Q  E
|-----------2-0-3-2-5-3-2-0-2-0------------------|
|-3-3-2-5-3---------------------3-2-5-3-2-0------|
|-2-----------------------------------------2--3-|
|-4----------------------------------------------|
|-5----------------------------------------------|
|----------------------------------------------2-|

  S T X X T T T T T  T T T  T T T T T T T T S S
|----------------------7-9-10-6-7---------------|
|-0-0---0-1-4-5-7-8-10------------7-8-----0-8-5-|
|-----3-------------------------------8-9-------|
|-----------------------------------------------|
|-----------------------------------------------|
|-3---------------------------------------------|

  T X X T T T T T  T S  S Q  E    S S S S  S S  S S a S  S S S
|--------------------7---------|----------10---10-9-9p7----7-9-|
|-3-3-2-3-5-7-8-9-10---10-5----|-10---------------------10-----|
|-2-----------------------6----|----------------0-----0----0---|
|-4-----------------------7----|----0---0----0----0------0---0-|
|-0-----------------------0----|--9---9----9-------------------|
|------------------------------|-------------------------------|

   S S S S  S S  S S a S  S S S    E E E E E E   Q  E Q  E
|----------10---10-9-9p7----7-9-|-10-9-7-5-7-4-|-7--5-5----|
|-10---------------------10-----|-10-8-7-5-7-3-|------5----|
|----------------0-----0----0---|------------4-|-7--6-6----|
|----0---0----0----0------0---0-|------0---0-2-|------7----|
|--9---9----9-------------------|--9-7---4-----|-0----0----|
|-------------------------------|--------------|-----------|

   S S S S S S S S S S  S S
|----------7----------------|
|-10-8-7-8---8-7-------10-8-|
|----------------9-8-9------|
|---------------------------|
|----0---0---0---0---0----0-|
|--9---9---9---9---9----9---|

   S  S S  S  S  S S  S S S S S    S S S S S S S S S S  S S
|----10-9-10-13-14-9-10-4-5-----|----------7----------------|
|---------------------------6-7-|-10-8-7-8---8-7-------10-8-|
|-11----------------------------|----------------9-8-9------|
|--0----0-----0----0----0---0---|---------------------------|
|-----0----0-----0----0---0---0-|----0---0---0---0---0----0-|
|-------------------------------|--9---9---9---9---9----9---|

   S  S S  S  S  S S  S S S S S   Q  E Q  E
|----10-9-10-13-14-9-10-4-5-----|-0--0------|
|---------------------------6-7-|-0--0-4--4-|
|-11----------------------------|-0--0-2--2-|
|--0----0-----0----0----0---0---|-2--2-4--4-|
|-----0----0-----0----0---0---0-|-2--2-2--2-|
|-------------------------------|-3--3-2--2-|

  E a T T T T T  T T T  T X X T X  X T X X T T S S
|-0----------------7-9-10-6-9-7----------------3-0-|
|-0-7-5-4-5-7-8-10--------------7-10-8-4-7-5-0-----|
|-0------------------------------------------------|
|-2------------------------------------------------|
|-2------------------------------------------------|
|-0------------------------------------------------|

  Q  E E E E   Q.   S S a S S a S S
|------------|-0--------------------|
|-3--3-3-5-2-|-0----7-5-5-3---------|
|------------|-4------------6-6-4-2-|
|-4--4-4-5-2-|----------------------|
|-0----0-----|----------------------|
|------------|-4----3---------------|

  E X X X X X X X X X X X X X X X X  E. S S S
|---------------2-0-3-2-5-3-7-5-9-7-10--7---0--|
|---2-0-3-2-5-3---------------------------8-0--|
|-2----------------------------------0------0--|
|----------------------------------------------|
|----------------------------------------------|
|-2-----------------------------------------3--|

                                           |----6----|
  Q  E E E E   E T T T T T T Q  E   E. S E T T T T T T T T T  T  S. T
|------------|-0-3-2-5-3-0-2------|------------------0-5-0-9----12--9--|
|-3--3-3-5-2-|-2-------------3----|-5--3-2---------2---------10--------|
|-2--2-------|-0-------------2----|-6--4-2-------2---------------------|
|-4--4-4-5-2-|-0-------------4----|------------2-----------------------|
|-0----0-----|---------------5----|-0------0-4-------------------------|
|------------|--------------------|------------------------------------|

                  |--3--|
  E  T T  T T  E  S  S  S  Q  E   E. S E T T T T T T T T  S.  T
|-9-10-9----9-12-10-14-10-------|--------------0-4-0-7-0-12--10----|
|--------12---------------12----|-3--2-0-----0---------------------|
|-------------------------------|-4--2-1---1-----------------------|
|-------------------------------|----------------------------------|
|-------------------------------|----------------------------------|
|-0------------------------0----|-0------0-------------------------|

                    |--3--|
   E  T  T T  T  E  S  S  S  E E E   E T T T T E a E E T T T T E a E
|-10-12-10-9-10-14-12----12--9-----|-------------7-5-------------3-2----|
|---------------------12---------6-|-7-9-7-6-7-9-----3-5-3-2-3-5--------|
|----------------------------------|------------------------------------|
|----------------------------------|-0---------------0------------------|
|--0-------------------------0-----|------------------------------------|
|----------------------------------|------------------------------------|

                           |----6----|
  E. T T T T T T S T T T T T T T T T T S. T   T T T T T T T T T T T T
|----4-2-5-4-7-5-----------------0-2-3-5----|--------------------------|
|-5------------------------0-2-3----------8-|-6-7-9-7---------6-7-9-7--|
|----------------2-4-2-1-2------------------|---------6-7-9-7----------|
|-------------------------------------------|-0------------------------|
|-4--------------0--------------------------|--------------------------|
|-------------------------------------------|--------------------------|

  T  T  T  T T  T  T  T T T T T   E. T T T T T T Q  E   E E E E S S S S
|------------9-10-12-10---------|----4-2-5-4-7-5------|---4-5-5-4---------|
|-9-10-12-10------------6-7-9-7-|-5-----------------5-|-7-5-7-7-5-7-5-0---|
|-------------------------------|-------------------6-|-7---------7-6-7---|
|-------------------------------|----------------7----|-0-----0-----------|
|-------------------------------|-4--------------0----|-------------------|
|-------------------------------|---------------------|-------------------|

  S S S S S S Q.      S S S S S S T T T T S S  S  S
|------------------|-10-7---0-----------0-4-7-12-10----|
|---0-4-5-0--------|------9---3-0-----0----------------|
|-6-7-5-6-7-6-4----|----------------1------------------|
|-7---------7-6----|-----------------------------------|
|------------------|-----------------------------------|
|-0-----------0----|--0-----------0--------------------|

  T  T  T T  T  T  T  T  S  S  S  S  S S  S  S
|-9-------9-10-12-14-16-17-16-14-12-10-9-------|
|---10-12--------------------------------12-10-|
|----------------------------------------------|
|----------------------------------------------|
|-0--------------------------------------------|
|----------------------------------------------|

   S S S S S S T T T T S S  S  S
|-10-7---0-----------0-4-7-12-10----|
|------9---3-0-----0----------------|
|----------------1------------------|
|-----------------------------------|
|-----------------------------------|
|--------------0--------------------|

  T  T  T T  T  T  T  T  S  S  S  S  S S  S  S
|-9-------9-10-12-14-16-17-16-14-12-10-9-------|
|---10-12--------------------------------12-10-|
|----------------------------------------------|
|----------------------------------------------|
|-0--------------------------------------------|
|----------------------------------------------|

  T  T  T  T T  T  T  T  T  T  T  T T T T T T T T T  T T T T
|------10----9----10----12----10--------9---8---9---10---9---|
|---10----10---10----10----10----10---8---8---8---8----8---8-|
|------------------------------------------------------------|
|------------------------------------------------------------|
|-9---------------------------------7------------------------|
|------------------------------------------------------------|

  T T T T T T T T T T T T T T T T T T T T T T T   S S S S S S E E E
|-----7---6---7---9---7-----5---4---5---7---5---|-4------------------|
|---7---7---7---7---7-----5---5---5---5---5---5-|---7-5---------0----|
|-----------------------------------------------|-------7-6-4-2---1--|
|-0---------------------------------------------|-0-------------0----|
|-----------------------4-----------------------|-------------4---2--|
|-----------------------------------------------|-------------0------|

  Q.   S T T T T T T T T T T T T T T T T T T  T T  Q
|------------------------2-0-3-2-5-3-7-5-9-7-10-9-12----|
|------------2-0-3-2-5-3--------------------------------|
|-2----1-4-2--------------------------------------------|
|-2-----------------------------------------------------|
|-4-----------------------------------------------------|
|-2-----------------------------------------------------|

   E E E  E E E E  E E E E  E E E
|-10-9-7------------------------0-|
|--------10-9-8-7-10-9-8-7-10-9---|
|---------------------------------|
|---------------------------------|
|---------------------------------|
|---------------------------------|

                                  |----6----|
  E S S T X X X X X X X X X X T T T T T T T T
|-2-----------2-0-3-2-5-3-7-5-9-7-5-3-2-5-3-0--|
|-3-5-3-2-5-4----------------------------------|
|-2-----0--------------------------------------|
|-0-----0--------------------------------------|
|----------------------------------------------|
|----------------------------------------------|

  S X X X X X X X X X X X X X X X X X X X X Q  E
|-----------2-0-3-2-5-3-2-0-2-0---------------------|
|-3-3-2-5-3---------------------3-2-5-3-2-0---------|
|-2-----------------------------------------2--3----|
|-4-------------------------------------------------|
|-5-------------------------------------------------|
|----------------------------------------------2----|

  S T X X T T T T T  T T T  T T T T T T T T S S
|----------------------7-9-10-6-7------------------|
|-0-0---0-1-4-5-7-8-10------------7-8-----0-8-5----|
|-----3-------------------------------8-9----------|
|--------------------------------------------------|
|--------------------------------------------------|
|-3------------------------------------------------|

  T X X T T T T T  T S  S Q  E    S S S S  S S  S S a S  S S S
|--------------------7---------|----------10---10-9-9p7----7-9----|
|-3-3-2-3-5-7-8-9-10---10-5----|-10---------------------10--------|
|-2-----------------------6----|----------------0-----0----0------|
|-4-----------------------7----|----0---0----0----0------0---0----|
|-0-----------------------0----|--9---9----9----------------------|
|------------------------------|----------------------------------|

   S S S S  S S  S S a S  S S S    E E E E E E   Q  E Q
|----------10---10-9-9p7----7-9-|-10-9-7-5-7-4-|-7--5-5----|
|-10---------------------10-----|-10-8-7-5-7-3-|------5----|
|----------------0-----0----0---|------------4-|-7--6-6----|
|----0---0----0----0------0---0-|------0---0-2-|------7----|
|--9---9----9-------------------|--9-7---4-----|-0----0----|
|-------------------------------|--------------|-----------|

   S S S S S S S S S S  S S
|----------7----------------|
|-10-8-7-8---8-7-------10-8-|
|----------------9-8-9------|
|---------------------------|
|----0---0---0---0---0----0-|
|--9---9---9---9---9----9---|

   S  S S  S  S  S S  S S S S S    S S S S S S S S S S  S S
|----10-9-10-13-14-9-10-4-5-----|----------7----------------|
|---------------------------6-7-|-10-8-7-8---8-7-------10-8-|
|-11----------------------------|----------------9-8-9------|
|--0----0-----0----0----0---0---|---------------------------|
|-----0----0-----0----0---0---0-|----0---0---0---0---0----0-|
|-------------------------------|--9---9---9---9---9----9---|

   S  S S  S  S  S S  S S S S S   Q  E Q  E
|----10-9-10-13-14-9-10-4-5-----|-0--0------|
|---------------------------6-7-|-0--0-4--4-|
|-11----------------------------|-0--0-2--2-|
|--0----0-----0----0----0---0---|-2--2-4--4-|
|-----0----0-----0----0---0---0-|-2--2-2--2-|
|-------------------------------|-3--3-2--2-|

  E a T T T T T  T T T  T X X T X  X T X X T T S S
|-0----------------7-9-10-6-9-7----------------3-0-|
|-0-7-5-4-5-7-8-10--------------7-10-8-4-7-5-0-----|
|-0------------------------------------------------|
|-2------------------------------------------------|
|-2------------------------------------------------|
|-0------------------------------------------------|

  Q  E E E E   Q.   S S a S S a S
|------------|-0------------------|
|-3--3-3-5-2-|-0----7-5-5-3-------|
|------------|-4------------6-6-4-|
|-4--4-4-5-2-|--------------------|
|-0----0-----|--------------------|
|------------|-4----3-------------|

  S E X X X X X X X X X X X X X X X X  E. S S S
|-----------------2-0-3-2-5-3-7-5-9-7-10--7---0--|
|-----2-0-3-2-5-3---------------------------8----|
|-2-2----------------------------------0---------|
|------------------------------------------------|
|------------------------------------------------|
|---2--------------------------------------------|

   E  E  E  E  E E    E E E E E E
|-14-12-10-10-12-9-|-10-9-7-5-3-2-|
|-10--8--7--7--8---|-10-8-7-5-3-2-|
|----------------9-|-11-9-7-6-4-2-|
|------------------|--------------|
|--0--------0------|--------------|
|------------------|--------------|

  S S S S S S S S  S S S S    E  E  E  E  E E
|-0---0-2-3-5-7-9-10-7---0-|-14-12-10-10-12-9--|
|-0-4-0-0-0-0-0--------8---|-10--8--7--7--8----|
|-0-2-0-------0------------|----------------9--|
|---4---1-2-4--------------|-------------------|
|--------------------------|--0--------0-------|
|--------------------------|-------------------|

   E E E E E E   S S S S S S S S  S S S S   Q  E E E E
|-10-9-7-5-3-2-|-0---0-2-3-5-7-9-10-7---0-|---------------|
|-10-8-7-5-3-2-|-0-4-0-0-0-0-0--------8---|-3--3-3-5-2----|
|-11-9-7-6-4-2-|-0-2-0-------0------------|---------------|
|--------------|---4---1-2-4--------------|-4--4-4-5-2----|
|--------------|--------------------------|-0----0--------|
|--------------|--------------------------|---------------|

  Q  S S S S S S    Q  E S S S S S S   Q  E X X X X X X X X S. T
|--------7-5-7-5-|-----------7-5-7-5-|----------2-0-3-2-5-3-7--5---|
|-3----5---------|--7------5---------|-3--2-5-4--------------------|
|-2--6-----------|--7----6-----------|-2--0------------------------|
|-4--5-----------|--7----5-----------|-4---------------------------|
|-5--0-----------|--9----0-----------|-5--0------------------------|
|----------------|-10----------------|-----------------------------|

   Q  E X X X X X X X X X X S.  T    Q   E  Q  E
|-----------2-0-3-2-5-3-7-5-9-----|-10--------------|
|--7--2-5-4--------------------10-|--7---3--3-------|
|--7--0---------------------------|--7------2-------|
|--7------------------------------|--0---4--4-------|
|--9--0---------------------------|------5--5-------|
|-10------------------------------|-----17----------|

   Valze Q=100     3/4

    a  E E  E    E  E E  E E E
||------------|----10----------|
||-12-10-9-10-|-10----7-10---7-|
||------------|------------7---|
||------------|--0-------------|
||------------|----------------|
||------------|----------------|

   S S S S E E E E   E E E E E E   Q  E a E E E
|------------0-7-5-|-2-0-------3-|-2--0-7-5-4-5--|
|-10-8-7-8---------|-----3-2-0---|-3--2----------|
|----------9-------|-------------|---------------|
|------------------|-0-----------|---------------|
|--0---------------|---4-2-0-----|-0-------------|
|------------------|---------3-0-|---------------|

   E  E E  E E E    S S S S E E E E   E E E E  a  E  E   T T T Q  E
|----10----------|------------0-7-5-|-4-5-7-9-12-10----|-4-5-7-5-------|
|-10----7-10---7-|-10-8-7-8---------|---------------12-|---------------|
|------------7---|----------9-------|------------------|---------------|
|--0-------------|------------------|------------------|---------------|
|----------------|--0---------------|------------------|-------0-------|
|----------------|------------------|-0----------------|---------------|

   E  E  E    E E E E E E   E  E  E E a E  E    E E E E E E
|----------|----------0-3-|------10-9-9-7----|----------0-3-|
|-10-10-10-|-10-8-7-8-----|-7-10----------10-|-10-8-7-8-----|
|----------|--------------|------------------|--------------|
|----------|--------------|-0-----0-----0----|--------------|
|----------|----0---0-4-0-|----0----0------0-|----0---0-4-0-|
|----------|--9---9-------|------------------|--9---9-------|

  E E  E E E  E      E E E E E E   E E E E E E   E E E E E E   Q  E
|--------7-9-10---|-10-9-9-7-7-5-|-5-3-3-2-2-0-|-0---0-3---0-|-------||
|-7-8-10----------|-10---8---7---|-5---3---2---|-0-4-0---2---|-3----o||
|-----------------|--------------|-------------|---------0---|-2-----||
|-0---------------|----------0---|-------------|-------------|-4-----||
|-----------------|--9---7-------|-4---2---0---|---------0---|-5----o||
|-----------------|--------------|-------------|-3---0-------|-------||

    S S S S S S   S S S S S S S S S S S S   S S S S S S S S S S S
||----0-2-0-----|---0-2-0-5-4-2-0-----2-0-|---0-2-0-4-0-2-0---2-0---|
||o-4-------3-5-|-2---------------4-5-----|-3---------------5-------|
||--------------|-------------------------|-------------------------|
||--------------|-------------------------|-------------------------|
||o-------------|-0-----------------------|-------------------------|
||--------------|-------------------------|-0-----------------------|

  S S S S S S S S S S S S   Q  E S S S S S S   S S S S S S S S S S S S
|---0-2-0-5-4-2-0-4-2-----|--------0-2-0-----|---0-2-0-5-4-2-0-----2-0--|
|-2-------------------5-3-|-2----4-------3-5-|-2---------------4-5------|
|-------------------------|-2--4-------------|--------------------------|
|-----------------0-------|-2--6-------------|--------------------------|
|-0-----------------------|------------------|-0------------------------|
|-------------------------|----0-------------|--------------------------|

  S S S S S S S S S S S   S S S S S S S S S S S S   Q  E
|---0-2-0-4-0-2-0---2-0-|---0-2-0-5-4-2-0---------|-------||
|-3---------------5-----|-2---------------5-3-2-0-|------o||
|-----------------------|-------------------------|-2-----||
|-----------------------|-------------------------|-------||
|-----------------------|-0-----------------------|-0----o||
|-0---------------------|-----------------0-------|-------||

    S S S S S S   S S S S S S S S S S S S   S S S S S S S S S S S S
||----0-2-0-----|---0---0---0---0---0---0-|---0---0---0---0-2-0---0--|
||o-4-------3-5-|---------0---2---3---2---|-0-----------4-------4----|
||--------------|-1---2---1---2---4---2---|-1---2---1----------------|
||--------------|-2---4-------------------|-----4---2----------------|
||o-------------|-------------------------|--------------------------|
||--------------|-------------------------|--------------------------|

  S S S S S S S S S S S S   Q  E S S S S S S   S S S  S E  E  E E
|---0---0---0---0---0---0-|-0------4---5---7-|-5-9-7-10-9------------|
|---------0---2---3---2---|-0----5---7---9---|------------12-10-9----|
|-------------------------|------------------|-----------------------|
|-6---7-------------------|------------------|-----------------------|
|-------------0---2---0---|------------------|-0---------------------|
|-0---2---3---------------|-4----------------|-----------------------|

  E S S S S  S S  S  S  S  S    E E  E E  E E    Q  E
|---7-6-9-7-10-9-12-10-14-12-|-12-9----9------|--------||
|-7--------------------------|------10---12-9-|-10----o||
|----------------------------|----------------|--9-----||
|-0--------------------------|----------------|-11-----||
|----------------------------|----------------|--0----o||
|----------------------------|--0------0------|--------||

   a  E E  E  E  E E    E E E  S S S S E   E E E E E E   E E E Q  E   a E E E
|---------------10---|-------------------|-0-7-5-2-0---|-----3-2--0-|-7-5-4-5-|
|-12-10-9-10-10----7-|-10---7-10-8-7-8---|-----------3-|-2-0---3--2-|---------|
|--------------------|----7------------9-|-------------|------------|---------|
|-------------0------|-------------------|-------0-----|------------|---------|
|--------------------|---------0---------|---------4-2-|-0-----0----|---------|
|--------------------|-------------------|-------------|---3-0------|---------|

   E  E E  E E E    S S S S E E E E   E E E E  a  E  E   T T T Q  E
|----10----------|------------0-7-5-|-4-5-7-9-12-10----|-4-5-7-5-------|
|-10----7-10---7-|-10-8-7-8---------|---------------12-|---------------|
|------------7---|----------9-------|------------------|---------------|
|--0-------------|------------------|------------------|---------------|
|----------------|--0---------------|------------------|-------0-------|
|----------------|------------------|-0----------------|---------------|

   E  E  E  E E E   E E E E  E  E   E a E  E  E E E   E E E E E  E   E E  E
|-----------------|---0-3------10-|-9-9-7-----------|---0-3--------|-7-9-10---|
|-10-10-10-10-8-7-|-8-----7-10----|-------10-10-8-7-|-8-----7-8-10-|----------|
|-----------------|---------------|-----------------|--------------|----------|
|-----------------|-------0-----0-|-----0-----------|-------0------|----------|
|-------------0---|-0-4-0----0----|-0------0----0---|-0-4-0--------|----------|
|-----------9---9-|---------------|-----------9---9-|--------------|----------|

   E E E E E E   E E E E E E   E E E E E E   Q  E
|-10-9-9-7-7-5-|-5-3-3-2-2-0-|-0---0-3---0-|-------||
|-10---8---7---|-5---3---2---|-0-4-0---2---|-3----o||
|--------------|-------------|---------0---|-2-----||
|----------0---|-------------|-------------|-4-----||
|--9---7-------|-4---2---0---|---------0---|-5----o||
|--------------|-------------|-3---0-------|-------||

    E E E    E  E E E E E   E E E E E E   E E  E E E  E   S S  S S E E E E
||--------|---------------|-------------|--------7-8-10-|-8-7----7---------|
||o-----7-|--8-12---8-----|---0---3---8-|-7-8-10--------|-----10---8-----7-|
||--7-9---|-------7-----7-|-0---4---7---|---------------|-0----------7-9---|
||--------|-----------9---|-------------|-0-------------|------------------|
||o-------|-10------------|-------------|---------------|------------------|
||--------|---------------|-------------|---------------|------------------|

   E  E E E E E   E E E E E E   E E  E E E  E    Q  E    E E E
|---------------|-------------|--------7-8----|-------||-7-7-7----|
|--8-12---8-----|---0---3---8-|-7-8-10-----10-|--8----||----------|
|-------7-----7-|-0---4---7---|---------------|-------||----------|
|-----------9---|-------------|-0-------------|-------||----------|
|-10------------|-------------|---------------|-10----||----------|
|---------------|-------------|---------------|-------||----------|

  S S S S S S S S  S S S S   S S S S S S S S S S S S
|---7---7---7---7----7---7-|---7---7---7---7---7---7-|
|---------7---8---10---7---|-8---7-------8---7-------|
|-8---9--------------------|---------9-----------9---|
|--------------------------|-------------------------|
|--------------------------|-------------------------|
|--------------------------|-------------------------|

  S S S S S S S S S S S S      S S S S S S S S S S S S
|---5---5---5---5---5---5----|---5---5---5---5---5---0-|
|---------5---7---8---5------|-7---5-------7---5-------|
|-6---7----------------------|---------7-----------7---|
|----------------------------|-------------------------|
|----------------------------|-------------------------|
|----------------------------|-------------------------|


  S  S  S  S S  S S  S S S S S   S S S S S S S S S S S S
|---12----12---10---10---8---8-|---7---7---5---5---3---3-|
|------------------------------|-----------------------0-|
|-9----------7---------5-------|-4-------2-------0-------|
|------10---------9--------7---|-----5-------4-------1---|
|------------------------------|-------------------------|
|------------------------------|-------------------------|

  S S S S S S S S S S S S   Q  E     a  E E  E  E  E E
|---3---3---3---3---3---2-|-3----||---------------10---|
|---0-----------2---0---1-|-0----||-12-10-9-10-10----7-|
|-------0---2-----------2-|-0----||--------------------|
|-2---------------0---0---|------||-------------0------|
|-----2---3---0-----------|------||--------------------|
|-------------------------|-3----||--------------------|

   E E E  S S S S E   E E E E E E   E E E Q  E   a E E E
|-------------------|-0-7-5-2-0---|-----3-2--0-|-7-5-4-5---|
|-10---7-10-8-7-8---|-----------3-|-2-0---3--2-|-----------|
|----7------------9-|-------------|------------|-----------|
|-------------------|-------0-----|------------|-----------|
|---------0---------|---------4-2-|-0-----0----|-----------|
|-------------------|-------------|---3-0------|-----------|

   E  E E  E E E    S S S S E E E E   E E E E  a  E  E   T T T Q  E
|----10----------|------------0-7-5-|-4-5-7-9-12-10----|-4-5-7-5-------|
|-10----7-10---7-|-10-8-7-8---------|---------------12-|---------------|
|------------7---|----------9-------|------------------|---------------|
|--0-------------|------------------|------------------|---------------|
|----------------|--0---------------|------------------|-------0-------|
|----------------|------------------|-0----------------|---------------|

   E  E  E  E E E   E E E E  E  E   E a E  E  E E E   E E E E E  E
|-----------------|---0-3------10-|-9-9-7-----------|---0-3--------|
|-10-10-10-10-8-7-|-8-----7-10----|-------10-10-8-7-|-8-----7-8-10-|
|-----------------|---------------|-----------------|--------------|
|-----------------|-------0-----0-|-----0-----------|-------0------|
|-------------0---|-0-4-0----0----|-0------0----0---|-0-4-0--------|
|-----------9---9-|---------------|-----------9---9-|--------------|

  E E  E      E E E E E E   E E E E E E   E E E E E E   Q  E E E E
|-7-9-10---|-10-9-9-7-7-5-|-5-3-3-2-2-0-|-0---0-3---0-|---------------|
|----------|-10---8---7---|-5---3---2---|-0-4-0---2---|-3----3-2-3----|
|----------|--------------|-------------|---------0---|-2-------------|
|----------|----------0---|-------------|-------------|-4-------------|
|----------|--9---7-------|-4---2---0---|---------0---|-5-------------|
|----------|--------------|-------------|-3---0-------|---------------|

  E E  E  E  E  E    S S S S E E E E   E E  E  E  E  E   Q  E S S S S S S
|-----------------|------------------|-----------------|--------------------|
|-2-5-12-10-12-10-|----------7-3-2-3-|-2-5-12-10-12-10-|-3----5-3-2-3-2-3---|
|-----------------|--------7---------|-----------------|-2------------------|
|-5---------------|------7-----------|-5---------------|-4------------------|
|-0---------------|----9-------------|-0---------------|-5------------------|
|-----------------|-10---------------|-----------------|--------------------|

  E E  E  E  E  E   S S S S E S S S S S S   E E  E  E  E  E   E E E E E E E
|-----------------|---------2-------------|-----------------|-------------2--|
|-2-5-12-10-12-10-|-------3---5-3-2-3-2-3-|-2-5-12-10-12-10-|-3-------3------|
|-----------------|-----2-----------------|-----------------|---2---2--------|
|-5---------------|-0-4-------------------|-5---------------|-0---4---0-4----|
|-0---------------|-----------------------|-0---------------|---0---0--------|
|-----------------|-----------------------|-----------------|-----2----------|

  E E E E E  E   Q  Q  Q    H     Q    Q  Q  Q
|-5-2---2-5-10-|----------|------10--|----------*|
|-----3--------|-3--3--3--|-3-----7--|-3--------*|
|-2----------7-|-2--2--2--|-2-----7--|-2--------*|
|---4-0-4-7----|-4--4--4--|-4--------|-4--------*|
|--------------|-5--5--5--|-5--------|-5--------*|
|--------------|----------|----------|----------*|

*************************************************************

Duration Legend
---------------

H - half;  Q - quarter;  E - 8th;  S - 16th;  T - 32nd;  X - 64th

a - acciaccatura
. - note dotted

Irregular groupings are notated above the duration line. Duration letters will
always appear directly above the note/fret number they represent the duration
for. Duration letters with no fret number below them represent rests.

Other Legend
------------

 p   - pull-off
 |  - bar
||  - double bar
||o - repeat start
o|| - repeat end
*|  - double bar (ending)

*************************************************************

Generated using Power Tab Editor by Brad Larsen
http://powertab.guitarnetwork.org

comments
We did not receive enough feedback on this tab! Please rate:
print report bad tab
1 2 3 4 5
I want to post or [tab]
guest
You may want to rate the tab now too:
select rating
Please do not post tabs as comments. Select "correction" instead!