Oops, an error
Loading. Please wait.

Build An Army Bass Tab

ver1
ver1

Whole song

Interactive

More versions @911Tabs.com
813 views 3 this week
no commentswrite comment
1 2 3 4 5
accurate
x 1
Autoscroll
+/-
esc
set tempo
stop
Contributor
Difficulty
Tuning
intermediate
C# G# C# F# A# D#
WARNING: You are trying to view
                                    content from Ultimate-Guitar.com
                                    in an unauthorized application,
                                    which is prohibited.

                                    Please use an official Ultimate
                                    Guitar Tabs application for iPhone,
                                    iPad or Android to access legitimate
                                    chords, guitar, bass, and drum tabs
                                    from Ultimate-Guitar.com database.

                                    Type "ultimate guitar tabs" in Apple
                                    App Store's or Android Market's
                                    search to find the application.
This is just lifted from my powertab
i found this very hard to tab so please feel free to give any comments!

Tuning: Drop C#

h - Hammer
p - Pull
TP - Tremlo Pick (shrap)
b - Bend
r - Release Bend
= - Bend Connector

|------------------------------------------------------------------------|
|---------11-----12-----11-------11h12---------7-------5-5-5-5-2-2-2-2---|
|------------------------------------------------------------------------|
|-9-9-9-9----9-9----9-9----9-9-9-------5-5-5-5---5-5-5-------------------|


|-------------------|--------------------|-----------------|-----------------|
|---------11-----12-|-----11-------11h12-|---------7-------|-5-5-5-5-2-2-2-2-|
|-------------------|--------------------|-----------------|-----------------|
|-9-9-9-9----9-9----|-9-9----9-9-9-------|-5-5-5-5---5-5-5-|-----------------|


|-------------------|--------------------|-----------------|-----------------|
|---------11-----12-|-----11-------11h12-|-5-5-5-5-7-5-5-5-|-----------------|
|-------------------|--------------------|-----------------|-----------------|
|-9-9-9-9----9-9----|-9-9----9-9-9-------|-----------------|-5-5-5-5-2-2-2-2-|


|-------------------|--------------------|-----------------|---------|
|---------11-----12-|-----11-------11h12-|-5-5-5-5-7-5-5-5-|---------|
|-------------------|--------------------|-----------------|---------|
|-9-9-9-9----9-9----|-9-9----9-9-9-------|-----------------|-5b6r====|


|-----------------------------------------------------------------------|
|-----------------------------------------------------------------------|
|-----------------------------------------------------------------------|
|-9-9-9-7-9-9-9-7-9-9-9-7-9-12-12-12-5-5-5-4-5-5-5-4-5-5-5-4-2-2-2-2----|


|-----------------|--------------------|-----------------|----------------|
|-----------------|--------------------|-----------------|----------------|
|-----------------|--------------------|-----------------|----------------|
|-9-9-9-7-9-9-9-7-|-9-9-9-7-9-12-12-12-|-5-5-5-4-5-5-5-4-|-5-5-5-4-2-2-2--|


|-----------------|-----------------|--------------------------------------|
|-9--9-11-12--11--|-9--9-11-14--12--|-5-5-5-5-7-5-5-5-5-12-12-12-12-9-9-9--|
|-----------------|-----------------|--------------------------------------|
|-----------------|-----------------|--------------------------------------|


|-----------------|--------------------|-----------------|--------------------|
|-----------------|--------------------|-----------------|--------------------|
|-----------------|--------------------|-----------------|--------------------|
|-9-9-9-9-9-9-9-9-|-9-9-9-9-9-12-12-12-|-7-7-7-7-7-7-7-7-|-7-7-7-7-7-11-11-11-|


|-----------------|-----------------|-----------------|------------|
|-----------------|-----------------|-----------------|------------|
|-----------------|-----------------|-----------------|------------|
|-5-5-5-5-5-5-5-5-|-5-5-5-5-5-7-7-7-|-2-2-2-2-5-2-2-5-|--5---5--5--|


|-------------------|--------------------|-----------------|-----------------|
|---------11-----12-|-----11-------11h12-|-5-5-5-5-7-5-5-5-|-----------------|
|-------------------|--------------------|-----------------|-----------------|
|-9-9-9-9----9-9----|-9-9----9-9-9-------|-----------------|-5-5-5-5-2-2-2-2-|


|-------------------|--------------------|-----------------|---------|
|---------11-----12-|-----11-------11h12-|-5-5-5-5-7-5-5-5-|---------|
|-------------------|--------------------|-----------------|---------|
|-9-9-9-9----9-9----|-9-9----9-9-9-------|-----------------|-5b6r====|


|-----------------|--------------------|-----------------|-----------------|
|-----------------|--------------------|-----------------|-----------------|
|-----------------|--------------------|-----------------|-----------------|
|-9-9-9-7-9-9-9-7-|-9-9-9-7-9-12-12-12-|-5-5-5-4-5-5-5-4-|-5-5-5-4-2-2-2-2-|


|-----------------|--------------------|-----------------|----------------|
|-----------------|--------------------|-----------------|----------------|
|-----------------|--------------------|-----------------|----------------|
|-9-9-9-7-9-9-9-7-|-9-9-9-7-9-12-12-12-|-5-5-5-4-5-5-5-4-|-5-5-5-4-2-2-2--|


|------------------------------------------------------------------------------------|
|------------------------------------------------------------------------------------|
|------------------------------------------------------------------------------------|
|-0-0-0-0-0-0-0-0-0-0-0-0-0-0-0-0-11-11-11-11-11-11-11-11-11-11-11-11-11-11-11-11----|


|-----------------|---------------|-----------------|-----------------|
|-----------------|---------------|-----------------|-----------------|
|-----------------|---------------|-----------------|-----------------|
|-5-5-5-4-5-5-5-4-|-5-5-5-4-0-0-0-|-5-5-5-4-5-5-5-4-|-5-5-5-4-2-2-2---|


|-----------------|--------------------|-----------------|--------------------|
|-----------------|--------------------|-----------------|--------------------|
|-----------------|--------------------|-----------------|--------------------|
|-9-9-9-9-9-9-9-9-|-9-9-9-9-9-12-12-12-|-7-7-7-7-7-7-7-7-|-7-7-7-7-7-11-11-11-|


|-----------------|-----------------|-----------------|------------|
|-----------------|-----------------|-----------------|------------|
|-----------------|-----------------|-----------------|------------|
|-5-5-5-5-5-5-5-5-|-5-5-5-5-5-7-7-7-|-2-2-2-2-5-2-2-5-|--5---5--5--|


|-------------------|--------------------|-----------------|-----------------|
|---------11-----12-|-----11-------11h12-|-5-5-5-5-7-5-5-5-|-----------------|
|-------------------|--------------------|-----------------|-----------------|
|-9-9-9-9----9-9----|-9-9----9-9-9-------|-----------------|-5-5-5-5-2-2-2-2-|


|-------------------|--------------------|-----------------|------------|
|---------11-----12-|-----11-------11h12-|-5-5-5-5-7-5-5-5-|------------|
|-------------------|--------------------|-----------------|------------|
|-9-9-9-9----9-9----|-9-9----9-9-9-------|-----------------|-5-5-5------|


|----------------------------|
|----------------------------|
|----------------------------|
|-0-0-0-2-2-2-0-0-0-2-2-2----|


|-----------------|-----------------|
|-----------------|-----------------|
|-----------------|-----------------|
|-0-0-0-0-0-0-0-0-|-0-0-0-0-0-0-0-0-|


|-------------------------|-------------------------|
|-------------------------|-------------------------|
|-------------------------|-------------------------|
|-11-11-11-11-11-11-11-11-|-11-11-11-11-11-11-11-11-|


|-----------------|---------------|-----------------|-----------------|
|-----------------|---------------|-----------------|-----------------|
|-----------------|---------------|-----------------|-----------------|
|-5-5-5-4-5-5-5-4-|-5-5-5-4-0-0-0-|-5-5-5-4-5-5-5-4-|-5-5-5-4-2-2-2---|


|-----------------|--------------------|-----------------|-----------------|
|-----------------|--------------------|-----------------|-----------------|
|-----------------|--------------------|-----------------|-----------------|
|-9-9-9-7-9-9-9-7-|-9-9-9-7-9-12-12-12-|-5-5-5-4-5-5-5-4-|-5-5-5-4-2-2-2-2-|


|-----------------|--------------------|-----------------|-----------------|
|-----------------|--------------------|-----------------|-----------------|
|-----------------|--------------------|-----------------|-----------------|
|-9-9-9-7-9-9-9-7-|-9-9-9-7-9-12-12-12-|-5-5-5-4-5-5-5-4-|-5-5-5-4-8-8-8-8-|


|-----------------|------------|
|-----------------|------------|
|-----------------|------------|
|-8-8-8-8-8-8-8-8-|-8-8-8-8----|


|-----------------------------------------|
|-----------------------------------------|
|-----------------------------------------|
|-0-----0--0------0--0------0--0-----8----|


|--------------------------|
|--------------------------|
|--------------------------|
|-(8)----------(8)--(8)----|


|------------|-----------|-----------|---------|
|------------|-----------|-----------|---------|
|------------|-----------|-----------|---------|
|-0-----0--0-|------0--0-|------0--0-|---------|


|---------|-------------------------------------------|
|---------|-------------------------------------------|
|---------|-------------------------------------------|
|---------|---------8-8-8-8-8-8-8-8-8-8-8-8-8-8-8-8---|


|------------|-----------|-----------|-----------------|
|------------|-----------|-----------|-----------------|
|------------|-----------|-----------|--13-12-10-12----|
|-0-----0--0-|------0--0-|------0--0-|-----------------|


|-------------------------------|
|-------------------------------|
|-10-8-10-8-7-8----7-5-7-8-7----|
|-------------------------------|


|----------------------------------------------------------------|
|----------------------------------------------------------------|
|---3-5-6-5-------10-8-7-8-------12-10-8-10-------13-12-10-12----|
|-0---------0--0-----------0--0-------------0--0-----------------|


|-------------------|----------|
|-------------------|----------|
|-10-8-10-8-7-8-7-5-|-7-8-7----|
|-------------------|----------|


|----------------------------------------------------------------------------|
|----------------------------------------------------------------------------|
|----------------------------------------------------------------------------|
|-7-7-7-7-7-7-7-7-10-10-10-10-10-10-10-10-0-0-0-0-0-0-0-0-0-0-8-7-5-7-5-0----|


|----------------------------------|-----------------|------------------|
|----------------------------------|-----------------|------------------|
|----------------------------------|-----------------|-----3-5-6-5-3-5--|
|-8-8-8-8-8-8-8-8-8-8-0-8-10-8-7-8-|-3-3-3-3-3-3-3-3-|-3-3--------------|


|----------------------------------------------------------------|
|----------------------------------------------------------------|
|----------------------------------------------------------------|
|--0-0-0-0-0-0-0--0-0-0-0-0-0-0--3-3-3-3-3-3-3--3-3-3-3-3-3-3----|


|-----------------|--------------------|
|-----------------|--------------------|
|-----------------|--------------------|
|-0-0-0-0-0-0-0-0-|-0-0-8-7-5-7-5-0----|


|-----------------|-----------------|-----------------|------------------|
|-----------------|-----------------|-----------------|------------------|
|-----------------|-----3-5-6-5-3-5-|-----------------|------------------|
|-3-3-3-3-3-3-3-3-|-3-3-------------|-8-8-8-8-8-8-8-8-|-8-8-0-8-10-8-7-8-|


|-----------------------------------------------------------------------|
|-----------------------------------------------10-10-10-10-10-10-10----|
|-----------------------------------------------------------------------|
|--8-8-8-8-8-8-8--8-8-8-8-8-8-8--8-8-8-8-8-8-8--------------------------|


|------------|-----------|-----------|-----------------|
|------------|-----------|-----------|-----------------|
|------------|-----------|-----------|--13-12-10-12----|
|-0-----0--0-|------0--0-|------0--0-|-----------------|


|-------------------|----------|
|-------------------|----------|
|-10-8-10-8-7-8-7-5-|-7-8-7----|
|-------------------|----------|


|----------------|----------------|------------------|-----------------|
|----------------|----------------|------------------|-----------------|
|---3-5-6-5------|--10-8-7-8------|--12-10-8-10------|--13-12-10-12----|
|-0---------0--0-|-----------0--0-|-------------0--0-|-----------------|


|-------------------|----------|
|-------------------|----------|
|-10-8-10-8-7-8-7-5-|-7-8-7----|
|-------------------|----------|


  TPTPTPTPTPTPTPTP TP TP TP TPTPTPTPTP
|------------------------------------------|
|------------------------------------------|
|------------------------------------------|
|-7-7-7-7-7-7-7-7-10-10-10-10-5-5-5-5-0----|
comments
We did not receive enough feedback on this tab! Please rate:
print report bad tab
1 2 3 4 5
I want to post or [tab]
guest
You may want to rate the tab now too:
select rating
Please do not post tabs as comments. Select "correction" instead!