Oops, an error
Loading. Please wait.

Build An Army Tab

ver1
ver1

Intro

Whole song

Interactive

More versions @911Tabs.com
5,100 views 1 this week
8 commentsread comments
1 2 3 4 5
accurate
x 8
add to favorites launch autoscroll
font size
0
reset
Autoscroll
+/-
esc
set tempo
stop
Contributor
WARNING: You are trying to view
                                    content from Ultimate-Guitar.com
                                    in an unauthorized application,
                                    which is prohibited.

                                    Please use an official Ultimate
                                    Guitar Tabs application for iPhone,
                                    iPad or Android to access legitimate
                                    chords, guitar, bass, and drum tabs
                                    from Ultimate-Guitar.com database.

                                    Type "ultimate guitar tabs" in Apple
                                    App Store's or Android Market's
                                    search to find the application.
Title: Build An Army
Artist: Fightstar 
Album: Grand Unification


Two Guitars. weird tuning (shown)... 
If you change the balance on your speakers you can hear each guitar seperatly.
Please comment any corrections....

verse 1 
guitar 1 

(0:02)
e#|----------------------------------------------------------------------|
B#|----------------------------------------------------------------------|
G#|----------------------------------------------------------------------|
D#|-----11---11-----12---12p11---11---12-----7---7-----9---9p7---7---9---|X3
A#|-9-9----9----9-9----9-------9----9----7-7---7---7-7---7-----7---7-----|
D#|-9-9----9----9-9----9-------9----9----7-7---7---7-7---7-----7---7-----|


e#|-----------------------------------------------------------------------|
B#|-----------------------------------------------------------------------|
G#|-----------------------------------------------------------------------|
D#|-----11---11-----12---12p11---11---12-----7---7-----9---9p7-7b---------|
A#|-9-9----9----9-9----9-------9----9----7-7---7---7-7---7----------------|
D#|-9-9----9----9-9----9-------9----9----7-7---7---7-7---7----------------|


guitar 2 
   (0:02)                                                  
                                                      ( these are played on 
e#|--------------------------------------------------------bass but they|
B#|-------------------------------------------------sound good here too)|
G#|---------------------------------------------------------------------|
D#|---------------------------------------------------------------------| X4
A#|-----9---9-----10---9-------9h10------5---5------7-----7-7-7-7-2-2-2-|
D#|-9-9---9---9-9----9---9-9-9-------5-5---5---5-5----------------------|


____________________________________________________________________________


chorus: Both guitars 
(0:27)
e#|---------------------------------------------------------------------|
B#|---------------------------------------------------------------------|
G#|---------------------------------------------------------------------|
D#|---------------------------------------------------------------------| X2
A#|-9-9---8-9-9---8-9-9---8-9---12-12-12---5-5--4--5-5--4-5-5-4-5-2-2-2-|
D#|-9-9---8-9-9---8-9-9---8-9---12-12-12---5-5--4--5-5--4-5-5-4-5-2-2-2-|


____________________________________________________________________________


guitar 1 Fill 
(0:40)          
e#|------------------------------------------------------------------------|
B#|------------------------------------------------------------------------|
G#|------------------------------------------------------------------------|
D#|----11---11-----12---12------11---11/12-------7---7-----9---9p7---7---9-|
A#|9-9----9----9-9----9----9-9-----9---------7-7---7---7-7---7-----7---7---|
D#|9-9----9----9-9----9----9-9-----9---------7-7---7---7-7---7-----7---7---|

guitar 2 Fill
e#|------------|
B#|------------|
G#|-19---------|
D#|--------19--|
A#|------------|
D#|------------|


____________________________________________________________________________


verse 2 


guitar 1
(0:47)
|-------------------------------------------------------------------------|
|-------------------------------------------------------------------------|
|-------------------------------------------------------------------------|
|X-X-11-X-11-X-X-12-X-12-X-X-11-X-12-----X-X-9-X-9-X-X-11-X-11-X-X-9-X-11-| 
|-------------------------------------------------------------------------|
|-------------------------------------------------------------------------|


 Guitar 1                              
e#|------------------------------------------------------------------------|
B#|------------------------------------------------------------------------|
G#|------------------------------------------------------------------------|
D#|X-X-7-X-7-X-X-9-X-9-X-X-7-X-9--X-X-4-X-4-X-X-5-X-7-X-X-9-9-7------------|
A#|------------------------------------------------------------------------|
D#|------------------------------------------------------------------------|

 Guitar 1 
  ( (0:49)      Tremlo                        ) 
e#|------------------------------------------------------------------------|
B#|18-14-16-14-18-14-16--14--18-14-16-14-18-14-----------------------------|
G#|------------------------------------------------------------------------|
D#|---------------------------------------------------------------------
A#|-----------------------------------------------------------------------|
D#|------------------------------------------------------------------------|

 guitar 2(0:47)                   (0:49)
|-------19---------------------|--------------------------------|
|----------19--------------19--|--------------------------------|
|-------------20-----18--------|---19-18----------19-18---------|
|-----------------------19-----|---------19-17-16-------19-7b---| 
|------------------------------||--------------------------------|
|------------------------------||--------------------------------|



____________________________________________________________________________



chorus: Both guitars 
e#|--------------------------------------------------------------------|
B#|--------------------------------------------------------------------|
G#|--------------------------------------------------------------------|
D#|--------------------------------------------------------------------| X2
A#|-9-9---8-9-9---8-9-9---8-9---12-12-12---5-5--4--5-5--4-5-5-4-5-2-2-2|
D#|-9-9---8-9-9---8-9-9---8-9---12-12-12---5-5--4--5-5--4-5-5-4-5-2-2-2|

then ...

e#|---------------------||------------------------------------------------|
B#|---------------------||------------------------------------------------|
G#|---------------------||------------------------------------------------|
D#|---------------------||----------------------------this section twice--| 
A#|---------------------||------------------------------------------------|
D#|-12-(X12)-----7(X12)-||--5--5-4-5--5-4-5--5--2-2-2---------------------|



____________________________________________________________________________


verse 3 (same as verse 2 )


Guitar 1 
|-------------------------------------------------------------------------|
|-------------------------------------------------------------------------|
|-------------------------------------------------------------------------|
|X-X-11-X-11-X-X-12-X-12-X-X-11-X-12-----X-X-9-X-9-X-X-11-X-11-X-X-9-X-11-| 
|-------------------------------------------------------------------------|
|-------------------------------------------------------------------------|


 Guitar 1                              
e#|------------------------------------------------------------------------|
B#|------------------------------------------------------------------------|
G#|------------------------------------------------------------------------|
D#|X-X-7-X-7-X-X-9-X-9-X-X-7-X-9--X-X-4-X-4-X-X-5-X-7-X-X-9-9-7------------|
A#|------------------------------------------------------------------------|
D#|------------------------------------------------------------------------|

 Guitar 1 
  ( (1:50)      Tremlo                        ) 
e#|------------------------------------------------------------------------|
B#|18-14-16-14-18-14-16--14--18-14-16-14-18-14-----------------------------|
G#|------------------------------------------------------------------------|
D#|---------------------------------------------------------------------
A#|-----------------------------------------------------------------------|
D#|------------------------------------------------------------------------|

 
guitar 2                                       (1:50) 
e#|-------------------19---------------------------------------------------|
B#|----------------------19--------------19--------------------------------|
G#|-------------------------20-----18-----------19-18----------19-18-------|
D#|-----------------------------------19--------------19-17-16-------19-7b-|
A#|------------------------------------------------------------------------|
D#|------------------------------------------------------------------------|


____________________________________________________________________________
 


Fill: Both Guitars 
(2:03)
e#|------------------------------------------|
b#|------------------------------------------|
G#|------------------------------------------|
D#|--------2-2-2-------2-2-2-----------------|
A#|--2-2-2-2-2-2-2-2-2-2-2-2-----------------|
D#|--2-2-2-------2-2-2-----------------------|

e#|---------------------||-----------------------------------------------|
B#|---------------------||-----------------------------------------------|
G#|---------------------||-----------------------------------------------|
D#|---------------------||---------------------------this section twice--| 
A#|---------------------||-----------------------------------------------|
D#|-12-(X12)-----7(X12)-||--5--5-4-5--5-4-5--5--2-2-2--------------------|



____________________________________________________________________________



Chorus: both guitars
(2:19)
e#|------------------------------------------------------------------------|
B#|------------------------------------------------------------------------|
G#|------------------------------------------------------------------------|
D#|------------------------------------------------------------------------|
A#|-9-9---8-9-9---8-9-9---8-9---12-12-12---5-5--4--5-5--4-5-5-4-5-2-2-2----|
D#|-9-9---8-9-9---8-9-9---8-9---12-12-12---5-5--4--5-5--4-5-5-4-5-2-2-2----|

e#|------------------------------------------------------------------------|
B#|------------------------------------------------------------------------|
G#|------------------------------------------------------------------------|
D#|------------------------------------------------------------------------|
A#|-9-9---8-9-9---8-9-9---8-9---12-12-12---5-5--4--5-5--4-5-5-4-5-8--------|
D#|-9-9---8-9-9---8-9-9---8-9---12-12-12---5-5--4--5-5--4-5-5-4-5-8--------|



____________________________________________________________________________



Solo
guitar 1 
e#|------------------------------------------------------------------------|
B#|------------------------------------------------------------------------|
G#|------------------------------------------------------------------------|
D#|---------------x-x---------------x-x------------------x-x---------------|
A#|---------------x-x---------------x-x------------------x-x---------------|
D#|12-10-12-13-12-0-0--17-15-14-15--0-0---19-17-15-17----0-0---------------|


guitar 2
e#|------------------------------------------------------------------------|
B#|------------------------------------------------------------------------|
G#|------------------------------------------------------------------------|
D#|x--------------x-x---------------x-x------------------x-x---------------|
A#|x--------------x-x---------------x-x------------------x-x---------------|
D#|0--------------0-0---------------0-0------------------0-0---------------|




guitar1
e#|------------------------------------------------------------------------|
B#|------------------------------------------------------------------------|
G#|------------------------------------------------------------------------|
D#|------------------------------------------------------------------------|
A#|------------------------------------------------------------------------|
D#|20-19-17-19-17-15-17-15-14-15-14-12-14-15-14----------------------------|



guitar 2
e#|------------------------------------------------------------------------|
B#|------------------------------------------------------------------------|
G#|------------------------------------------------------------------------|
D#|----------8------------------------------------------------------------| 
A#|----------8-------------------------------------------------------------|
D#|----------8-------------------------------------------------------------|




guitar 1 
e#|------------------------------------------------------------------------|
B#|------------------------------------------------------------------------|
G#|------------------------------------------------------------------------|
D#|----------------x-x--------------x-x-------------------x-x-------------| 
A#|----------------x-x--------------x-x-------------------x-x--------------|
D#|12-10-12-13-12--0-0--17-15-14-15-0-0----19-17-15-17----0-0--------------|


guitar 2
e#|------------------------------------------------------------------------|
B#|------------------------------------------------------------------------|
G#|------------------------------------------------------------------------|
D#|x---------------x-x--------------x-x-------------------x-x--------------|
A#|x---------------x-x--------------x-x-------------------x-x--------------|
D#|0---------------0-0--------------0-0-------------------0-0--------------|


guitar1
e#|---------------------------------------------------------------------|
B#|---------------------------------------------------------------------|
G#|---------------------------------------------------------------------|
D#|---------------------------------------------------------------------| X2
A#|---------------------------------------------------------------------|
D#|20-19-17-19-17-15-17-15-14-15-14-12-14-15-14-------------------------|





guitar2 enters on second one of the above guitar 1

e#|-----------------------------------------------------------------------|
B#|-----------------------------------------------------------------------|
G#|-----------------------------------------------------------------------|
D#|-0---------------------------------------------------------------------| 
A#|---17-15-13-15-13-12-13-12-10-12-10-8-10-13-12-------------------------|
D#|-----------------------------------------------------------------------|
 
it then repeats.....

guitar 1
e#|------------------------------------------------------------------------|
B#|------------------------------------------------------------------------|
G#|------------------------------------------------------------------------|
D#|---------------x-x---------------x-x------------------x-x--------------| 
A#|---------------x-x---------------x-x------------------x-x---------------|
D#|12-10-12-13-12-0-0--17-15-14-15--0-0---19-17-15-17----0-0---------------|


guitar 2
e#|------------------------------------------------------------------------|
B#|------------------------------------------------------------------------|
G#|------------------------------------------------------------------------|
D#|x--------------x-x---------------x-x------------------x-x---------------|
A#|x--------------x-x---------------x-x------------------x-x---------------|
D#|12-10-12-13-12-0-0--17-15-14-15--0-0---19-17-15-17----0-0---------------|


guitar 1
e#|------------------------------------------------------------------------|
B#|------------------------------------------------------------------------|
G#|------------------------------------------------------------------------|
D#|-----------------------------------------------------------------------| 
A#|------------------------------------------------------------------------|
D#|20-19-17-19-17-15-17-15-14-15-14-12-14-15-14----------------------------|



guitar 2
e#|------------------------------------------------------------------------|
B#|------------------------------------------------------------------------|
G#|------------------------------------------------------------------------|
D#|---------8-------------------------------------------------------------| 
A#|---------8--------------------------------------------------------------|
D#|---------8--------------------------------------------------------------|




guitar 1 
e#|------------------------------------------------------------------------|
B#|------------------------------------------------------------------------|
G#|------------------------------------------------------------------------|
D#|----------------x-x--------------x-x-------------------x-x-------------| 
A#|----------------x-x--------------x-x-------------------x-x--------------|
D#|12-10-12-13-12--0-0--17-15-14-15-0-0----19-17-15-17----0-0--------------|


guitar 2
e#|------------------------------------------------------------------------|
B#|------------------------------------------------------------------------|
G#|------------------------------------------------------------------------|
D#|x--------------x-x---------------x-x-------------------x-x--------------|
A#|x--------------x-x--12-10-8-10---x-x-13-12-10-12-------x-x--------------|
D#|12-10-12-13-12-0-0---------------0-0-------------------0-0--------------|





guitar1
e#|------------------------------------------------------------------------|
B#|------------------------------------------------------------------------|
G#|------------------------------------------------------------------------|
D#|---------------------------------------------7-7-7-7--10-10-10-10------| 
A#|---------------------------------------------7-7-7-7--10-10-10-10-------|
D#|20-19-17-19-17-15-17-15-14-15-14-12-14-15-14-7-7-7-7--10-10-10-10-------|




guitar2 

e#|------------------------------------------------------------------------|
B#|------------------------------------------------------------------------|
G#|------------------------------------------------------------------------|
D#|8----------------------------------------------------------------------| 
A#|8-17-15-13-15-13-12-13-12-10-12-10-8-10-13-12--0-8-10-8------8-10-8-7-5-|
D#|8-------------------------------------------------------8-7-5-----------|
 
 

Both guitars
e#|------------------------------------------------------------------------|
B#|------------------------------------------------------------------------|
G#|------------------------------------------------------------------------|
D#|-12-12-12-12-8-8-8-8-10-10-10-10---------------------------------------| 
A#|-12-12-12-12-8-8-8-8-10-10-10-10---------------------------------------|
D#|-12-12-12-12-8-8-8-8-10-10-10-10----------------------------------------|

Guitar 1 
e#|------------------------------------------------------------------------|
B#|------------------------------------------------------------------------|
G#|-----------------------------------------------------------------------|
D#|-----------------------------------------------------------------------| 
A#|------------------------------------------------------------------------|
D#|5x-(14times)---------------------9x-(14 times)--------------------------|


guitar 2 
e#|------------------------------------------------------------------------|
B#|------------------------------------------------------------------------|
G#|------------------------------------------------------------------------|
D#|15------------14-----------19-----------12------------------------------|
A#|15--(7times)--14-(7 times)-19-(7times)--12-(7 times)--------------------|
D#|------------------------------------------------------------------------|


both guitars
e#|------------------------------------------------------------------------|
B#|------------------------------------------------------------------------|
G#|------------------------------------------------------------------------|
D#|-13-13-13-13-8-8-8-8-12-12-12-12---------------------------------------| 
A#|-13-13-13-13-8-8-8-8-12-12-12-12----------------------------------------|
D#|-13-13-13-13-8-8-8-8-12-12-12-12----------------------------------------|


guitar1
e#|---------------------------------------------------------------------|
B#|---------------------------------------------------------------------|
G#|---------------------------------------------------------------------|
D#|-5-5-5-5-5-5-5-7-7-7-7-7-7-7-8-8-8-8-8-8-8-10-10-10-10-10-10-10------| 
A#|-x-x-x-x-x-x-x-x-x-x-x-x-x-x-x-x-x-x-x-x-x--x--x--x--x--x--x--x------|
D#|-x-x-x-x-x-x-x-x-x-x-x-x-x-x-x-x-x-x-x-x-x--x--x--x--x--x--x--x------|


guitar 2
e#|------------------------------------------------------------------------|
B#|------------------------------------------------------------------------|
G#|------------------------------------------------------------------------|
D#|15------------14---------19----------21--------------------------------| 
A#|15--(7times)--14(7times)-19-(7times)-21-------------------------(7times)|
D#|------------------------------------------------------------------------|



both guitars  
e#|------------------------------------------------------------------------|
B#|------------------------------------------------------------------------|
G#|------------------------------------------------------------------------|
D#|----------------x-x--------------x-x-------------------x-x-------------| 
A#|----------------x-x--------------x-x-------------------x-x--------------|
D#|12-10-12-13-12--0-0--17-15-14-15-0-0----19-17-15-17----0-0--------------|


guitar 1 
e#|------------------------------------------------------------------------|
B#|------------------------------------------------------------------------|
G#|------------------------------------------------------------------------|
D#|-----------------------------------------------------------------------| 
A#|------------------------------------------------------------------------|
D#|20-19-17-19-17-15-17-15-14-15-14-12-14-15-14----------------------------|


guitar 2
e#|------------------------------------------------------------------------|
B#|------------------------------------------------------------------------|
G#|------------------------------------------------------------------------|
D#|----------8------------------------------------------------------------| 
A#|----------8-------------------------------------------------------------|
D#|----------8-------------------------------------------------------------|


both guitars  
e#|------------------------------------------------------------------------|
B#|------------------------------------------------------------------------|
G#|------------------------------------------------------------------------|
D#|----------------x-x--------------x-x-------------------x-x-------------| 
A#|----------------x-x--------------x-x-------------------x-x--------------|
D#|12-10-12-13-12--0-0--17-15-14-15-0-0----19-17-15-17----0-0--------------|


guitar 1 
e#|------------------------------------------------------------------------|
B#|------------------------------------------------------------------------|
G#|------------------------------------------------------------------------|
D#|-----------------------------------------------------------------------| 
A#|------------------------------------------------------------------------|
D#|20-19-17-19-17-15-17-15-14-15-14-12-14-15-14----------------------------|


guitar 2
e#|------------------------------------------------------------------------|
B#|------------------------------------------------------------------------|
G#|------------------------------------------------------------------------|
D#|----------8------------------------------------------------------------| 
A#|----------8-------------------------------------------------------------|
D#|----------8-------------------------------------------------------------|

guitar1
   (              tremlo             )
e#|------------------------------------------------------------------------|
B#|------------------------------------------------------------------------|
G#|------------------------------------------------------------------------|
D#|-----------------------------------------------------------------------| 
A#|------------------------------------------------------------------------|
D#|-5---------7----------3----------0--------------------------------------|




guitar 2 
e#|------------------------------------------------------------------------|
B#|------------------------------------------------------------------------|
G#|------------------------------------------------------------------------|
D#|-----------------------------------------------------------------------| 
A#|------------------------------------------------------------------------|
D#|20-19-17-19-17-15-17-15-14-15-14-12-14-15-14-0--------------------------|



p= pull off
h= hammer on
/= slide
X= mute
comments
print report bad tab
8 comments total. Showing first comments.
0 reply
matty182rules wrote on August 4 2006, 01:26 pm

cool tab but i think u mean drop d flat...(db)

0 reply
Ulysses-rocks wrote on August 25 2006, 05:08 am

yeh, and you could quite ealisy do this in drop d...

0 reply
schecter006 wrote on September 13 2006, 01:47 pm

no it has a low C#

I want to post or [tab]
guest
You may want to rate the tab now too:
select rating
Please do not post tabs as comments. Select "correction" instead!