Oops, an error
Loading. Please wait.

Call To Arms Tab

ver1
ver1

Whole song

Interactive

More versions @911Tabs.com
1,223 views 1 this week
no commentswrite comment
1 2 3 4 5
excellent!
x 2
Autoscroll
+/-
esc
set tempo
stop
Contributor
Hey! There's an official Ultimate Guitar app which is ideal
for learning songs when you're away from computer. Get the app
WARNING: You are trying to view
                                    content from Ultimate-Guitar.com
                                    in an unauthorized application,
                                    which is prohibited.

                                    Please use an official Ultimate
                                    Guitar Tabs application for iPhone,
                                    iPad or Android to access legitimate
                                    chords, guitar, bass, and drum tabs
                                    from Ultimate-Guitar.com database.

                                    Type "ultimate guitar tabs" in Apple
                                    App Store's or Android Market's
                                    search to find the application.
Drop D

 =   - hold bend; also acts as connecting device for hammers/pulls
 b   - bend
 p   - pull-off
 h   - hammer-on
 ~   - let ring
 S   - slide
 c   - continuos strumming/picking

<<<Charlie Simpson, Guitar 1>>>

Intro
|-----9~--------------5~--------|
|---7-----7~--------3-----3~----|
|-------------------------------|
|-------------------------------|
|-------------------------------|
|-------------------------------|

|-----9~--------------2~----------2~----------5~-------|
|---7-----7~--------3-----3~----3-----3~----3-----3----|
|------------------------------------------------------|
|------------------------------------------------------|
|------------------------------------------------------|
|------------------------------------------------------|
        
                  PM.....................
|----------------------------------------------------|
|----------------------------------------------------|
|----------------------------------------------------|
|----------------------------------------------------|
|-----------------5-5-5-5-5-5-5-5-5-5-5-5-5---5------|
|-----------------5-5-5-5-5-5-5-5-5-5-5-5-5---5------|


Pre-Verse
  PM|          PM|          PM|        PM|            PM|            PM|
|-----------------------------------------------------------------------------|
|-----------------------------------------------------------------------------|
|-----------------------------------------------------------------------------|
|-----------------------------------------------------------------------------|
|-----10--10p9-----10--10p9-----10h12-------10--10p9-------10--10p9-------7h9-|
|-9-9----------9-9----------9-9-------12-12----------12-12----------12-12-----|
  PM|        PM|          PM|
|----------------|----------------|
|----------------|----------------|
|----------------|----------------|
|----------------|----------------|
|-----7--7p5-----|-7--7p5-----7h9-|
|-5-5--------5-5-|--------5-5-----|

   PM|.              PM|.               PM|
|-------------------------|---------------------|
|-------------------------|---------------------|
|-------------------------|---------------------|
|-------------------------|---------------------|
|--------5-----5p=4-------|--7-----7--------7h9-|
|--4--4--------------4--4-|-------------7-7-----|

  PM|           PM|             PM|
|-------------------|---------------------|
|-------------------|---------------------|
|-------------------|---------------------|
|-------------------|---------------------|
|-----10---10p9-----|-10---10p9-----10h12-|
|-9-9-----------9-9-|-----------9-9-------|

   PM|               PM|                 PM|
|-------------------------|-------------------------|
|-------------------------|-------------------------|
|-------------------------|-------------------------|
|-------------------------|-------------------------|
|-------10----10p=9-------|-10----10p=9--------7h9--|
|-12-12-------------12-12-|-------------12-12-------|

  PM|         PM|            PM|          PM|         PM|           PM|
|-----------------|---------------------|-----------------|-----------------|
|-----------------|---------------------|-----------------|-----------------|
|-----------------|---------------------|-----------------|-----------------|
|-----------------|---------------------|-----------------|-----------------|
|-----7---7p5-----|-7---7p5--------7h9--|-----5---5p4-----|-7---7-------7h9-|
|-5-5---------5-5-|----------5--5-------|-4-4---------4-4-|---------7-7-----|


Verse
|------------------------------------|
|------------------------------------|
|------------------------------------|
|-9c------12c------5c------4c---7c---|
|-9c------12c------5c------4c---7c---|
|-9c------12c------5c------4c---7c---|

|-----------|----------|-------------|-----------|
|-----------|----------|-------------|-----------|
|-----------|----------|-------------|-----------|
|-9------9--|-----9----|-12------12--|-----12----|
|-9------9--|-----9----|-12------12--|-----12----|
|-9------9--|-----9----|-12------12--|-----12----|

|-------------------|
|-------------------|
|-------------------|
|-5c------4c---7c---|
|-5c------4c---7c---|
|-5c------4c---7c---|


Break  
|--------------------------------5~----------|
|--------------------------------3~----------|
|--------------------------------2~----------|
|-14---9--11~----------14----9---0~----------|
|-12---7---9~----------12----7---0~----------|
|-12---7---9~----------12----7---0~----------|


Pre-Chorus
|---0~-----------------------5~----------------0~-------|
|--3~------------------------3~-------------------3~----|
|-2~-------------------------2~-------------------------|
|-0~-------------------------0~-------------------------|
|-0~-------------------------0~-------------------------|
|-0~-------------------------0~-------------------------|


Chorus
|-------------------------------------------------|
|-------------------------------------------------|
|-------------------------------------------------|
|-0--0--0--0--0--0--0--0--0--0--0--0--0--0--0--0--|
|-0--0--0--0--0--0--0--0--0--0--0--0--0--0--0--0--|
|-0--0--0--0--0--0--0--0--0--0--0--0--0--0--0--0--|

|---------------------------------------------------|
|---------------------------------------------------|
|---------------------------------------------------|
|-5--5--5--5--5--5--5--5--5--5--5--5--5--5--5--5----|
|-5--5--5--5--5--5--5--5--5--5--5--5--5--5--5--5----|
|-5--5--5--5--5--5--5--5--5--5--5--5--5--5--5--5----|

|-------------------------------------------------|
|-------------------------------------------------|
|-------------------------------------------------|
|-0--0--0--0--0--0--0--0--0--0--0--0--0--0--0--0--|
|-0--0--0--0--0--0--0--0--0--0--0--0--0--0--0--0--|
|-0--0--0--0--0--0--0--0--0--0--0--0--0--0--0--0--|

|-------------------------------------------------|
|-------------------------------------------------|
|-------------------------------------------------|
|-5--5--5--5--5--5--5--5--5--5--5--5--5--5--5--5--|
|-5--5--5--5--5--5--5--5--5--5--5--5--5--5--5--5--|
|-5--5--5--5--5--5--5--5--5--5--5--5--5--5--5--5--|

|-------------------------------|
|-------------------------------|
|-------------------------------|
|-9c------7c------5c------------|
|-9c------7c------5c------------|
|-9c------7c------5c------------|


Pre-Verse
  PM|           PM|             PM|
|-------------------|---------------------|
|-------------------|---------------------|
|-------------------|---------------------|
|-------------------|---------------------|
|-----10---10p9-----|-10---10p9-----10h12-|
|-9-9-----------9-9-|-----------9-9-------|

   PM|               PM|                 PM|
|-------------------------|-------------------------|
|-------------------------|-------------------------|
|-------------------------|-------------------------|
|-------------------------|-------------------------|
|-------10----10p=9-------|-10----10p=9--------7h9--|
|-12-12-------------12-12-|-------------12-12-------|

  PM|         PM|            PM|          PM|         PM|           PM|
|-----------------|---------------------|-----------------|-----------------|
|-----------------|---------------------|-----------------|-----------------|
|-----------------|---------------------|-----------------|-----------------|
|-----------------|---------------------|-----------------|-----------------|
|-----7---7p5-----|-7---7p5--------7h9--|-----5---5p4-----|-7---7-------7h9-|
|-5-5---------5-5-|----------5--5-------|-4-4---------4-4-|---------7-7-----|


Verse
|------------------------------------|
|------------------------------------|
|------------------------------------|
|-9c------12c------5c------4c---7c---|
|-9c------12c------5c------4c---7c---|
|-9c------12c------5c------4c---7c---|

|-----------|----------|-------------|-----------|
|-----------|----------|-------------|-----------|
|-----------|----------|-------------|-----------|
|-9------9--|-----9----|-12------12--|-----12----|
|-9------9--|-----9----|-12------12--|-----12----|
|-9------9--|-----9----|-12------12--|-----12----|

|-------------------|
|-------------------|
|-------------------|
|-5c------4c---7c---|
|-5c------4c---7c---|
|-5c------4c---7c---|


Break  
|--------------------------------5~----------|
|--------------------------------3~----------|
|--------------------------------2~----------|
|-14---9--11~----------14----9---0~----------|
|-12---7---9~----------12----7---0~----------|
|-12---7---9~----------12----7---0~----------|


Pre-Chorus
|---0~-----------------------5~----------------0~-------|
|--3~------------------------3~-------------------3~----|
|-2~-------------------------2~-------------------------|
|-0~-------------------------0~-------------------------|
|-0~-------------------------0~-------------------------|
|-0~-------------------------0~-------------------------|


Chorus
|-------------------------------------------------|
|-------------------------------------------------|
|-------------------------------------------------|
|-0--0--0--0--0--0--0--0--0--0--0--0--0--0--0--0--|
|-0--0--0--0--0--0--0--0--0--0--0--0--0--0--0--0--|
|-0--0--0--0--0--0--0--0--0--0--0--0--0--0--0--0--|

|---------------------------------------------------|
|---------------------------------------------------|
|---------------------------------------------------|
|-5--5--5--5--5--5--5--5--5--5--5--5--5--5--5--5----|
|-5--5--5--5--5--5--5--5--5--5--5--5--5--5--5--5----|
|-5--5--5--5--5--5--5--5--5--5--5--5--5--5--5--5----|

|-------------------------------------------------|
|-------------------------------------------------|
|-------------------------------------------------|
|-0--0--0--0--0--0--0--0--0--0--0--0--0--0--0--0--|
|-0--0--0--0--0--0--0--0--0--0--0--0--0--0--0--0--|
|-0--0--0--0--0--0--0--0--0--0--0--0--0--0--0--0--|

|-------------------------------------------------|
|-------------------------------------------------|
|-------------------------------------------------|
|-5--5--5--5--5--5--5--5--5--5--5--5--5--5--5--5--|
|-5--5--5--5--5--5--5--5--5--5--5--5--5--5--5--5--|
|-5--5--5--5--5--5--5--5--5--5--5--5--5--5--5--5--|

|-------------------------------|
|-------------------------------|
|-------------------------------|
|-9c------7c------5c------------|
|-9c------7c------5c------------|
|-9c------7c------5c------------|


Bridge
                  PM|......
|--------------------------------------------------------|
|--------------------------------------------------------|
|--------------------------------------------------------|
|-9--9-9----------0--0-0--0------------5c------4c---7c---|
|-9--9-9--9h10p9--0--0-0--0---9h10p9---5c------4c---7c---|
|-9--9-9----------0--0-0--0---------12-5c------4c---7c---|

                  PM|.......................................
|-------------------------------------------------------------|
|-------------------------------------------------------------|
|-------------------------------------------------------------|
|-9--9-9----------0--0-0--0--0-0-0--0--0-0-0--0--0-0-0--0--0--|
|-9--9-9--9h10p9--0--0-0--0--0-0-0--0--0-0-0--0--0-0-0--0--0--|
|-9--9-9----------0--0-0--0--0-0-0--0--0-0-0--0--0-0-0--0--0--|

                                PM|..........
|-------------------------------------------------------|
|-------------------------------------------------------|
|-------------------------------------------------------|
|-5c------4c------7c------------5-5-5-5-5-5-5-5-5-5-5-5-|
|-5c------4c------7c------------5-5-5-5-5-5-5-5-5-5-5-5-|
|-5c------4c------7c------------5-5-5-5-5-5-5-5-5-5-5-5-|


Pre-Outro
|------------------|
|------------------|
|-------REST-------|
|------------------|
|------------------|
|------------------|

Outro
|---------------------------------------------------|
|---------------------------------------------------|
|---------------------------------------------------|
|-5--5--5--5--5--5--5--5--5--5--5--5--5--5--5--5----|
|-5--5--5--5--5--5--5--5--5--5--5--5--5--5--5--5----|
|-5--5--5--5--5--5--5--5--5--5--5--5--5--5--5--5----|

  PM|....
|-------------------------------------------------|
|-------------------------------------------------|
|-------------------------------------------------|
|-0--0--0--0--0--0--0--0--0--0--0--0--0--0--0--0--|
|-0--0--0--0--0--0--0--0--0--0--0--0--0--0--0--0--|
|-0--0--0--0--0--0--0--0--0--0--0--0--0--0--0--0--|

|-------------------------------------------------|
|-------------------------------------------------|
|-------------------------------------------------|
|-5--5--5--5--5--5--5--5--5--5--5--5--5--5--5--5--|
|-5--5--5--5--5--5--5--5--5--5--5--5--5--5--5--5--|
|-5--5--5--5--5--5--5--5--5--5--5--5--5--5--5--5--|

|---------------------------------|
|---------------------------------|
|-------4-4-4-------7-7-7---------|
|-9-9-9-4-4-4-7-7-7-7-7-7-5c------|
|-9-9-9-------7-7-7-------5c------|
|-9-9-9-------7-7-7-------5c------|

|---------------------------------|
|---------------------------------|
|-------4-4-4-------7-7-7---------|
|-9-9-9-4-4-4-7-7-7-7-7-7-5~------|
|-9-9-9-------7-7-7-------5~------|
|-9-9-9-------7-7-7-------5~------|

*******************************************************************************************

<<<Alex Westaway, Guitar 2>>>

Intro
|------------------|
|------------------|
|-------REST-------|
|------------------|
|------------------|
|------------------|

Pre-Verse
|-----------------------------------------------------------------------------|
|-----------------------------------------------------------------------------|
|------7---7p6------7---7p6------7h=9--------9---9p7--------9---9p7-------6h7-|
|-x-x----------x-x----------x-x--------x--x-----------x--x-----------x--x-----|
|-x-x----------x-x----------x-x--------x--x-----------x--x-----------x--x-----|
|-x-x----------x-x----------x-x--------x--x-----------x--x-----------x--x-----|

|----------------|----------------|
|----------------|----------------|
|-----6--6p4-----|-6--6p4-----6h7-|
|-x-x--------x-x-|--------x-x-----|
|-x-x--------x-x-|--------x-x-----|
|-x-x--------x-x-|--------x-x-----|

|-------------------------|---------------------|
|-------------------------|---------------------|
|--------4-----4p=2-------|--6-----6--------6h7-|
|--x--x--------------x--x-|-------------x-x-----|
|--x--x--------------x--x-|-------------x-x-----|
|--x--x--------------x--x-|-------------x-x-----|

|-------------------|---------------------|
|-------------------|---------------------|
|------7----7p6-----|--7----7p6------7h=9-|
|-x-x-----------x-x-|-----------x-x-------|
|-x-x-----------x-x-|-----------x-x-------|
|-x-x-----------x-x-|-----------x-x-------|

|-------------------------|-------------------------|
|-------------------------|-------------------------|
|--------9-----9p=7-------|--9-----9p=7--------6h=7-|
|--x--x--------------x--x-|--------------x--x-------|
|--x--x--------------x--x-|--------------x--x-------|
|--x--x--------------x--x-|--------------x--x-------|

|-----------------|---------------------|-----------------|-----------------|
|-----------------|---------------------|-----------------|-----------------|
|-----6---6p4-----|-6---6p4--------6h=7-|-----4---4p2-----|-6---6-------6h7-|
|-x-x---------x-x-|----------x--x-------|-x-x---------x-x-|---------x-x-----|
|-x-x---------x-x-|----------x--x-------|-x-x---------x-x-|---------x-x-----|
|-x-x---------x-x-|----------x--x-------|-x-x---------x-x-|---------x-x-----|

Verse
|         PM|      PM    PM|      PM    PM|      PM    PM
|--------------------------------------------------------|
|--------------------------------------------------------|
|--------------------------------------------------------|
|-9c------------4-----4--------2-----2--------0-----2----|
|-9c-----------------------------------------------------|
|-9c------0--0-----0-----0--0-----0-----0--0-----0-----0-|

|----------------------------------------|
|----------------------------------------|
|--------6---6---6----9---9---9---4s9-11-|
|-5c-----x---x---x----x---x---x---xsx--x-|
|-5c-----4---4---4----7---7---7---6s7--9-|
|-5c-------------------------------------|

|-----------|----------|-------------|-----------|
|-----------|----------|-------------|-----------|
|-----------|----------|-------------|-----------|
|-9------9--|-----9----|--0-------0--|------0----|
|-9------9--|-----9----|--0-------0--|------0----|
|-9------9--|-----9----|--0-------0--|------0----|

|-------------------|
|-------------------|
|-------------------|
|-5c------4c---7c---|
|-5c------4c---7c---|
|-5c------4c---7c---|

Break
|------------------|
|------------------|
|-------REST-------|
|------------------|
|------------------|
|------------------|

Pre-Chrous
|-----------------------------------------------------|
|------------------3~---------------------------------|
|---------------------2~------------------------------|
|-0~-------------------------0~-----------------------|
|-0~-------------------------0~-----------------------|
|-0~-------------------------0~-----------------------|

Chrous
|--------------------------------------------------------|
|--------15--------15--------15--------15--------15------|
|----14--------14--------14--------14--------14----------|
|--------------------------------------------------------|
|--------------------------------------------------------|
|--------------------------------------------------------|

|---------------------------------------------|
|------8-------8-------8-------8-------8------|
|---7-------7-------7-------7-------7---------|
|---------------------------------------------|
|---------------------------------------------|
|---------------------------------------------|

|--------------------------------------------------------|
|--------15--------15--------15--------15--------15------|
|----14--------14--------14--------14--------14----------|
|--------------------------------------------------------|
|--------------------------------------------------------|
|--------------------------------------------------------|

|---------------------------------------------|
|------8-------8-------8-------8-------8------|
|---7-------7-------7-------7-------7---------|
|---------------------------------------------|
|---------------------------------------------|
|---------------------------------------------|

|-----------------|-------------------|----------------|----------------|
|---------15------|------15-----------|--------10------|-----10---------|
|----14-----------|-14-----------14---|----9-----------|-9-----------9--|
|-----------------|-------------------|----------------|----------------|
|-----------------|-------------------|----------------|----------------|
|-----------------|-------------------|----------------|----------------|

|-----------------|-------------------|-----------------|-------------------|
|---------15------|------15-----------|---------15------|------15-----------|
|----14-----------|-14-----------14---|----14-----------|-14-----------14---|
|-----------------|-------------------|-----------------|-------------------|
|-----------------|-------------------|-----------------|-------------------|
|-----------------|-------------------|-----------------|-------------------|

Pre-Verse
|-------------------|---------------------|
|-------------------|---------------------|
|------7----7p6-----|--7----7p6------7h=9-|
|-x-x-----------x-x-|-----------x-x-------|
|-x-x-----------x-x-|-----------x-x-------|
|-x-x-----------x-x-|-----------x-x-------|

|-------------------------|-------------------------|
|-------------------------|-------------------------|
|--------9-----9p=7-------|--9-----9p=7--------6h=7-|
|--x--x--------------x--x-|--------------x--x-------|
|--x--x--------------x--x-|--------------x--x-------|
|--x--x--------------x--x-|--------------x--x-------|

|-----------------|---------------------|-----------------|-----------------|
|-----------------|---------------------|-----------------|-----------------|
|-----6---6p4-----|-6---6p4--------6h=7-|-----4---4p2-----|-6---6-------6h7-|
|-x-x---------x-x-|----------x--x-------|-x-x---------x-x-|---------x-x-----|
|-x-x---------x-x-|----------x--x-------|-x-x---------x-x-|---------x-x-----|
|-x-x---------x-x-|----------x--x-------|-x-x---------x-x-|---------x-x-----|

Verse
|         PM|      PM    PM|      PM    PM|      PM    PM
|--------------------------------------------------------|
|--------------------------------------------------------|
|--------------------------------------------------------|
|-9c------------4-----4--------2-----2--------0-----2----|
|-9c-----------------------------------------------------|
|-9c------0--0-----0-----0--0-----0-----0--0-----0-----0-|

|----------------------------------------|
|----------------------------------------|
|--------6---6---6----9---9---9---4s9-11-|
|-5c-----x---x---x----x---x---x---xsx--x-|
|-5c-----4---4---4----7---7---7---6s7--9-|
|-5c-------------------------------------|

|-----------|----------|-------------|-----------|
|-----------|----------|-------------|-----------|
|-----------|----------|-------------|-----------|
|-9------9--|-----9----|--0-------0--|------0----|
|-9------9--|-----9----|--0-------0--|------0----|
|-9------9--|-----9----|--0-------0--|------0----|

|-------------------|
|-------------------|
|-------------------|
|-5c------4c---7c---|
|-5c------4c---7c---|
|-5c------4c---7c---|

Break
|------------------|
|------------------|
|-------REST-------|
|------------------|
|------------------|
|------------------|

Pre-Chrous
|-----------------------------------------------------|
|------------------3~---------------------------------|
|---------------------2~------------------------------|
|-0~-------------------------0~-----------------------|
|-0~-------------------------0~-----------------------|
|-0~-------------------------0~-----------------------|

Chrous
|--------------------------------------------------------|
|--------15--------15--------15--------15--------15------|
|----14--------14--------14--------14--------14----------|
|--------------------------------------------------------|
|--------------------------------------------------------|
|--------------------------------------------------------|

|---------------------------------------------|
|------8-------8-------8-------8-------8------|
|---7-------7-------7-------7-------7---------|
|---------------------------------------------|
|---------------------------------------------|
|---------------------------------------------|

|--------------------------------------------------------|
|--------15--------15--------15--------15--------15------|
|----14--------14--------14--------14--------14----------|
|--------------------------------------------------------|
|--------------------------------------------------------|
|--------------------------------------------------------|

|---------------------------------------------|
|------8-------8-------8-------8-------8------|
|---7-------7-------7-------7-------7---------|
|---------------------------------------------|
|---------------------------------------------|
|---------------------------------------------|

|-----------------|-------------------|----------------|----------------|
|---------15------|------15-----------|--------10------|-----10---------|
|----14-----------|-14-----------14---|----9-----------|-9-----------9--|
|-----------------|-------------------|----------------|----------------|
|-----------------|-------------------|----------------|----------------|
|-----------------|-------------------|----------------|----------------|

|-----------------|-------------------|-----------------|-------------------|
|---------15------|------15-----------|---------15------|------15-----------|
|----14-----------|-14-----------14---|----14-----------|-14-----------14---|
|-----------------|-------------------|-----------------|-------------------|
|-----------------|-------------------|-----------------|-------------------|
|-----------------|-------------------|-----------------|-------------------|

Bridge
                 PM|.........
|------------------------------------------------------|
|---------6h7p6---------------6h7p6--------------------|
|------------------------------------------------------|
|-9--9-9---------0--0-0--0--0--------5c------4c---7c---|
|-9--9-9---------0--0-0--0--0--------5c------4c---7c---|
|-9--9-9---------0--0-0--0--0--------5c------4c---7c---|

                 PM|.......................................
|------------------------------------------------------------|
|---------6h7p6----------------------------------------------|
|------------------------------------------------------------|
|-9--9-9---------0--0-0--0--0-0-0--0--0-0-0--0--0-0-0--0--0--|
|-9--9-9---------0--0-0--0--0-0-0--0--0-0-0--0--0-0-0--0--0--|
|-9--9-9---------0--0-0--0--0-0-0--0--0-0-0--0--0-0-0--0--0--|

                                PM|..........
|-------------------------------------------------------|
|-------------------------------------------------------|
|-------------------------------------------------------|
|-5c------4c------7c------------5-5-5-5-5-5-5-5-5-5-5-5-|
|-5c------4c------7c------------5-5-5-5-5-5-5-5-5-5-5-5-|
|-5c------4c------7c------------5-5-5-5-5-5-5-5-5-5-5-5-|


Pre-Outro
|------------------|
|------------------|
|-------REST-------|
|------------------|
|------------------|
|------------------|

Outro
|---------------------------------------------------|
|---------------------------------------------------|
|---------------------------------------------------|
|-5--5--5--5--5--5--5--5--5--5--5--5--5--5--5--5----|
|-5--5--5--5--5--5--5--5--5--5--5--5--5--5--5--5----|
|-5--5--5--5--5--5--5--5--5--5--5--5--5--5--5--5----|

|-------------------------------------------------|
|-------------------------------------------------|
|-------------------------------------------------|
|-0--0--0--0--0--0--0--0--0--0--0--0--0--0--0--0--|
|-0--0--0--0--0--0--0--0--0--0--0--0--0--0--0--0--|
|-0--0--0--0--0--0--0--0--0--0--0--0--0--0--0--0--|

|-------------------------------------------------|
|-------------------------------------------------|
|-------------------------------------------------|
|-5--5--5--5--5--5--5--5--5--5--5--5--5--5--5--5--|
|-5--5--5--5--5--5--5--5--5--5--5--5--5--5--5--5--|
|-5--5--5--5--5--5--5--5--5--5--5--5--5--5--5--5--|

|---------------------------------|
|---------------------------------|
|-------4-4-4-------7-7-7---------|
|-9-9-9-4-4-4-7-7-7-7-7-7-5c------|
|-9-9-9-------7-7-7-------5c------|
|-9-9-9-------7-7-7-------5c------|

|---------------------------------|
|---------------------------------|
|-------4-4-4-------7-7-7---------|
|-9-9-9-4-4-4-7-7-7-7-7-7-5~------|
|-9-9-9-------7-7-7-------5~------|
|-9-9-9-------7-7-7-------5~------|

*************************************************************************************

This is also played during the Pre-Verse
Pre-verse1
|----------------|----------------|-------------------------|---------------------|
|----------------|----------------|-------------------------|---------------------|
|----------------|----------------|-11-11-11-11-11-11-11-11-|-14-14-14-14-6-6-6-6-|
|----------------|----------------|--x--x--x--x--x--x--x--x-|--x--x--x--x-x-x-x-x-|
|----------------|----------------|--9--9--9--9--9--9--9--9-|-12-12-12-12-4-4-4-4-|
|----------------|----------------|-------------------------|---------------------|

|-----------------|------------------|
|-----------------|------------------|
|-7-7-7-7-7-7-7-7-|--7-7-7-7-9-9-9-9-|
|-x-x-x-x-x-x-x-x-|--x-x-x-x-x-x-x-x-|
|-5-5-5-5-5-5-5-5-|--5-5-5-5-7-7-7-7-|
|-----------------|------------------|

|-------------------------|-------------------------|
|-------------------------|-------------------------|
|-11-11-11-11-11-11-11-11-|-11-11-11-11-14-14-14-14-|
|--x--x--x--x--x--x--x--x-|--x--x--x--x--x--x--x--x-|
|--9--9--9--9--9--9--9--9-|--9--9--9--9-12-12-12-12-|
|-------------------------|-------------------------|

|-----------------|---------------------|-----------------|-----------------|
|-----------------|---------------------|-----------------|-----------------|
|-9-9-9-9-9-9-9-9-|-7-7-7-7-14-14-14-14-|-7-7-7-7-7-7-7-7-|-6-6-6-6-6-6-6-6-|
|-x-x-x-x-x-x-x-x-|-x-x-x-x--x--x--x--x-|-x-x-x-x-x-x-x-x-|-x-x-x-x-x-x-x-x-|
|-7-7-7-7-7-7-7-7-|-5-5-5-5-12-12-12-12-|-5-5-5-5-5-5-5-5-|-4-4-4-4-4-4-4-4-|
|-----------------|---------------------|-----------------|-----------------|

Pre-Verse2
|-----------------|------------------|
|-----------------|------------------|
|-7-7-7-7-7-7-7-7-|--7-7-7-7-9-9-9-9-|
|-x-x-x-x-x-x-x-x-|--x-x-x-x-x-x-x-x-|
|-5-5-5-5-5-5-5-5-|--5-5-5-5-7-7-7-7-|
|-----------------|------------------|

|-------------------------|-------------------------|
|-------------------------|-------------------------|
|-11-11-11-11-11-11-11-11-|-11-11-11-11-14-14-14-14-|
|--x--x--x--x--x--x--x--x-|--x--x--x--x--x--x--x--x-|
|--9--9--9--9--9--9--9--9-|--9--9--9--9-12-12-12-12-|
|-------------------------|-------------------------|

|-----------------|---------------------|-----------------|-----------------|
|-----------------|---------------------|-----------------|-----------------|
|-9-9-9-9-9-9-9-9-|-7-7-7-7-14-14-14-14-|-7-7-7-7-7-7-7-7-|-6-6-6-6-6-6-6-6-|
|-x-x-x-x-x-x-x-x-|-x-x-x-x--x--x--x--x-|-x-x-x-x-x-x-x-x-|-x-x-x-x-x-x-x-x-|
|-7-7-7-7-7-7-7-7-|-5-5-5-5-12-12-12-12-|-5-5-5-5-5-5-5-5-|-4-4-4-4-4-4-4-4-|
|-----------------|---------------------|-----------------|-----------------|
comments
We did not receive enough feedback on this tab! Please rate:
print report bad tab
1 2 3 4 5
I want to post or [tab]
guest
You may want to rate the tab now too:
select rating
Please do not post tabs as comments. Select "correction" instead!