Oops, an error
Loading. Please wait.

Call To Arms Tab

ver2
ver2

Whole song

Interactive

More versions @911Tabs.com
197 views 1 this week
no commentswrite comment
1 2 3 4 5
accurate
x 2
Autoscroll
+/-
esc
set tempo
stop
Contributor
Difficulty
Tuning
novice
D A D G B E
Hey! There's an official Ultimate Guitar app which is ideal
for learning songs when you're away from computer. Get the app
WARNING: You are trying to view
                                    content from Ultimate-Guitar.com
                                    in an unauthorized application,
                                    which is prohibited.

                                    Please use an official Ultimate
                                    Guitar Tabs application for iPhone,
                                    iPad or Android to access legitimate
                                    chords, guitar, bass, and drum tabs
                                    from Ultimate-Guitar.com database.

                                    Type "ultimate guitar tabs" in Apple
                                    App Store's or Android Market's
                                    search to find the application.
Tabbed by: Matt
Email: Matthew_norton@hotmail.com

Tuning: Drop D

Guitar 1 - Charlie Simpson

Guitar 2 - Alex Westaway

e|------9----------5----------9-----------------2-------2-------5-----------|
B|----7---7------3---3------7---7-------------0---0---0---0---3---3---------|
G|--------------------------------------------------------------------------|
D|--------------------------------------------------------------------------|
A|--------------------------------------------------------------------------|
D|--9----------5----------9--------11-12----2-------0-------5---------------|

e|--------------------------------------------------------------------------|
B|--------------------------------------------------------------------------|
G|--------------------------------------------------------------------------|
D|--------------------------------------------------------------------------|
A|--------------------------------------------------------------------------|
D|--555555555555555---------------------------------------------------------|
pm  xxxxxxxxxxxxxxx

Guitar 1 (lower parts) Guitar 2 (higher parts)
e|--------------------------------------------------------------------------|
B|--------------------------------------------------------------------------|
G|--------------------------------------------------------------------------|
D|-------12---12p11----12---12p11----12h14----------------------------------|
A|-------10---10p9-----10---10p9-----10h12----------------------------------|
D|--9-9-----9------9-9----9------9-9----------------------------------------|

e|--------------------------------------------------------------------------|
B|--------------------------------------------------------------------------|
G|--------------------------------------------------------------------------|
D|-------14---14p12----14---14p12---11h12-----------------------------------|
A|-------10---10p9-----10---10p9-----7h9------------------------------------|
D|--0-0-----0------0-0----0------0-0----------------------------------------|

e|--------------------------------------------------------------------------|
B|--------------------------------------------------------------------------|
G|--------------------------------------------------------------------------|
D|------11-11p9-----11-11p9----11h12----------------------------------------|
A|------7---7p5-----7---7p5-----7h9-----------------------------------------|
D|--5-5---5-----5-5---5-----5-5---------------------------------------------|

e|--------------------------------------------------------------------------|
B|--------------------------------------------------------------------------|
G|--------------------------------------------------------------------------|
D|------9---9p7-----11--11~----11/12----------------------------------------|
A|------5---5p4-----7---7~------7/9-----------------------------------------|
D|--4-4---4-----4-4---4-----4-4---------------------------------------------|

Guitar 3 (second time only)
e|--------------------------------------------------------------------------|
B|--------------------------------------------------------------------------|
G|--11c--14c--6c-7c----9c--11c----14c-9c--7c---14c---7c--6c---7~------------|
D|--x----x----x--x-----x---x------x---x---x----x-----x---x----x-------------|
A|--9c---12c--4c-5c----7c--9c-----12c-7c--5c---12c---5c--4c---5~------------|
D|--------------------------------------------------------------------------|

Guitar 1 Verse
e|--------------------------------------------------------------------------|
B|--------------------------------------------------------------------------|
G|----------------------6/7\6/7-7-7-7-9-9-9\7/9-11--------------------------|
D|--9~------0~------5~--x-x-x-x-x-x-x-x-x-x-x-x-x---------------------------|
A|--9~------0~------5~--4/5\4/5-5-5-5-7-7-7\5/7-9---------------------------|
D|--9~------0~------5~------------------------------------------------------|

Guitar 2 Verse
e|--------------------------------------------------------------------------|
B|----------15--------------------------------------------------------------|
G|------14----14--14--------------------------------------------------------|
D|----12--12----12----------------------------------------------------------|
A|--14---------------x8-----------------------------------------------------|
D|--------------------------------------------------------------------------|

Guitar 1
e|--------------------------------------------------------------------------|
B|--------------------------------------------------------------------------|
G|--------------------------------------------------------------------------|
D|--9-9----9-9---9----0-0----0-0---0---5c------4c---------------------------|
A|--9-9----9-9---9----0-0----0-0---0---5c------4c---------------------------|
D|--9-9----9-9---9----0-0----0-0---0---5c------4c---------------------------|

Guitar 2
e|--------------------------------------------------------------------------|
B|-----------------------------------------------15-------------------------|
G|--6/7777-6/7777-6/7-6/7777-6/7777-6/7------14----14--14-------------------|
D|--x-xxxx-x-xxxx-x-x-x-xxxx-x-xxxx-x-x----12--12----12---------------------|
A|--4/5555-4/5555-4/5-4/5555-4/5555-4/5--14----------------x4---------------|
D|--------------------------------------------------------------------------|

Bridge Guitar 2
e|--0----0---0---------0----0-----0-----------------------------------------|
B|--0----0---0---------0----0-----0-----------------------------------------|
G|--2----9---11--------11---7-----14----------------------------------------|
D|--0----7---9---------9----5-----12----------------------------------------|
A|--0----7---9---------9----5-----12----------------------------------------|
D|--0----7---9---------9----5-----12----------------------------------------|

Break Both Guitars (on the extra notes, guitar 1 plays the 0 2 and guitar 2 plays 0 0
e|-------0---------------0-----0--------------------------------------------|
B|------0----0----------0--------0------------------------------------------|
G|-----2--------2------7----------------------------------------------------|
D|----0---------------5-----------------------------------------------------|
A|---0---------------5------------------------------------------------------|
D|--0---------------5-------------------------------------------------------|
             G1                G2
Chorus Guitar 1
e|--------------------------------------------------------------------------|
B|--------------------------------------------------------------------------|
G|--2c--------------7c------------------------------------------------------|
D|--0c--------------5c------------------------------------------------------|
A|--0c--------------5c------------------------------------------------------|
D|--0c--------------5c------------------------------------------------------|

Guitar 2
e|---------------------------------------------------------------------------|
B|------15-------15-------15-------15-------15----12-------12-------12-------|
G|---14-------14-------14-------14-------14----14----14-------14-------14----|
D|12-------12-------12-------12-------12----------------12-------12-------12-|
A|---------------------------------------------------------------------------|
D|---------------------------------------------------------------------------|

Guitar 1
e|--------------------------------------------------------------------------|
B|--------------------------------------------------------------------------|
G|--11c-----9c------7c------------------------------------------------------|
D|--9c------7c------5c------------------------------------------------------|
A|--9c------7c------5c------------------------------------------------------|
D|--9c------7c------5c------------------------------------------------------|

Guitar 2
e|---------------------------------------------------------------------------|
B|15-------15-------15----14-------14-------14---[15-------15-------15---]---|
G|---14-------14-------14----14-------14-------14[---14-------14-------14]---|
D|------12-------12-------------12-------12------[------12-------12----------|x2
A|---------------------------------------------------------------------------|
D|---------------------------------------------------------------------------|

Guitar 1 (lower parts) Guitar 2 (higher parts)
e|--------------------------------------------------------------------------|
B|--------------------------------------------------------------------------|
G|--------------------------------------------------------------------------|
D|-------12---12p11----12---12p11----12h14----------------------------------|
A|-------10---10p9-----10---10p9-----10h12----------------------------------|
D|--9-9-----9------9-9----9------9-9----------------------------------------|

e|--------------------------------------------------------------------------|
B|--------------------------------------------------------------------------|
G|--------------------------------------------------------------------------|
D|-------14---14p12----14---14p12---11h12-----------------------------------|
A|-------10---10p9-----10---10p9-----7h9------------------------------------|
D|--0-0-----0------0-0----0------0-0----------------------------------------|

e|--------------------------------------------------------------------------|
B|--------------------------------------------------------------------------|
G|--------------------------------------------------------------------------|
D|------11-11p9-----11-11p9----11h12----------------------------------------|
A|------7---7p5-----7---7p5-----7h9-----------------------------------------|
D|--5-5---5-----5-5---5-----5-5---------------------------------------------|

e|--------------------------------------------------------------------------|
B|--------------------------------------------------------------------------|
G|--------------------------------------------------------------------------|
D|------9---9p7-----11--11~----11/12----------------------------------------|
A|------5---5p4-----7---7~------7/9-----------------------------------------|
D|--4-4---4-----4-4---4-----4-4---------------------------------------------|

Guitar 3
e|--------------------------------------------------------------------------|
B|--------------------------------------------------------------------------|
G|--11c--14c--6c-7c----9c--11c----14c-9c--7c---14c---7c--6c---7~------------|
D|--x----x----x--x-----x---x------x---x---x----x-----x---x----x-------------|
A|--9c---12c--4c-5c----7c--9c-----12c-7c--5c---12c---5c--4c---5~------------|
D|--------------------------------------------------------------------------|

Guitar 1 Verse
e|--------------------------------------------------------------------------|
B|--------------------------------------------------------------------------|
G|----------------------6/7\6/7-7-7-7-9-9-9\7/9-11--------------------------|
D|--9~------0~------5~--x-x-x-x-x-x-x-x-x-x-x-x-x---------------------------|
A|--9~------0~------5~--4/5\4/5-5-5-5-7-7-7\5/7-9---------------------------|
D|--9~------0~------5~------------------------------------------------------|

Guitar 2 Verse
e|--------------------------------------------------------------------------|
B|----------15--------------------------------------------------------------|
G|------14----14--14--------------------------------------------------------|
D|----12--12----12----------------------------------------------------------|
A|--14---------------x8-----------------------------------------------------|
D|--------------------------------------------------------------------------|

Guitar 1
e|--------------------------------------------------------------------------|
B|--------------------------------------------------------------------------|
G|--------------------------------------------------------------------------|
D|--9-9----9-9---9----0-0----0-0---0---5c------4c---------------------------|
A|--9-9----9-9---9----0-0----0-0---0---5c------4c---------------------------|
D|--9-9----9-9---9----0-0----0-0---0---5c------4c---------------------------|

Guitar 2
e|--------------------------------------------------------------------------|
B|-----------------------------------------------15-------------------------|
G|--6/7777-6/7777-6/7-6/7777-6/7777-6/7------14----14--14-------------------|
D|--x-xxxx-x-xxxx-x-x-x-xxxx-x-xxxx-x-x----12--12----12---------------------|
A|--4/5555-4/5555-4/5-4/5555-4/5555-4/5--14----------------x4---------------|
D|--------------------------------------------------------------------------|

Bridge Guitar 2
e|--0----0---0---------0----0-----0-----------------------------------------|
B|--0----0---0---------0----0-----0-----------------------------------------|
G|--2----9---11--------11---7-----14----------------------------------------|
D|--0----7---9---------9----5-----12----------------------------------------|
A|--0----7---9---------9----5-----12----------------------------------------|
D|--0----7---9---------9----5-----12----------------------------------------|

Break Both Guitars (on the extra notes, guitar 1 plays the 0 2 and guitar 2 plays 0 0
e|-------0---------------0-----0--------------------------------------------|
B|------0----0----------0--------0------------------------------------------|
G|-----2--------2------7----------------------------------------------------|
D|----0---------------5-----------------------------------------------------|
A|---0---------------5------------------------------------------------------|
D|--0---------------5-------------------------------------------------------|
             G1                G2
Chorus Guitar 1
e|--------------------------------------------------------------------------|
B|--------------------------------------------------------------------------|
G|--2c--------------7c------------------------------------------------------|
D|--0c--------------5c------------------------------------------------------|
A|--0c--------------5c------------------------------------------------------|
D|--0c--------------5c------------------------------------------------------|

Guitar 2
e|---------------------------------------------------------------------------|
B|------15-------15-------15-------15-------15----12-------12-------12-------|
G|---14-------14-------14-------14-------14----14----14-------14-------14----|
D|12-------12-------12-------12-------12----------------12-------12-------12-|
A|---------------------------------------------------------------------------|
D|---------------------------------------------------------------------------|

Guitar 1
e|--------------------------------------------------------------------------|
B|--------------------------------------------------------------------------|
G|--11c-----9c------7c------------------------------------------------------|
D|--9c------7c------5c------------------------------------------------------|
A|--9c------7c------5c------------------------------------------------------|
D|--9c------7c------5c------------------------------------------------------|

Guitar 2
e|---------------------------------------------------------------------------|
B|15-------15-------15----14-------14-------14---[15-------15-------15---]---|
G|---14-------14-------14----14-------14-------14[---14-------14-------14]---|
D|------12-------12-------------12-------12------[------12-------12----------|x2
A|---------------------------------------------------------------------------|
D|---------------------------------------------------------------------------|

Bridge Both Guitars
e|--------------------------------------------------------------------------|
B|--------------------------------------------------------------------------|
G|---------1112-11--------1112-11--7c---6c--9c------------------------------|
D|--9--9-9-x-x--x---------x-x--x-9-5c---4c--7c------------------------------|
A|--9--9-9-9/10\9---------9/10\9-9-5c---4c--7c------------------------------|
D|--9--9-9--------0-000-0--------9-5c---4c--7c------------------------------|
Pm                x xxx x

e|--------------------------------------------------------------------------|
B|--------------------------------------------------------------------------|
G|---------1112-11--------------------7c---6c---9c--------------------------|
D|--9--9-9-x-x--x---------------------5c---4c---7c--------------------------|
A|--9--9-9-9/10\9---------------------5c---4c---7c--------------------------|
D|--9--9-9--------0-000-000-000-000-0-5c---4c---7c--------------------------|
Pm                x xxx xxx xxx xxx x

Break 2 Guitar 1
e|--------------------------------------------------------------------------|
B|--------------------------------------------------------------------------|
G|--------------------------------------------------------------------------|
D|--------------------------------------------------------------------------|
A|--5-5-5-5-5-5-5-5-5-5-5-5-------------------------------------------------|
D|--5-5-5-5-5-5-5-5-5-5-5-5-------------------------------------------------|
Gradually stop palm muting

Break 2 Guitar 2
e|--------------------------------------------------------------------------|
B|--10------10------10------10----------------------------------------------|
G|-----9-------9-------9-------9--------------------------------------------|
D|-------12------12------12------12-----------------------------------------|
A|--------------------------------------------------------------------------|
D|--------------------------------------------------------------------------|

Outro Guitar 1
e|--------------------------------------------------------------------------|
B|--------------------------------------------------------------------------|
G|--7c---------------------2c-----------------------------------------------|
D|--5c---------------------0c-----------------------------------------------|
A|--5c---------------------0c-----------------------------------------------|
D|--5c---------------0-0-0-0c-----------------------------------------------|
Pm                   x x x

e|--------------------------------------------------------------------------|
B|--------------------------------------------------------------------------|
G|--------------------------7c----------------------------------------------|
D|--9-9-9-------7-7-7-------5c----------------------------------------------|
A|--9-9-9-------7-7-7-------5c----------------------------------------------|
D|--9-9-9-9*9*9*7-7-7-7*7*7*5c----------------------------------------------|

Guitar 1
e|--------------------------------------------------------------------------|
B|--------------------------------------------------------------------------|
G|--------------------------7~----------------------------------------------|
D|--9-9-9-------7-7-7-------5~----------------------------------------------|
A|--9-9-9-------7-7-7-------5~----------------------------------------------|
D|--9-9-9-9*9*9*7-7-7-7*7*7*5~----------------------------------------------|

Outro Guitar 2
e|--------------------------------------------------------------------------|
B|--10------10------10------10----------------------------------------------|
G|-----9-------9-------9-------9--------------------------------------------|
D|-------12------12------12------12-----------------------------------------|
A|--------------------------------------------------------------------------|
D|--------------------------------------------------------------------------|
comments
We did not receive enough feedback on this tab! Please rate:
print report bad tab
1 2 3 4 5
I want to post or [tab]
guest
You may want to rate the tab now too:
select rating
Please do not post tabs as comments. Select "correction" instead!