Oops, an error
Loading. Please wait.

Colours Bleed Tab

ver2
ver2

Whole song

More versions @911Tabs.com
668 views 1 this week
no commentswrite comment
1 2 3 4 5
excellent!
x 1
add to favorites launch autoscroll
font size
0
reset
Autoscroll
+/-
esc
set tempo
stop
Contributor
Difficulty
Tuning
intermediate
C# G# C# F# A# D#
WARNING: You are trying to view
                                    content from Ultimate-Guitar.com
                                    in an unauthorized application,
                                    which is prohibited.

                                    Please use an official Ultimate
                                    Guitar Tabs application for iPhone,
                                    iPad or Android to access legitimate
                                    chords, guitar, bass, and drum tabs
                                    from Ultimate-Guitar.com database.

                                    Type "ultimate guitar tabs" in Apple
                                    App Store's or Android Market's
                                    search to find the application.
Tabbed by: Richard Tranter

Tuning: Drop C# = C#G#C#F#A#d#


KEY:
h = Hammer On
~~ = Let Ring
... (under notes) = Palm Mute those notes
/ = Slide Up



=======================Intro=======================


d#|----------------------------------------------------|
A#|----------------------------------------------------|
F#|-6--6-6-6-6-6-6-6-6/7---6--6-6-6-6-6----------------|
C#|----------------------------------------------------|
G#|-4--4-4-4-4-4-4-4-4/5---4--4-4-4-4-4--4-5-4-2-4-2-0-|
C#|----------------------------------------------------|


d#|-------------------------------------------------|
A#|-------------------------------------------------|
F#|-------------------------------------------------|
C#|-0--2-2-0-2-0-2-0-2-3-2--0-2-2-0-2-2-0-2-0-2-3-2-|
G#|-0--2-2-0-2-0-2-0-2-3-2--0-2-2-0-2-2-0-2-0-2-3-2-|
C#|-0--2-2-0-2-0-2-0-2-3-2--0-2-2-0-2-2-0-2-0-2-3-2-|
                                    . .

d#|----------------------------------------------------|
A#|----------------------------------------------------|
F#|-6--6-6-6-6-6-6-6-6/7---6--6-6-6-6-6----------------|
C#|----------------------------------------------------|
G#|-4--4-4-4-4-4-4-4-4/5---4--4-4-4-4-4--4-5-4-2-4-2-0-|
C#|----------------------------------------------------|


d#|-------------------------------------------------|
A#|-------------------------------------------------|
F#|-------------------------------------------------|
C#|-0--2-2-0-2-0-2-0-2-3-2--0-2-2-0-2-2-0-2-0-2-3-2-|
G#|-0--2-2-0-2-0-2-0-2-3-2--0-2-2-0-2-2-0-2-0-2-3-2-|
C#|-0--2-2-0-2-0-2-0-2-3-2--0-2-2-0-2-2-0-2-0-2-3-2-|
                                    . .


=======================Verse=======================

d#|-------------------------------------------|
A#|-------------------------------------------|
F#|---9------9-------9------9------9------9---|
C#|--7-7----7-7-----7-7----7-7----7-7----7-7--|
G#|-9---9--9---9---9---9--9---9--9---9--9---9-|
C#|-------------------------------------------|

d#|------------------------------------------------------------|
A#|------------------------------------------------------------|
F#|------------------------------------------------------------|
C#|------------------------------------------------------------|
G#|--------5--------------5--------------7--------------7------|
C#|-4-4-4-4-4-4-4--4-4-4-4-4-4-4--7-7-7-7-7-7-7--7-7-7-7-7-7-7-|


d#|-------------------------------------------|
A#|-------------------------------------------|
F#|---9------9-------9------9------9------9---|
C#|--7-7----7-7-----7-7----7-7----7-7----7-7--|
G#|-9---9--9---9---9---9--9---9--9---9--9---9-|
C#|-------------------------------------------|

d#|------------------------------------------------------------|
A#|------------------------------------------------------------|
F#|------------------------------------------------------------|
C#|------------------------------------------------------------|
G#|--------5--------------5--------------7--------------7------|
C#|-4-4-4-4-4-4-4--4-4-4-4-4-4-4--7-7-7-7-7-7-7--7-7-7-7-7-7-7-|

=======================Bridge=======================

Guitar 1:

d#|--------------------------------------------------------------------------|
A#|--------------------------------------------------------------------------|
F#|--------------------------------------------------------------------------|
C#|-7-7-77777777777777----2-2-2-2-2222222222------12-12-12121212121212121212-|
G#|-7-7-77777777777777----2-2-2-2-2222222222------12-12-12121212121212121212-|
C#|-7-7-77777777777777----2-2-2-2-2222222222------12-12-12121212121212121212-|
        ..............            ..........            . . . . . . . . . .
d#|------------------------------------------|
A#|------------------------------------------|
F#|------------------------------------------|
C#|-10-10-10-10-10-10-10-10-10-10-10-x-x-x-x-|
G#|-10-10-10-10-10-10-10-10-10-10-10-x-x-x-x-|
C#|-10-10-10-10-10-10-10-10-10-10-10-x-x-x-x-|
       .  .  .  .  .  .  .  .  .  .


Guitar 2: (not 100% sure about this bit... it’s really hard to hear)

d#|---------0---------------0-------------------12----------|
A#|-----0-----0---0-----0-----0---0-------12-------12----12-|
F#|---0---0-----0-----0---0-----0------12----12-------12----|
C#|-0---------------0---------------12----------------------|
G#|---------------------------------------------------------|
C#|---------------------------------------------------------|

d#|---------------------------------------|
A#|---5-----5-----5-----5-----5-----5-----|
F#|-----7-----7-----7-----7-----7-----7---|
C#|-5-----5-----5-----5-----5-----5-----5-|
G#|---------------------------------------|
C#|---------------------------------------|


=======================Chorus=======================

Guitar 1:

d#|--------------------------------------------------------------------------------------|
A#|--------------------------------------------------------------------------------------|
F#|--------------------------------------------------------------------------------------|
C#|-0--------10--------5-------5-5-5-4-4-4-5-5-5-4-4-4-5-4-0--0--------10--------5-------|
G#|-0-(x16)--10-(x16)--5-(x16)--------------------------------0-(x16)--10-(x16)--5-(x16)-|
C#|-0--------10--------5--------------------------------------0--------10--------5-------|


Guitar 2:

d#|----------10-------------|------------------------------|----------10------------|
A#|---10-8-7----8-7-8-(x6)--|8-8-8-7-7-7-8-8-8-7-7-7-8-7---|---10-8-7----8-7-8-(x6)-|
F#|-7-----------------------|----------------------------7-|-7----------------------|
C#|-------------------------|------------------------------|------------------------|
G#|-------------------------|------------------------------|------------------------|
C#|-------------------------|------------------------------|------------------------|


Both Guitars:


d#|-------------------------------|
A#|-------------------------------|
F#|------------14---13------------|
C#|-----0-0-0-----------0-0-0h4h5-|
G#|-----0-0-0--12---11--0-0-0h4h5-|
C#|-12--0-0-0-----------0-0-0h4h5-|
        . . .           . .



d#|----------------------------------------------------|
A#|----------------------------------------------------|
F#|-6--6-6-6-6-6-6-6-6/7---6--6-6-6-6-6----------------|
C#|----------------------------------------------------|
G#|-4--4-4-4-4-4-4-4-4/5---4--4-4-4-4-4--4-5-4-2-4-2-0-|
C#|----------------------------------------------------|


d#|-------------------------------------------------|
A#|-------------------------------------------------|
F#|-------------------------------------------------|
C#|-0--2-2-0-2-0-2-0-2-3-2--0-2-2-0-2-2-0-2-0-2-3-2-|
G#|-0--2-2-0-2-0-2-0-2-3-2--0-2-2-0-2-2-0-2-0-2-3-2-|
C#|-0--2-2-0-2-0-2-0-2-3-2--0-2-2-0-2-2-0-2-0-2-3-2-|
                                    . .
                               

=======================Verse=======================

d#|-------------------------------------------|
A#|-------------------------------------------|
F#|---9------9-------9------9------9------9---|
C#|--7-7----7-7-----7-7----7-7----7-7----7-7--|
G#|-9---9--9---9---9---9--9---9--9---9--9---9-|
C#|-------------------------------------------|

d#|------------------------------------------------------------|
A#|------------------------------------------------------------|
F#|------------------------------------------------------------|
C#|------------------------------------------------------------|
G#|--------5--------------5--------------7--------------7------|
C#|-4-4-4-4-4-4-4--4-4-4-4-4-4-4--7-7-7-7-7-7-7--7-7-7-7-7-7-7-|


d#|-----------------------------|
A#|-----------------------------|
F#|---9------9-------9------9---|
C#|--7-7----7-7-----7-7----7-7--|
G#|-9---9--9---9---9---9--9---9-|
C#|-----------------------------|

d#|------------------------------------------------------------|
A#|------------------------------------------------------------|
F#|------------------------------------------------------------|
C#|------------------------------------------------------------|
G#|--------5--------------5--------------7--------------7------|
C#|-4-4-4-4-4-4-4--4-4-4-4-4-4-4--7-7-7-7-7-7-7--7-7-7-7-7-7-7-|


=======================Bridge=======================

Guitar 1:

d#|--------------------------------------------------------------------------|
A#|--------------------------------------------------------------------------|
F#|--------------------------------------------------------------------------|
C#|-7-7-77777777777777----2-2-2-2-2222222222------12-12-12121212121212121212-|
G#|-7-7-77777777777777----2-2-2-2-2222222222------12-12-12121212121212121212-|
C#|-7-7-77777777777777----2-2-2-2-2222222222------12-12-12121212121212121212-|
        ..............            ..........            . . . . . . . . . .
d#|------------------------------------------|
A#|------------------------------------------|
F#|------------------------------------------|
C#|-10-10-10-10-10-10-10-10-10-10-10-x-x-x-x-|
G#|-10-10-10-10-10-10-10-10-10-10-10-x-x-x-x-|
C#|-10-10-10-10-10-10-10-10-10-10-10-x-x-x-x-|
       .  .  .  .  .  .  .  .  .  .


Guitar 2:

d#|---------0---------------0-------------------12----------|
A#|-----0-----0---0-----0-----0---0-------12-------12----12-|
F#|---0---0-----0-----0---0-----0------12----12-------12----|
C#|-0---------------0---------------12----------------------|
G#|---------------------------------------------------------|
C#|---------------------------------------------------------|

d#|---------------------------------------|
A#|---7-----7-----7-----7-----7-----7-----|
F#|-----5-----5-----5-----5-----5-----5---|
C#|-5-----5-----5-----5-----5-----5-----5-|
G#|---------------------------------------|
C#|---------------------------------------|


=======================Chorus=======================

Guitar 1:

d#|--------------------------------------------------------------------------------------|
A#|--------------------------------------------------------------------------------------|
F#|--------------------------------------------------------------------------------------|
C#|-0--------10--------5-------5-5-5-4-4-4-5-5-5-4-4-4-5-4-0--0--------10--------5-------|
G#|-0-(x16)--10-(x16)--5-(x16)--------------------------------0-(x16)--10-(x16)--5-(x16)-|
C#|-0--------10--------5--------------------------------------0--------10--------5-------|


Guitar 2:

d#|----------10-------------|------------------------------|----------10------------|
A#|---10-8-7----8-7-8-(x6)--|8-8-8-7-7-7-8-8-8-7-7-7-8-7---|---10-8-7----8-7-8-(x6)-|
F#|-7-----------------------|----------------------------7-|-7----------------------|
C#|-------------------------|------------------------------|------------------------|
G#|-------------------------|------------------------------|------------------------|
C#|-------------------------|------------------------------|------------------------|


Both Guitars:


d#|--------------------------------------------|
A#|--------------------------------------------|
F#|------------14---13-------------------------|
C#|-----0-0-0-----------0-0-0h4h5----x2----0~~-|
G#|-----0-0-0--12---11--0-0-0h4h5----------0~~-|
C#|-12--0-0-0-----------0-0-0h4h5----------0~~-|
        . . .           . . 


=======================Breakdown=======================

d#|----------------------------------------------------|
A#|----------------------------------------------------|
F#|----------------------------------------------------|
C#|-0-0-0-1-0--1-0-0-0--0h4h5-----------0-0-0-1-0--1-0-|
G#|-0-0-0-1-0--1-0-0-0--------(x7)------0-0-0-1-0--1-0-|
C#|-0-0-0-1-0--1-0-0-0------------------0-0-0-1-0--1-0-|
    . . . . .  . . . .                  . . . . .  . 


d#|-----------------------------------------------------------------------|
A#|-----------------------------------------------------------------------|
F#|-----------------------------------------------------------------------|
C#|-0-0-0-1-0-1-0-0-0--0h4h5----------0-0-0-1-0-1-0-0-0-------------------|
G#|-0-0-0-1-0-1-0-0-0-(x4)------------0-0-0-1-0-1-0-0-0--------10-12-(x4)-|
C#|-0-0-0-1-0-1-0-0-0-----------------0-0-0-1-0-1-0-0-0--10-12------------|

d#|-------------------------------------------------------------------|
A#|-------------------------------------------------------------------|
F#|-------------------------------------------------------------------|
C#|-1-0-0-0-0-0-0-0-1-0-0-0-0-0-0-0-1-0-0-0-0-0-0-0-1-0-0-0-0-0-0-0-0-|
G#|-1-0-0-0-0-0-0-0-1-0-0-0-0-0-0-0-1-0-0-0-0-0-0-0-1-0-0-0-0-0-0-0-0-|
C#|-1-0-0-0-0-0-0-0-1-0-0-0-0-0-0-0-1-0-0-0-0-0-0-0-1-0-0-0-0-0-0-0-0-|
    . . . . . . . . . . . . . . . . . . . . . . . . . . . . . . . . 
comments
We did not receive enough feedback on this tab! Please rate:
1 2 3 4 5
I want to post or [tab]
guest
You may want to rate the tab now too:
select rating
Please do not post tabs as comments. Select "correction" instead!