Oops, an error
Loading. Please wait.

Grand Unification Part 1 Tab

ver1
ver1

Whole song

Interactive

More versions @911Tabs.com
10,366 views 9 this week
7 commentsread comments
1 2 3 4 5
excellent!
x 7
Autoscroll
+/-
esc
set tempo
stop
Contributor
Hey! There's an official Ultimate Guitar app which is ideal
for learning songs when you're away from computer. Get the app
WARNING: You are trying to view
                                    content from Ultimate-Guitar.com
                                    in an unauthorized application,
                                    which is prohibited.

                                    Please use an official Ultimate
                                    Guitar Tabs application for iPhone,
                                    iPad or Android to access legitimate
                                    chords, guitar, bass, and drum tabs
                                    from Ultimate-Guitar.com database.

                                    Type "ultimate guitar tabs" in Apple
                                    App Store's or Android Market's
                                    search to find the application.
-------------------------------------------------------------------------------
                             GRAND UNIFICATION PART 1 - Fightstar
-------------------------------------------------------------------------------
Tabbed by: slyo
Email: sly at davidhurst.net

Gtr   I (C G C F A D)
Gtr  II (C G C F A D)
Gtr III (C G C F A D)

[Intro]
   Gtr I
D||----------------------------------------------------------------------------|
A||----------------------------------------------------------------------------|
F||----------------------------------------------------------------------------|
C||-3/7--0--0----0--0----0--0----0--0----0--0--8\3-3---3-3---3-3---3-3---3-3-3-|
G||-3/7--0--0----0--0----0--0----0--0----0--0--8\3-3---3-3---3-3---3-3---3-3-3-|
C||-3/7--0--0----0--0----0--0----0--0----0--0--8\3-3---3-3---3-3---3-3---3-3-3-|
 |
 | Gtr II
D||----------------------------------------------------------------------------|
A||----------------------------------------------------------------------------|
F||-5/9-10-10---10-10---10-10---10-10---10-10-14\5-5---5-5---5-5---5-5---5-5-5-|
C||-x/x--x--x----x--x----x--x----x--x----x--x--x\x-x---x-x---x-x---x-x---x-x-x-|
G||-3/7--8--8----8--8----8--8----8--8----8--8-12\3-3---3-3---3-3---3-3---3-3-3-|
C||----------------------------------------------------------------------------|


[Intro]
   Gtr I
D|----------------------------------||
A|----------------------------------||
F|-9-----------10-----10------------||
C|-7-16x--------8-8x--10-8x---------||
G|-7------------8------8------------||
C|-7------------8------8------------||
 |
 | Gtr II
D|----------------------------------||
A|----------------------------------||
F|-9-----10-10--7-----9----10-10-10-||
C|-x-14x--x--x--x-14x-x-4x--x--x--x-||
G|-7------8--8--5-----7-----8--8--8-||
C|----------------------------------||

[Verse]
   Gtr I
D||-----------------------------|--------------------------------------|
A||o----------------------------|--------------------------------------|
F||-----------------------------|--------------------------------------|
C||---------7---------7-------7-|-----------10------------10--------10-|
G||o-5-5--5-5--5-5--5-5---5-5-5-|-10-10--10-10--10-10--10-10--10-10-10-|
C||--0-0--0----0-0--0-----0-0---|-10-10--10-----10-10--10-----10-10----|
 |   . .  .    . .  .     . .      .  .   .      .  .   .      .  .
 | Gtr II
D||-----------------------------|--------------------------------------|
A||o----------------------------|--------------------------------------|
F||--7--------------------------|---9----------------------------------|
C||--x-16x----------------------|---x-16x------------------------------|
G||o-5--------------------------|---7----------------------------------|
C||-----------------------------|--------------------------------------|

[Verse]
  Gtr I                       1.                                  2.
D|---------------------------|----------------------------------||--------------------------------||
A|---------------------------|---------------------------------o||--------------------------------||
F|---------------------------|----------------------------------||--------------------------------||
C|----10-10----8--8---10--8--|----7--7---------8-----10---10/12-||----7--7---------8------0h3/7\0-||
G|---------------------------|---------------------------------o||------------------------0h3/7\0-||
C|-8-8--8--8-8--8--8-8--8--8-|-5-5--5--5-5-8-8----8-8---8-------||-5-5--5--5-5-8-8----8-8-0h3/7\0-||
 | . .  .  . .  .  . .  .  .   . .  .  . . . .    . .   .          . .  .  . . . .    . .
 | Gtr II                     1.                                  2.
D|---------------------------|----------------------------------||------------------------------------||
A|---------------------------|---------------------------------o||------------------------------------||
F|-10------------------------|-10-----------------12------------||-12------------------14-------------||
C|--x-16x--------------------|--x-8x---------------x-8x---------||--x-8x----------------x-6x--0h3/7\0-||
G|--8------------------------|--8-----------------10-----------o||-10------------------12-----0h3/7\0-||
C|---------------------------|----------------------------------||----------------------------0h3/7\0-||

[Pre-Chorus]
   Gtr I
D||----------------|
A||----------------|
F||----------------|
C||-0------8\3-----|
G||-0-12x--8\3-12x-|
C||-0------8\3-----|
 |
 | Gtr II (Distorted yet soft)
D||-----------------|
A||-----------------|
F||-10-----10\5-----|
C||--x-12x--x\x-12x-|
G||--8------8\3-----|
C||-----------------|

[Pre-Chorus]
   Gtr I
D|--------------------------------------------------------||
A|--------------------------------------------------------||
F|--------------------------------------------------------||
C|---------10-----10---------10-----10---------7-------5--||
G|-8-8-8-8--8-8-8--8-8-8-8-8--8-8-8--8-5-5-5-5-5-5-5-5-3--||
C|-8-8-8-8----8-8----8-8-8-8----8-8----0-0-0-0---0-0-0----||
 | . . . .    . .    . . . .    . .    . . . .   . . .
 | Gtr II (Clean w. phaser)
D|--------------||
A|-------13-----||
F|--10----12-6x-||
C|-12--12-------||
G|--------------||
C|--------------||

[Chorus]
   Gtr I
D||--------|-----------------------|------------||
A||--------|-----------------------|-----13-----||
F||-10-----|-10----9----10----9----|---10--10---||
C||-10-32x-|--x-8x-x-8x--x-x8-x-8x-|-12------12-||
G||--8-----|--8----7-----8----7----|-----8x-----||
C||--8-----|-----------------------|------------||
 |
 | Gtr II
D||--------|--------|---------------||
A||-13-----|-13-----|-(13)---(13)---||
F||-10-32x-|-10-32x-|--10-----12----||
C||-12-----|-12-----|---8-24x-10-8x-||
G||--------|--------|---8-----10----||
C||--------|--------|---8-----10----||

[Verse]
   Gtr I
D||----------------------------|--------------------------------------|
A||----------------------------|--------------------------------------|
F||----------------------------|--------------------------------------|
C||--------7---------7-------7-|-----------12------------12--------12-|
G||-5-5--5-5--5-5--5-5---5-5-5-|-10-10--10-10--10-10--10-10--10-10-10-|
C||-0-0--0----0-0--0-----0-0---|-10-10--10-----10-10--10-----10-10----|
 |  . .  .    . .  .     . .      .  .   .      .  .   .      .  .
 | Gtr II
D||----------------------------|--------------------------------------|
A||----------------------------|--------------------------------------|
F||-7--------------------------|---9----------------------------------|
C||-x-16x----------------------|---x-16x------------------------------|
G||-5--------------------------|---7----------------------------------|
C||----------------------------|--------------------------------------|

[Verse]
  Gtr I
D|---------------------------|----------------------------------|
A|---------------------------|----------------------------------|
F|---------------------------|----------------------------------|
C|----10-10----8--8---10--8--|----7--7---------8-----10---10/12-|
G|---------------------------|----------------------------------|
C|-8-8--8--8-8--8--8-8--8--8-|-5-5--5--5-5-8-8----8-8---8-------|
 | . .  .  . .  .  . .  .  .   . .  .  . . . .    . .   .
 | Gtr II
D|---------------------------|----------------------------------|
A|---------------------------|----------------------------------|
F|-10------------------------|-10-----------------12------------|
C|--x-16x--------------------|--x-8x---------------x-8x---------|
G|--8------------------------|--8-----------------10------------|
C|---------------------------|----------------------------------|

[Verse]
   Gtr I
D|----------------------------|--------------------------------------|
A|----------------------------|--------------------------------------|
F|----------------------------|--------------------------------------|
C|--------7---------7-------7-|-----------10------------10--------10-|
G|-5-5--5-5--5-5--5-5---5-5-5-|-10-10--10-10--10-10--10-10--10-10-10-|
C|-0-0--0----0-0--0-----0-0---|-10-10--10-----10-10--10-----10-10----|
 | . .  .    . .  .     . .      .  .   .      .  .   .      .  .
 | Gtr II
D||----------------------------|--------------------------------------|
A||----------------------------|--------------------------------------|
F||-7--------------------------|---9----------------------------------|
C||-x-16x----------------------|---x-16x------------------------------|
G||-5--------------------------|---7----------------------------------|
C||----------------------------|--------------------------------------|

[Verse]
  Gtr I
D|---------------------------|--------------------------------||
A|---------------------------|--------------------------------||
F|---------------------------|--------------------------------||
C|----10-10----8--8---10--8--|----7--7---------8------0h3/7\0-||
G|---------------------------|------------------------0h3/7\0-||
C|-8-8--8--8-8--8--8-8--8--8-|-5-5--5--5-5-8-8----8-8-0h3/7\0-||
 | . .  .  . .  .  . .  .  .   . .  .  . . . .    . .
 | Gtr II
D|---------------------------|----------------------------------||
A|---------------------------|----------------------------------||
F|-10------------------------|-12-----------------14------------||
C|--x-16x--------------------|--x-8x---------------x-6x-0h3/7\0-||
G|--8------------------------|-10-----------------12----0h3/7\0-||
C|---------------------------|--------------------------0h3/7\0-||

[Pre-Chorus]
   Gtr I
D||----------------|
A||----------------|
F||----------------|
C||-0------8\3-----|
G||-0-12x--8\3-12x-|
C||-0------8\3-----|
 |
 | Gtr II (Distorted yet soft)
D||-----------------|
A||-----------------|
F||-10-----10\5-----|
C||--x-12x--x\x-12x-|
G||--8------8\3-----|
C||-----------------|

[Pre-Chorus]
   Gtr I
D|--------------------------------------------------------||
A|--------------------------------------------------------||
F|--------------------------------------------------------||
C|---------10-----10---------10-----10---------7-------5--||
G|-8-8-8-8--8-8-8--8-8-8-8-8--8-8-8--8-5-5-5-5-5-5-5-5-3--||
C|-8-8-8-8----8-8----8-8-8-8----8-8----0-0-0-0---0-0-0----||
 | . . . .    . .    . . . .    . .    . . . .   . . .
 | Gtr II (Clean w. phaser)
D|--------------||
A|-------13-----||
F|--10----12-6x-||
C|-12--12-------||
G|--------------||
C|--------------||

[Chorus]
   Gtr I
D||--------|-----------------------|------------||
A||--------|-----------------------|-----13-----||
F||-10-----|-10----9----10----9----|---10--10---||
C||-10-32x-|--x-8x-x-8x--x-x8-x-8x-|-12------12-||
G||--8-----|--8----7-----8----7----|-----8x-----||
C||--8-----|-----------------------|------------||
 |
 | Gtr II
D||--------|--------------------|---------||
A||-13-----|-------------13-----|---------||
F||-10-32x-|-14----12----10-16x-|--10-----||
C||-12-----|--x-8x--x-8x-12-----|---8-32x-||
G||--------|-12----10-----------|---8-----||
C||--------|--------------------|---8-----||

[Pre-Bridge]
   Gtr I & II
D||-------------------------------------------------------------||
A||-------------------------------------------------------------||
F||-9-9--9-9--9-9--9-9--9--9-10-10--10-10--10-10--10-10--10--10-||
C||-7-7--7-7--7-7--7-7--7--7--8--8---8--8---8--8---8--8---8---8-||
G||-7-7--7-7--7-7--7-7--7--7--8--8---8--8---8--8---8--8---8---8-||
C||-7-7--7-7--7-7--7-7--7--7--8--8---8--8---8--8---8--8---8---8-||

[Bridge]
   Gtr I
D||------------------------------------------------------------||
A||------------------------------------------------------------||
F||------------------------------------------------------------||
C||-0-1-0-1-0-0-0-1-0-0-0-1-0-6-6-6-0-1-0-1-0-0-0-1-0-0-0-1-6\-||
G||-0-1-0-1-0-0-0-1-0-0-0-1-0-6-6-6-0-1-0-1-0-0-0-1-0-0-0-1-6\-||
C||------------------------------------------------------------||
    . . . . . . . . . . . . . . . . . . . . . . . . . . . .

[Bridge]
   Gtr I & II
D||-----------------------------------||
A||o---------------------------------o||
F||-----------------------------------||
C||--0-1-0-1-0-----1-0-----1-0-6-6-6--||
G||o-0-1-0-1-0-----1-0-----1-0-6-6-6-o||
C||--0-1-0-1-0-----1-0-----1-0-6-6-6--||

[Bridge]
   Gtr I & II
D||----------------------------------------------------------------||
A||----------------------------------------------------------------||
F||----------------------------------------------------------------||
C||-0-1-0-1-0-0-0-1-1-0-0-0-1-0-6-6-6-0-1-0-1-0-0-0-1-0-0-0-1-1-6\-||
G||-0-1-0-1-0-0-0-1-1-0-0-0-1-0-6-6-6-0-1-0-1-0-0-0-1-0-0-0-1-1-6\-||
C||-0-1-0-1-0-0-0-1-1-0-0-0-1-0-6-6-6-0-1-0-1-0-0-0-1-0-0-0-1-1-6\-||
    . . . . . . . . . . . . . . . . . . . . . . . . . . . . . .

[Bridge]
   Gtr I & II
D||-----------------------------------||
A||o---------------------------------o||
F||-----------------------------------||
C||--0-1-0-1-0-----1-0-----1-0-6-6-6--||
G||o-0-1-0-1-0-----1-0-----1-0-6-6-6-o||
C||--0-1-0-1-0-----1-0-----1-0-6-6-6--||

[Bridge]
    Gtr I
D||-----------------------------------||
A||o---------------------------------o||
F||-----------------------------------||
C||--0-1-0-1-0-----1-0-----1-0-6-6-6--||
G||o-0-1-0-1-0-----1-0-----1-0-6-6-6-o||
C||--0-1-0-1-0-----1-0-----1-0-6-6-6--||
 ||  . . . .
 || Gtr II
D||-----------------------------------||
A||o---------------------------9-9-9-o||
F||----------7-----8-7-----8-7-x-x-x--||
C||--0-0-0-0-x-----x-x-----x-x-6-6-6--||
G||o-0-0-0-0-5-----6-5-----6-5-------o||
C||--0-0-0-0--------------------------||
     . . . .

[Second Bridge]
   Gtr I
D||------------------------------------------------------------------------------------------------||
A||o----------------------------------------------------------------------------------------------o||
F||--------------------------------------------------------------------------10-10-10-9-9-9--------||
C||--12-12-12-12-12-12-12-12-12-12-12-12-12-12-12-12-10-10-10-10-10-10-10-10----------------10-10--||
G||o----------------------------------------------------------------------------------------------o||
C||------------------------------------------------------------------------------------------------||
 |
 | Gtr II
D||------------------------------------------------------------------------------------------------||
A||o---13--13--13--13--13--13--13--13--13--13--13--13-13-13-13-13-13-13-13-13-13-13-13-13-13-13---o||
F||--10--10--10--10--10--10--10--10--10--10--10--10-10--9--9--9--9--9--9--9--9--9--9--9--9--9--9---||
C||------------------------------------------------------------------------------------------------||
G||o----------------------------------------------------------------------------------------------o||
C||------------------------------------------------------------------------------------------------||

[Second Bridge]
   Gtr I
D||--------------------------------------------------------------------------------------------------|
A||--------------------------------------------------------------------------13-13-13-11-11-11-10-10-|
F||--------------------------------------------------------------------------10-10-10-10-10-10-10-10-|
C||--12-12-12-12-12-12-12-12-12-12-12-12-12-12-12-12-10-10-10-10-10-10-10-10-------------------------|
G||--------------------------------------------------------------------------------------------------|
C||--------------------------------------------------------------------------------------------------|
 |
 | Gtr II
D||---------------------------------------------------------------------------13-13-13-12-12-12-------|
A||---13--13--13--13--13--13--13--13--13--13--13--13-13-13-13-13-13-13-13-13---x--x--x--x--x--x-13-13-|
F||-10--10--10--10--10--10--10--10--10--10--10--10-10--9--9--9--9--9--9--9--9-10-10-10--9--9--9-9--9--|
C||---------------------------------------------------------------------------------------------------|
G||---------------------------------------------------------------------------------------------------|
C||---------------------------------------------------------------------------------------------------|
 |
 | Gtr III
D||-----------------------------------------------------------------------------------------|
A||-----------------------------------------------------------------------------------------|
F||-----------------------------------------------------------------------------------------|
C||----10-10-10-10-10-10-10----10-10-10-10-10-10-10-0-0-0-0-0-0-0-0-10-10-10-10-10-10-10-10-|
G||-----8--8--8--8--8--8--8-----8--8--8--8--8--8--8-0-0-0-0-0-0-0-0-10-10-10-10-10-10-10-10-|
C||-<8>-8--8--8--8--8--8--8-<8>-8--8--8--8--8--8--8-0-0-0-0-0-0-0-0-10-10-10-10-10-10-10-10-|
     .  .  .  .  .  .  .  .  .  .  .  .  .  .  .  . . . . . . . . .  .  .  .  .  .  .  .  .

[Second Bridge]
   Gtr I
D|-----------------------------------------------||
A|-----------------------------------------------||
F|-----------------------------------------------||
C|--12-12-12-12-12-12-12-12-12-12-12-12-12-12-12-||
G|-----------------------------------------------||
C|-----------------------------------------------||
 |
 | Gtr II
D|--------------------------------------------||
A|-13--13--13--13--13--13--13--13--13--13--13-||
F|-10--10--10--10--10--10--10--10--10--10--10-||
C|--------------------------------------------||
G|--------------------------------------------||
C|--------------------------------------------||
 |
 | Gtr III
D|-------------------------------------------------||
A|-------------------------------------------------||
F|-------------------------------------------------||
C|-10-10-10-10-10-10-10-10-10-10-10-10-10-10-10-10-||
G|--8--8--8--8--8--8--8--8--8--8--8--8--8--8--8--8-||
C|--8--8--8--8--8--8--8--8--8--8--8--8--8--8--8--8-||
    .  .  .  .  .  .  .  .

[Ending]
   Gtr I
D||-------------||
A||o-6----5----o||
F||--x-8x-x-8x--||
C||--3----2-----||
G||o-----------o||
C||-------------||
 |
 | Gtr II
D||------------------------------------------------------------------------------------------------||
A||o---13--13--13--13--13--13--13--13--13--13--13--13-13-13-13-13-13-13-13-13-13-13-13-13-13-13---o||
F||--10--10--10--10--10--10--10--10--10--10--10--10-10--9--9--9--9--9--9--9--9--9--9--9--9--9--9---||
C||------------------------------------------------------------------------------------------------||
G||o----------------------------------------------------------------------------------------------o||
C||------------------------------------------------------------------------------------------------||

[Ending]
   Gtr I
D||-------------||
A||o-6----5----o||
F||--x----x-----||
C||--3-8x-2-8x--||
G||o-----------o||
C||-------------||
 |
 | Gtr II
D||---------||
A||o-------o||
F||-10------||
C||-10-16x--||
G||o-8-----o||
C||--8------||

[Ending]
   Gtr I
D||-------------------------------------------------------------------||
A||-6----5-----6----5-----6----5-----6----8---10----11-----13----6~-b-||
F||-x----x-----x----x-----x----x-----x----x----x-----x------x----x----||
C||-3-8x-2-8x--3-8x-2-8x--3-8x-2-8x--3-8x-5-8x-7-8x--8-8x--10-8x-3~---||
G||--------------------------------------------------------------0~---||
C||--------------------------------------------------------------0~---||
 |
 | Gtr II
D||-----------------13~----12~------\8~-----------\1~---------------13-13-13-13-13-13-13-13-13~-||
A||---------------------------------------------------------------------------------------------||
F||-\-------------\-----------------------------------------------------------------------------||
C||-\scratch slide\-----------------------------------------------------------------------------||
G||-\-------------\-----------------------------------------------------------------------------||
C||---------------------------------------------------------------------------------------------||
 |
 | Gtr III
D||---------||
A||o-------o||
F||-10------||
C||-10-16x--||
G||o-8-----o||
C||--8------||

~ let ring
<n> natural harmonic
(n) optional note
/ slide up
\ slide down
. palm mute
x muted note
h hammer-on
p pull-off
-------------------------------------------------------------------------------
comments
print report bad tab
7 comments total. Showing first comments.
0 reply
Leon Jenkins wrote on November 10 2005, 09:20 am

This tab is very very confusing. Theres no 'intro' 'chorus' 'verse' and so on. Id like to see them put in on another tab, so i know what to play.

0 reply
slyo wrote on November 10 2005, 12:21 pm

Basically it just goes from the intro to the ending, but I've added some names now to help.

0 reply
killswitch_mike wrote on December 31 2005, 03:45 pm

This is an amazing tab! im sure that it's 100% correct and such an awesome song, 5 star definately deserved, great tab

I want to post or [tab]
guest
You may want to rate the tab now too:
select rating
Please do not post tabs as comments. Select "correction" instead!