Oops, an error
Loading. Please wait.

Lost Like Tears In Rain Tab

ver1
ver1

Whole song

Interactive

More versions @911Tabs.com
3,080 views 12 this week
1 commentread comment
1 2 3 4 5
accurate
x 4
Autoscroll
+/-
esc
set tempo
stop
Difficulty
Tuning
intermediate
C G C F A D
Hey! There's an official Ultimate Guitar app which is ideal
for learning songs when you're away from computer. Get the app
WARNING: You are trying to view
                                    content from Ultimate-Guitar.com
                                    in an unauthorized application,
                                    which is prohibited.

                                    Please use an official Ultimate
                                    Guitar Tabs application for iPhone,
                                    iPad or Android to access legitimate
                                    chords, guitar, bass, and drum tabs
                                    from Ultimate-Guitar.com database.

                                    Type "ultimate guitar tabs" in Apple
                                    App Store's or Android Market's
                                    search to find the application.
Tabbed By: Matt
Matthew_norton@hotmail.com

c - Continuos Picking
b - Bend
* - Pinched
 Harmonic
Lost Like Tears In Rain

Guitar 1 - Charlie Simpson

Intro Clean Palm Mute
D|--------------------------------------------------------------------------|
A|--------------------------------------------------------------------------|
F|--------------------------------------------------------------------------|
C|--10c---------10c-----8c--------------------------------------------------|
G|--8c----------10c-----8c--------------------------------------------------|
C|--------------10c-----8c--------------------------------------------------|

Intro Pt. 2
D|--------------------------------------------------------------------------|
A|--------------------------------------------------------------------------|
F|---------9h10p9h10p9\7--------9h10p9h10p9\5--------9h10p9h10p9h12---------|
C|--------------------------------------------------------------------------|
G|--000000---------------000000---------------888888------------------------|
C|--000000---------------000000---------------888888------------------------|
Pm  xxxxxx               xxxxxx               xxxxxx

D|--------------------------------------------------------------------------|
A|--------------------------------------------------------------------------|
F|---------------12p10p9h10p9\7---------------------------------------------|
C|--------------------------------------------------------------------------|
G|--101010101010------------------------------------------------------------|
C|--101010101010------------------------------------------------------------|
Pm  x x x x x x

D|--------------------------------------------------------------------------|
A|--------------------------------------------------------------------------|
F|--------------------------------------------------------------------------|
C|--0~----------------------------------------------------------------------|
G|--0~----------------------------------------------------------------------|
C|--0~----------------------------------------------------------------------|

Verse Clean Slight Phaser
D|--13----13----13--12----12----12------------------------------------------|
A|----10----10--------10----10----------------------------------------------|
F|------10----10--10----10----10--10----------------------------------------|
C|--------------------------------------------------------------------------|
G|--------------------------------------------------------------------------|
C|--------------------------------------------------------------------------|

Pre Chorus
D|--------------------------------------------------------------------------|
A|--------------------------------------------------------------------------|
F|--------------------------------------------------------------------------|
C|--0-0000000-0000008-8888888-88888810-10101010101010-1010101010108-888888--|
G|--0-0000000-0000008-8888888-88888810-10101010101010-1010101010108-888888--|
C|--0-0000000-0000008-8888888-88888810-10101010101010-1010101010108-888888--|
Pm  x xxxxxxx xxxxxxx xxxxxxx xxxxxxx  x x x x x x x  x x x x x x x xxxxxx

D|--------------------------------------------------------------------------|
A|--------------------------------------------------------------------------|
F|----7777777---------------------------------------------------------------|
C|--5-5555555---------------------------------------------------------------|
G|--5-5555555---------------------------------------------------------------|
C|--5-5555555---------------------------------------------------------------|
Pm  x

D|--------------------------------------------------------------------------|
A|--------------------------------------------------------------------------|
F|--2c------10c-----2c------5c------10c-------------------------------------|
C|--0c------8c------0c------3c------8c--------------------------------------|
G|--0c------8c------0c------3c------8c--------------------------------------|
C|--0c------8c------0c------3c------8c--------------------------------------|

Main Riff
D|--------------------------------------------------------------------------|
A|--------------------------------------------------------------------------|
F|---------9h10p9h10p9\7--------9h10p9h10p9\5--------9h10p9h10p9h12---------|
C|--------------------------------------------------------------------------|
G|--000000---------------000000---------------888888------------------------|
C|--000000---------------000000---------------888888------------------------|
Pm  xxxxxx               xxxxxx               xxxxxx

D|--------------------------------------------------------------------------|
A|--------------------------------------------------------------------------|
F|---------------12p10p9h10p9\7---------------------------------------------|
C|--------------------------------------------------------------------------|
G|--101010101010------------------------------------------------------------|
C|--101010101010------------------------------------------------------------|
Pm  x x x x x x

D|--------------------------------------------------------------------------|
A|--------------------------------------------------------------------------|
F|--------------------------------------------------------------------------|
C|--0~----------------------------------------------------------------------|
G|--0~----------------------------------------------------------------------|
C|--0~----------------------------------------------------------------------|

Verse Clean Slight Phaser
D|--13----13----13--12----12----12------------------------------------------|
A|----10----10--------10----10----------------------------------------------|
F|------10----10--10----10----10--10----------------------------------------|
C|--------------------------------------------------------------------------|
G|--------------------------------------------------------------------------|
C|--------------------------------------------------------------------------|

Pre Chorus
D|--------------------------------------------------------------------------|
A|--------------------------------------------------------------------------|
F|--------------------------------------------------------------------------|
C|--0-0000000-0000008-8888888-88888810-10101010101010-1010101010108-888888--|
G|--0-0000000-0000008-8888888-88888810-10101010101010-1010101010108-888888--|
C|--0-0000000-0000008-8888888-88888810-10101010101010-1010101010108-888888--|
Pm  x xxxxxxx xxxxxxx xxxxxxx xxxxxxx  x x x x x x x  x x x x x x x xxxxxx

D|--------------------------------------------------------------------------|
A|--------------------------------------------------------------------------|
F|----7777777---------------------------------------------------------------|
C|--5-5555555---------------------------------------------------------------|
G|--5-5555555---------------------------------------------------------------|
C|--5-5555555---------------------------------------------------------------|
Pm  x

D|--------------------------------------------------------------------------|
A|--------------------------------------------------------------------------|
F|--2c------10c-----2c------5c------10c-------------------------------------|
C|--0c------8c------0c------3c------8c--------------------------------------|
G|--0c------8c------0c------3c------8c--------------------------------------|
C|--0c------8c------0c------3c------8c--------------------------------------|

Bridge
D|--------------------------------------------------------------------------|
A|--------------------------------------------------------------------------|
F|-------------------3*-----------------------------------------------------|
C|--------------------------------------------------------------------------|
G|--------------------------------------------------------------------------|
C|--0-0-0------0-0-0--------------------------------------------------------|
Pm  x x x      x x x

D|--------------------------------------------------------------------------|
A|--------------------------------------------------------------------------|
F|--------------------------------------------------------------------------|
C|--------------------------------------------------------------------------|
G|--------5~---------7~---------3~---------12~------------------------------|
C|--0-0-0------0-0-0------0-0-0------0-0-0----------------------------------|
Pm  x x x      x x x      x x x      x x x

D|--------------------------------------------------------------------------|
A|--------------------------------------------------------------------------|
F|--------------------------------------------------------------------------|
C|--------------------------------------------------------------------------|
G|--------------------------------------------------------------------------|
C|--0-0-0------0-0-0------0-0-0------0-0-0----------------------------------|

D|--------------------------------------------------------------------------|
A|--------------------------------------------------------------------------|
F|--10c-------------7c------------------------------------------------------|
C|--8c--------------5c------------------------------------------------------|
G|--8c--------------5c------------------------------------------------------|
C|--8c--------------5c------------------------------------------------------|

D|----10----10----10----10----9-------7-----7-----7-----7-----7---------------|
A|------10----10----10----10----10------8-----8-----8-----8-----7-------------|
F|--0-----0-----0-----0-----0-----0-0-----0-----0-----0-----0-----0-----------|
C|----------------------------------------------------------------------------|
G|----------------------------------------------------------------------------|
C|----------------------------------------------------------------------------|

D|--------------------------------------------------------------------------|
A|--------------------------------------------------------------------------|
F|--2c--------------7c------------------------------------------------------|
C|--0c--------------5c------------------------------------------------------|
G|--0c--------------5c------------------------------------------------------|
C|--0c--------------5c------------------------------------------------------|

D|--------------------------------------------------------------------------|
A|--------------------------------------------------------------------------|
F|--10c---------------------------------------------------------------------|
C|--8c----------------------------------------------------------------------|
G|--8c----------------------------------------------------------------------|
C|--8c--------------000000--------------------------------------------------|
Pm                  xxxxxx

Guitar 2 - Alex Westaway

Intro Clean Palm Mute
D|--------------------------------------------------------------------------|
A|--------------------------------------------------------------------------|
F|--------------------------------------------------------------------------|
C|--10c---------10c-----8c--------------------------------------------------|
G|--8c----------10c-----8c--------------------------------------------------|
C|--------------10c-----8c--------------------------------------------------|

Main Riff
D|--------------------------------------------------------------------------|
A|--------------------------------------------------------------------------|
F|---------9h10p9h10p9\7--------9h10p9h10p9\5--------9h10p9h10p9h12---------|
C|--------------------------------------------------------------------------|
G|--000000---------------000000---------------888888------------------------|
C|--000000---------------000000---------------888888------------------------|
Pm  xxxxxx               xxxxxx               xxxxxx

D|--------------------------------------------------------------------------|
A|--------------------------------------------------------------------------|
F|---------------12p10p9h10p9\7---------------------------------------------|
C|--------------------------------------------------------------------------|
G|--101010101010------------------------------------------------------------|
C|--101010101010------------------------------------------------------------|
Pm  x x x x x x

Alex's Switch
D|--------------------------------------------------------------------------|
A|---------8h10p8h10p8\6--------8h10p8h10p8\5--------8h10p8h10p8h11---------|
F|--------------------------------------------------------------------------|
C|--------------------------------------------------------------------------|
G|--000000---------------000000---------------888888------------------------|
C|--000000---------------000000---------------888888------------------------|
Pm  xxxxxx               xxxxxx               xxxxxx

D|--------------------------------------------------------------------------|
A|---------------11p10p8h10p8\6---------------------------------------------|
F|--------------------------------------------------------------------------|
C|--------------------------------------------------------------------------|
G|--101010101010------------------------------------------------------------|
C|--101010101010------------------------------------------------------------|
Pm  x x x x x x

D|--------------------------------------------------------------------------|
A|--------------------------------------------------------------------------|
F|--------------------------------------------------------------------------|
C|--0~----------------------------------------------------------------------|
G|--0~----------------------------------------------------------------------|
C|--0~----------------------------------------------------------------------|

D|--------------------------------------------------------------------------|
A|--------------------------------------------------------------------------|
F|--------------------------------------------------------------------------|
C|---REST-------------------------------------------------------------------|
G|--------------------------------------------------------------------------|
C|--------------------------------------------------------------------------|

Verse Clean
D|--------------------------------------------------------------------------|
A|--------------------------------------------------------------------------|
F|--10---10---10--10----10---10---------------------------------------------|
C|----8----8--------10----10------------------------------------------------|
G|------8----8--8-----8-----8--8--------------------------------------------|
C|--------------------------------------------------------------------------|

Pre Chorus
D|--------------------------------------------------------------------------|
A|--------------------------------------------------------------------------|
F|--------------------------------------------------------------------------|
C|--0-0000000-0000008-8888888-88888810-10101010101010-1010101010108-888888--|
G|--0-0000000-0000008-8888888-88888810-10101010101010-1010101010108-888888--|
C|--0-0000000-0000008-8888888-88888810-10101010101010-1010101010108-888888--|
Pm  x xxxxxxx xxxxxxx xxxxxxx xxxxxxx  x x x x x x x  x x x x x x x xxxxxx

D|--------------------------------------------------------------------------|
A|--------------------------------------------------------------------------|
F|----7777777---------------------------------------------------------------|
C|--5-5555555---------------------------------------------------------------|
G|--5-5555555---------------------------------------------------------------|
C|--5-5555555---------------------------------------------------------------|
Pm  x

D|--------------------------------------------------------------------------|
A|--------------------------------------------------------------------------|
F|--2c------10c-----2c------5c------10c-------------------------------------|
C|--0c------8c------0c------3c------8c--------------------------------------|
G|--0c------8c------0c------3c------8c--------------------------------------|
C|--0c------8c------0c------3c------8c--------------------------------------|

Main Riff
D|--------------------------------------------------------------------------|
A|---------8h10p8h10p8\6--------8h10p8h10p8\5--------8h10p8h10p8h11---------|
F|--------------------------------------------------------------------------|
C|--------------------------------------------------------------------------|
G|--000000---------------000000---------------888888------------------------|
C|--000000---------------000000---------------888888------------------------|
Pm  xxxxxx               xxxxxx               xxxxxx

D|--------------------------------------------------------------------------|
A|---------------11p10p8h10p8\6---------------------------------------------|
F|--------------------------------------------------------------------------|
C|--------------------------------------------------------------------------|
G|--101010101010------------------------------------------------------------|
C|--101010101010------------------------------------------------------------|
Pm  x x x x x x

Verse Clean
D|--------------------------------------------------------------------------|
A|--------------------------------------------------------------------------|
F|--10---10---10--10----10---10---------------------------------------------|
C|----8----8--------10----10------------------------------------------------|
G|------8----8--8-----8-----8--8--------------------------------------------|
C|--------------------------------------------------------------------------|

Pre Chorus
D|--------------------------------------------------------------------------|
A|--------------------------------------------------------------------------|
F|--------------------------------------------------------------------------|
C|--0-0000000-0000008-8888888-88888810-10101010101010-1010101010108-888888--|
G|--0-0000000-0000008-8888888-88888810-10101010101010-1010101010108-888888--|
C|--0-0000000-0000008-8888888-88888810-10101010101010-1010101010108-888888--|
Pm  x xxxxxxx xxxxxxx xxxxxxx xxxxxxx  x x x x x x x  x x x x x x x xxxxxx

D|--------------------------------------------------------------------------|
A|--------------------------------------------------------------------------|
F|----7777777---------------------------------------------------------------|
C|--5-5555555---------------------------------------------------------------|
G|--5-5555555---------------------------------------------------------------|
C|--5-5555555---------------------------------------------------------------|
Pm  x

D|--------------------------------------------------------------------------|
A|--------------------------------------------------------------------------|
F|--2c------10c-----2c------5c------10c-------------------------------------|
C|--0c------8c------0c------3c------8c--------------------------------------|
G|--0c------8c------0c------3c------8c--------------------------------------|
C|--0c------8c------0c------3c------8c--------------------------------------|

Bridge
D|--------------------------------------------------------------------------|
A|--------------------------------------------------------------------------|
F|--------------------------------------------------------------------------|
C|--------3b----------------------------------------------------------------|
G|--------------------------------------------------------------------------|
C|--0-0-0------0-0-0--------------------------------------------------------|
Pm  x x x      x x x

D|--------------------------------------------------------------------------|
A|--------------------------------------------------------------------------|
F|--------------------------------------------------------------------------|
C|--------0~---------0~---------0~---------0~-------------------------------|
G|--------------------------------------------------------------------------|
C|--0-0-0------0-0-0------0-0-0------0-0-0----------------------------------|

D|--------------------------------------------------------------------------|
A|--------------------------------------------------------------------------|
F|--------------------------------------------------------------------------|
C|--------------------------------------------------------------------------|
G|--------------------------------------------------------------------------|
C|--0~~~------------8~~~----------------------------------------------------|

D|--------------------------------------------------------------------------|
A|--------------------------------------------------------------------------|
F|--2c--------------7c------------------------------------------------------|
C|--0c--------------5c------------------------------------------------------|
G|--0c--------------5c------------------------------------------------------|
C|--0c--------------5c------------------------------------------------------|

D|--------------------------------------------------------------------------|
A|--------------------------------------------------------------------------|
F|--5c----------------------------------------------------------------------|
C|--3c----------------------------------------------------------------------|
G|--3c----------------------------------------------------------------------|
C|--3c--------------000000--------------------------------------------------|
Pm                  xxxxxx

Ace song im pretty sure it's right...ish please rate it and e-mail any corrections 
at the top of the page) :)
comments
print report bad tab
1 comment total.
0 reply
mickmars2 wrote on May 8 2008, 10:46 am

pretty good, couple a corrections...
verse-guitar 2
|-8----8----8--8---8---8-8----8----8--8---8---8--
|--10---10------10--10----10---10------10--10----
|----10---10-10---9---9-9---10---10-10---9---9-9-
|------------------------------------------------
|------------------------------------------------
|------------------------------------------------

and the the end of the bridge...
|--17---17---17---17---17-----15---15---15---15---15----
|----15---15---15---15---14-----12---12---12---12---12--
|-0----0----0----0----0----0-0----0----0----0----0----0-
|-------------------------------------------------------
|-------------------------------------------------------
|-------------------------------------------------------

|--17---17---17---17---17-----15---15---15---15---
|----15---15---15---15---14-----12---12---12---12-
|-0----0----0----0----0----0-0----0----0----0-----
|-------------------------------------------------
|-------------------------------------------------
|-------------------------------------------------

besides that 4 stars!

I want to post or [tab]
guest
You may want to rate the tab now too:
select rating
Please do not post tabs as comments. Select "correction" instead!