Oops, an error
Loading. Please wait.

Paint Your Target Tab

ver4
ver4
More versions @911Tabs.com
579 views 1 this week
4 commentsread comments
1 2 3 4 5
worth learning
x 4
Autoscroll
+/-
esc
set tempo
stop
Contributor
WARNING: You are trying to view
                                    content from Ultimate-Guitar.com
                                    in an unauthorized application,
                                    which is prohibited.

                                    Please use an official Ultimate
                                    Guitar Tabs application for iPhone,
                                    iPad or Android to access legitimate
                                    chords, guitar, bass, and drum tabs
                                    from Ultimate-Guitar.com database.

                                    Type "ultimate guitar tabs" in Apple
                                    App Store's or Android Market's
                                    search to find the application.
-------------------------------------------------------------------------------
                             PAINT YOUR TARGET - Fightstar
-------------------------------------------------------------------------------
Tabbed by: Jay Lee 
Email:     JayLee1459@hotmail.com

Tuning: Drop D

I dont think this tab is perfect, but i know its very close and much
better than the other stuff people have been coming up with for this tab.

LISTEN TO THE SONG TO FIGURE OUT THE RHYTHEM!!

                                  Intro

Guitar 1 (Clean) 

e|-----------0---------------0-----------------0---------------0-------------|
B|-------7---------------7---------------------------------------------------|
G|-----4---4---4---4---4---4---4---4-------4-----4---4-----4-----4---4-------|
D|---6-----------6---6-----------6-------2---2-----2-----2---2-----2---------|
A|-------------------------------------4---------------4---------------------|
D|---------------------------------------------------------------------------|

e|-----------0---------------0-----------------0-----------------------------|
B|-------7---------------7---------------------------------------------------|
G|-----4---4---4---4---4---4---4---4-------4-----4---4-----------------------|
D|---6-----------6---6-----------6-------2---2-----2-------------------------|
A|-------------------------------------4---------------4---------------------|
D|---------------------------------------------------------------------------|

Guitar 2 (Clean)

e|---------------------------------------------------------------------------|
B|---------------------------------------------------------------------------|
G|---------------------------------------------------------------------------|
D|--6----------6/9------------------x2---------------------------------------|
A|---------------------------------------------------------------------------|
D|------------------11-------------------------------------------------------|

Guitar 1 (Distortion)

e|---------------------------------------------------------------------------|
B|---------------------------------------------------------------------------|
G|---4--8--13--9-----4--8--13--9---------------------------------------------|
D|---2--x--11--7--0--2--x--11--7---------------------------------------------|
A|---2--6--11--7--0--2--6--11--7---------------------------------------------|
D|---2-----11--7--0--2-----11--7---------------------------------------------|

Guitar 2 (Distortion)

e|---------------------------------------------------------------------------|
B|---------------------------------------------------------------------------|
G|-----6--2------------------------------------------------------------------|
D|--2--6--2------------------------------------------------------------------|
A|--2--4--0------------------------------------------------------------------|
D|--2------------------------------------------------------------------------|


                                  Verse 1

Guitar 1 (Clean)<<<EXACTLY LIKE INTRO BUT REPEATED 4 TIMES EACGH INSTEAD OF 2!

Guitar 2 (Distortion)

e|---------------------------------------------------------------------------|
B|---------------------------------------------------------------------------|
G|-----------------------------------6-6-6-6-6-6-6----6-6-6------------------|
D|--2-2-2-2-2-2-2------2-2-2---------6-6-6-6-6-6-6----6-6-6------------------|
A|--2-2-2-2-2-2-2------2-2-2---x2----4-4-4-4-4-4-4----4-4-4------------------|
D|--2-2-2-2-2-2-2------2-2-2-------------------------------------------------|
    ...............PM..........................................

e|---------------------------------------------------------------------------|
B|---------------------------------------------------------------------------|
G|--2-2-2-2-2-2-2----2-2-2---------------------------------------------------|
D|--2-2-2-2-2-2-2----2-2-2---------------------------------------------------|
A|--0-0-0-0-0-0-0----0-0-0---------------------------------------------------|
D|---------------------------------------------------------------------------|
    ...........PM..........
                 
Guitar 1 (Distortion Then Clean)
                
e|--0-----------0---------------0--------0----------0------------------------|
B|--7------------------------------------7-----------------------------------|
G|--4-------4-----4---4-----4-----4---4--4------4-----4---4------------------|
D|--6-----2---2-----2-----2---2-----2----6----2---2-----2--------------------|
A|------4---------------4-------------------4---------------4----------------|
D|---------------------------------------------------------------------------|

Guitar 2 (Distortion Then Clean)

e|---------------------------------------------------------------------------|
B|---------------------------------------------------------------------------|
G|--11--------9--------------------------------------------------------------|
D|--9---------7----x2--------------------------------------------------------|
A|--9---------7--------------------------------------------------------------|
D|--9---------7--------------------------------------------------------------|


                                 Chorous

Guitar 1 (Distortion)

e|---------------------------------------------------------------------------|
B|---------------------------------------------------------------------------|
G|-----4--13-11--9--4--13--11--9---------------------------------------------|
D|--0--2--11-9---7--2--11--9---7---------------------------------------------|
A|--0--2--11-9---7--2--11--9---7---------------------------------------------|
D|--0--2--11-9---7--2--11--9---7---------------------------------------------|

Guitar 2 (Distortion)

e|---------------------------------------------------------------------------|
B|---------------------------------------------------------------------------|
G|--------6--4--2-----6--4--2------------------------------------------------|
D|--0--2--6--4--2--2--6--4--2------------------------------------------------|
A|--0--2--4--2--0--2--4--2--0------------------------------------------------|
D|--0--2-----------2---------------------------------------------------------|

                                  Verse 2

                                  Chorous

                                  Bridge

Guitar 1 (Distortion)

e|---------------------------------------------------------------------------|
B|---------------------------------------------------------------------------|
G|---------------------------------------------------------------------------|
D|--2-2-2-2-2-2-2---2-2-2--2h3-3---0--0-0-0-0-0-0-0--0-0-0--2h3-3------------|
A|--2-2-2-2-2-2-2---2-2-2--2h3-3---0--0-0-0-0-0-0-0--0-0-0--2h3-3------x2----|
D|--2-2-2-2-2-2-2---2-2-2--2h3-3---0--0-0-0-0-0-0-0--0-0-0--2h3-3------------|
    ........PM...........          .........PM............

Guitar 2 (Distortion)

e|---------------------------------------------------------------------------|
B|---------------------------------------------------------------------------|
G|------------------------4/5-5---------------------------4/5-5--------------|
D|--2-2-2-2-2-2-2--2-2-2--x/x-x--0--0-0-0-0-0-0-0--0-0-0--x/x-x--------------|
A|--2-2-2-2-2-2-2--2-2-2--2/3-3--0--0-0-0-0-0-0-0--0-0-0--2/3-3--------------|
D|--2-2-2-2-2-2-2--2-2-2---------0--0-0-0-0-0-0-0--0-0-0---------------------|
    ........PM..........         ..............PM.......

Only one guitar in this part: (clean)

e|--0--0--0--------------0-------------------------------------------------------|
B|--0--0--0--------------0-------------------------------------------------------|
G|--4--6--4--------------2-------------------------------------------------------|
D|--2--6--4--distortion:-2-------------------------------------------------------|
A|--2--4--2--------------0-------------------------------------------------------|
D|--2--x--x--------------x-------------------------------------------------------|



the ending is exactly the same as the chorous but its repeated twice and on the
second time the guitars are palm muted untilt the very last note, thenthey are
played.

Big shout out to Mike, Glyn, Jonny an the girl who flashed at me in the pit
during fightstar in liverpool June 3rd.....that gig kicked ass! and it was all
of you guys!! 

===============================================================================
comments
print report bad tab
4 comments total. Showing first comments.
0 reply
C3_Rocka wrote on August 22 2005, 12:00 am

Hmmmm........interesting. Good intro, but I'm not too sure if this BANG on. Oh well. Good luck all.

1st comment, mofo.

0 reply
prs-player128 wrote on August 31 2005, 12:00 am

this is pretty good cos i seen um play it and your version looks similar to how they play it

0 reply
schecter006 wrote on May 30 2006, 07:46 am

seems a bit off.

I want to post or [tab]
guest
You may want to rate the tab now too:
select rating
Please do not post tabs as comments. Select "correction" instead!