Oops, an error
Loading. Please wait.

Palahniuks Laughter Tab

ver1
ver1

Whole song

Interactive

More versions @911Tabs.com
4,800 views 3 this week
4 commentsread comments
1 2 3 4 5
worth learning
x 5
Autoscroll
+/-
esc
set tempo
stop
Contributor
Difficulty
intermediate
WARNING: You are trying to view
                                    content from Ultimate-Guitar.com
                                    in an unauthorized application,
                                    which is prohibited.

                                    Please use an official Ultimate
                                    Guitar Tabs application for iPhone,
                                    iPad or Android to access legitimate
                                    chords, guitar, bass, and drum tabs
                                    from Ultimate-Guitar.com database.

                                    Type "ultimate guitar tabs" in Apple
                                    App Store's or Android Market's
                                    search to find the application.
This is song tabbed out for STANDARD TUNING, rather than the original drop B. It is 
right, so give it go. Its a great song that not of people know about. Contact me on 
or visit my website http://studio7.org

             E  S E  S E  S S E  S S E     E  S E  S E  S S E  S E.
E||-------|-----------------------------|----------------------------|
B||-------|-----------------------------|----------------------------|
G||-------|-----------------------------|----------------------------|
D||-------|--4--2-4--2-4---------2-3-4--|--4--2-4--2-4---------4-2---|
A||-------|--2--0-2--0-2--0------0-1-2--|--2--0-2--0-2--0------2-0---|
E||-------|-----------------4-2---------|-----------------4-2--------|


  E  S E  S E  S S E  S S E     E  S E  S E  S S E  S E.
-----------------------------|----------------------------|
-----------------------------|----------------------------|
-----------------------------|----------------------------|
--4--2-4--2-4---------2-3-4--|--4--2-4--2-4---------4-2---|
--2--0-2--0-2--0------0-1-2--|--2--0-2--0-2--0------2-0---|
-----------------4-2---------|-----------------4-2--------|


  S S S S S S S S S S S S S S S S    S S S S S S S S S S S S S S S S
----------------------------------|----------------------------------|
----------------------------------|----------------------------------|
----------------------------------|----------------------------------|
--6-6-6-6-6-6-6-6-6-6-6-6-6-6-6-6-|--6-6-6-6-6-6-6-6-6-6-6-6-6-6-6-6-|
--4-4-4-4-4-4-4-4-4-4-4-4-4-4-4-4-|--6-6-6-6-6-6-6-6-6-6-6-6-6-6-6-6-|
----------------------------------|----------------------------------|


  S S S S S S S S S S S S S S S S    S S S S S S S S S S S S S S S S
----------------------------------|----------------------------------|
----------------------------------|----------------------------------|
----------------------------------|----------------------------------|
--6-6-6-6-6-6-6-6-6-6-6-6-6-6-6-6-|--6-6-6-6-6-6-6-6-6-6-6-6-6-6-6-6-|
--7-7-7-7-7-7-7-7-7-7-7-7-7-7-7-7-|--x-x-x-x-x-x-x-x-x-x-x-x-x-x-x-x-|
----------------------------------|--5-5-5-5-5-5-5-5-5-5-5-5-5-5-5-5-|


  S S S S S S S S S S S S S S S S    S S S S S S S S S S S S S S S S
----------------------------------|----------------------------------|
----------------------------------|----------------------------------|
----------------------------------|----------------------------------|
--6-6-6-6-6-6-6-6-6-6-6-6-6-6-6-6-|--6-6-6-6-6-6-6-6-6-6-6-6-6-6-6-6-|
--4-4-4-4-4-4-4-4-4-4-4-4-4-4-4-4-|--6-6-6-6-6-6-6-6-6-6-6-6-6-6-6-6-|
----------------------------------|----------------------------------|


  S S S S S S S S S S S S S S S S    S S S S S S S S S S S S S S S S
----------------------------------|----------------------------------|
----------------------------------|----------------------------------|
----------------------------------|----------------------------------|
--6-6-6-6-6-6-6-6-6-6-6-6-6-6-6-6-|--6-6-6-6-6-6-6-6-6-6-6-6-6-6-6-6-|
--7-7-7-7-7-7-7-7-7-7-7-7-7-7-7-7-|--x-x-x-x-x-x-x-x-x-x-x-x-x-x-x-x-|
----------------------------------|--5-5-5-5-5-5-5-5-5-5-5-5-5-5-5-5-|


  S S S S S S S S S S S S S S S S    S S S S S S S S S S S S S S S S
--7---7---7---7---7---7---7---7---|--7---7---7---7---7---7---7---7---|
----5---5---5---5---5---5---5---5-|----4---4---4---4---4---4---4---4-|
----------------------------------|----------------------------------|
----------------------------------|----------------------------------|
----------------------------------|----------------------------------|
----------------------------------|----------------------------------|


  S S S S S S S S S S S S S S S S    S S S S S S S S S S S S S S S S
--9-0-9-0-9-0-9-0-9-0-9-0-9-0-9-0-|--7-0-7-0-7-0-7-0-7-0-7-0-7-0-7-0-|
----------------------------------|----------------------------------|
----------------------------------|----------------------------------|
----------------------------------|----------------------------------|
----------------------------------|----------------------------------|
----------------------------------|----------------------------------|


  S S S S S S S S S S S S S S S S    S S S S S S S S S S S S S S S S
--7-0-7-0-7-0-7-0-7-0-7-0-7-0-7-0-|--7---7---7---7---7---7---7---7---|
----------------------------------|----------------------------------|
----------------------------------|----8---8---8---8---8---8---8---8-|
----------------------------------|----------------------------------|
----------------------------------|----------------------------------|
----------------------------------|----------------------------------|


  S S S S S S S S S S S S S S S S    S S S S S S S S S S S S S S S S
--9---9---9---9---9---9---9---9---|--7---7-0-7-0-7-0-7-0-7-0-7-0-7-0-|
----------------------------------|----------------------------------|
----9---9---9---9---9---9---9---9-|----9-----------------------------|
----------------------------------|----------------------------------|
----------------------------------|----------------------------------|
----------------------------------|----------------------------------|


  S S S S S S S S S S S S S S S S    S S S S S S S S S S S S S S S S
----------------------------------|----------------------------------|
----------------------------------|----------------------------------|
----------------------------------|----------------------------------|
----------------------------------|----------------------------------|
--4-4-4-4-4-4-4-4-4-4-4-4-4-4-4-4-|--2-2-2-2-2-2-2-2-2-2-2-2-2-2-2-2-|
--4-4-4-4-4-4-4-4-4-4-4-4-4-4-4-4-|--2-2-2-2-2-2-2-2-2-2-2-2-2-2-2-2-|


  S S S S S S S S S S S S S S S S    S S S S S S S S S S S S S S S S
--0-0-0-0-0-0-0-0-0-0-0-0-0-0-0-0-|------------------0-0-0-0-0-0-0-0-|
----------------------------------|--4-4-4-4-4-4-4-4-----------------|
--2-2-2-2-2-2-2-2-2-2-2-2-2-2-2-2-|--2-2-2-2-2-2-2-2-2-2-2-2-2-2-2-2-|
--2-2-2-2-2-2-2-2-2-2-2-2-2-2-2-2-|--2-2-2-2-2-2-2-2-2-2-2-2-2-2-2-2-|
--0-0-0-0-0-0-0-0-0-0-0-0-0-0-0-0-|--0-0-0-0-0-0-0-0-0-0-0-0-0-0-0-0-|
----------------------------------|----------------------------------|


  S S S S S S S S S S S S S S S S    S S S S S S S S S S S S S S S S
----------------------------------|----------------------------------|
----------------------------------|----------------------------------|
----------------------------------|----------------------------------|
----------------------------------|----------------------------------|
--4-4-4-4-4-4-4-4-4-4-4-4-4-4-4-4-|--2-2-2-2-2-2-2-2-2-2-2-2-2-2-2-2-|
--4-4-4-4-4-4-4-4-4-4-4-4-4-4-4-4-|--2-2-2-2-2-2-2-2-2-2-2-2-2-2-2-2-|


  S S S S S S S S S S S S S S S S    S S S S S S S S S S S S Q
--0-0-0-0-0-0-0-0-0-0-0-0-0-0-0-0-|------------------0-0-0-0-------|
----------------------------------|--4-4-4-4-4-4-4-4---------------|
--2-2-2-2-2-2-2-2-2-2-2-2-2-2-2-2-|--2-2-2-2-2-2-2-2-2-2-2-2-2-----|
--2-2-2-2-2-2-2-2-2-2-2-2-2-2-2-2-|--2-2-2-2-2-2-2-2-2-2-2-2-2S----|
--0-0-0-0-0-0-0-0-0-0-0-0-0-0-0-0-|--0-0-0-0-0-0-0-0-0-0-0-0-0S----|
----------------------------------|--------------------------------|


  E  S E  S E  S S E  S S E     E  S E  S E  S S E  S E.
-----------------------------|----------------------------|
-----------------------------|----------------------------|
-----------------------------|----------------------------|
--4--2-4--2-4---------2-3-4--|--4--2-4--2-4---------4-2---|
--2--0-2--0-2--0------0-1-2--|--2--0-2--0-2--0------2-0---|
-----------------4-2---------|-----------------4-2--------|


  E  S E  S E  S S E  S S E     E  S E  S E  S S E  S E.
-----------------------------|----------------------------|
-----------------------------|----------------------------|
-----------------------------|----------------------------|
--4--2-4--2-4---------2-3-4--|--4--2-4--2-4---------4-2---|
--2--0-2--0-2--0------0-1-2--|--2--0-2--0-2--0------2-0---|
-----------------4-2---------|-----------------4-2--------|


  S S S S S S S S S S S S S S S S    S S S S S S S S S S S S S S S S
----------------------------------|----------------------------------|
----------------------------------|----------------------------------|
----------------------------------|----------------------------------|
--6-6-6-6-6-6-6-6-6-6-6-6-6-6-6-6-|--6-6-6-6-6-6-6-6-6-6-6-6-6-6-6-6-|
--4-4-4-4-4-4-4-4-4-4-4-4-4-4-4-4-|--6-6-6-6-6-6-6-6-6-6-6-6-6-6-6-6-|
----------------------------------|----------------------------------|


  S S S S S S S S S S S S S S S S    S S S S S S S S S S S S S S S S
----------------------------------|----------------------------------|
----------------------------------|----------------------------------|
----------------------------------|----------------------------------|
--6-6-6-6-6-6-6-6-6-6-6-6-6-6-6-6-|--6-6-6-6-6-6-6-6-6-6-6-6-6-6-6-6-|
--7-7-7-7-7-7-7-7-7-7-7-7-7-7-7-7-|--x-x-x-x-x-x-x-x-x-x-x-x-x-x-x-x-|
----------------------------------|--5-5-5-5-5-5-5-5-5-5-5-5-5-5-5-5-|


  S S S S S S S S S S S S S S S S    S S S S S S S S S S S S S S S S
----------------------------------|----------------------------------|
----------------------------------|----------------------------------|
----------------------------------|----------------------------------|
--6-6-6-6-6-6-6-6-6-6-6-6-6-6-6-6-|--6-6-6-6-6-6-6-6-6-6-6-6-6-6-6-6-|
--4-4-4-4-4-4-4-4-4-4-4-4-4-4-4-4-|--6-6-6-6-6-6-6-6-6-6-6-6-6-6-6-6-|
----------------------------------|----------------------------------|


  S S S S S S S S S S S S S S S S    S S S S S S S S S S S S S S S S
----------------------------------|----------------------------------|
----------------------------------|----------------------------------|
----------------------------------|----------------------------------|
--6-6-6-6-6-6-6-6-6-6-6-6-6-6-6-6-|--6-6-6-6-6-6-6-6-6-6-6-6-6-6-6-6-|
--7-7-7-7-7-7-7-7-7-7-7-7-7-7-7-7-|--x-x-x-x-x-x-x-x-x-x-x-x-x-x-x-x-|
----------------------------------|--5-5-5-5-5-5-5-5-5-5-5-5-5-5-5-5-|


  S S S S S E.  H           S S S S S E.  H
-------------------------|-------------------------|
-------------------------|--4-4-4-4-4--------------|
-------------------------|-------------------------|
-------------------------|--x-x-x-x-x--------------|
--2-2-2-2-2--------------|--6-6-6-6-6--------------|
--0-0-0-0-0--------------|-------------------------|


  S S S S S S S S S S S S S S S S    S S S S S S S S S S S S S S S S
--9-0-9-0-9-0-9-0-9-0-9-0-9-0-9-0-|--7-0-7-0-7-0-7-0-7-0-7-0-7-0-7-0-|
----------------------------------|----------------------------------|
----------------------------------|----------------------------------|
----------------------------------|----------------------------------|
----------------------------------|----------------------------------|
----------------------------------|----------------------------------|


  S S S S S E.  H           S S S S S E.  H
-------------------------|-------------------------|
-------------------------|--4-4-4-4-4--------------|
-------------------------|--4-4-4-4-4--------------|
-------------------------|-------------------------|
--2-2-2-2-2--------------|--6-6-6-6-6--------------|
--0-0-0-0-0--------------|-------------------------|


  S S S S S S S S S S S S S S S S    S S S S S S S S S S S S S S S S
--9-0-9-0-9-0-9-0-9-0-9-0-9-0-9-0-|--7-0-7-0-7-0-7-0-7-0-7-0-7-0-7-0-|
----------------------------------|----------------------------------|
----------------------------------|----------------------------------|
----------------------------------|----------------------------------|
----------------------------------|----------------------------------|
----------------------------------|----------------------------------|


  S S S S S S S S S S S S S S S S    S S S S S S S S S S S S S S S S
----------------------------------|----------------------------------|
----------------------------------|----------------------------------|
----------------------------------|----------------------------------|
----------------------------------|----------------------------------|
--4-4-4-4-4-4-4-4-4-4-4-4-4-4-4-4-|--2-2-2-2-2-2-2-2-2-2-2-2-2-2-2-2-|
--4-4-4-4-4-4-4-4-4-4-4-4-4-4-4-4-|--2-2-2-2-2-2-2-2-2-2-2-2-2-2-2-2-|


  S S S S S S S S S S S S S S S S    S S S S S S S S S S S S S S S S
--0-0-0-0-0-0-0-0-0-0-0-0-0-0-0-0-|------------------0-0-0-0-0-0-0-0-|
----------------------------------|--4-4-4-4-4-4-4-4-----------------|
--2-2-2-2-2-2-2-2-2-2-2-2-2-2-2-2-|--2-2-2-2-2-2-2-2-2-2-2-2-2-2-2-2-|
--2-2-2-2-2-2-2-2-2-2-2-2-2-2-2-2-|--2-2-2-2-2-2-2-2-2-2-2-2-2-2-2-2-|
--0-0-0-0-0-0-0-0-0-0-0-0-0-0-0-0-|--0-0-0-0-0-0-0-0-0-0-0-0-0-0-0-0-|
----------------------------------|----------------------------------|


  S S S S S S S S S S S S S S S S    S S S S S S S S S S S S S S S S
----------------------------------|----------------------------------|
----------------------------------|----------------------------------|
----------------------------------|----------------------------------|
----------------------------------|----------------------------------|
--4-4-4-4-4-4-4-4-4-4-4-4-4-4-4-4-|--2-2-2-2-2-2-2-2-2-2-2-2-2-2-2-2-|
--4-4-4-4-4-4-4-4-4-4-4-4-4-4-4-4-|--2-2-2-2-2-2-2-2-2-2-2-2-2-2-2-2-|


  S S S S S S S S S S S S S S S S    S S S S S S S S S S S S S S S S
--0-0-0-0-0-0-0-0-0-0-0-0-0-0-0-0-|------------------0-0-0-0-0-0-0-0-|
----------------------------------|--4-4-4-4-4-4-4-4-----------------|
--2-2-2-2-2-2-2-2-2-2-2-2-2-2-2-2-|--2-2-2-2-2-2-2-2-2-2-2-2-2-2-2-2-|
--2-2-2-2-2-2-2-2-2-2-2-2-2-2-2-2-|--2-2-2-2-2-2-2-2-2-2-2-2-2-2-2-2-|
--0-0-0-0-0-0-0-0-0-0-0-0-0-0-0-0-|--0-0-0-0-0-0-0-0-0-0-0-0-0-0-0-0-|
----------------------------------|----------------------------------|


  S S S S S E.  H           S S S S S E.  H
-------------------------|-------------------------|
-------------------------|-------------------------|
-------------------------|-------------------------|
-------------------------|-------------------------|
--2-4-4-4-4--------------|--4-2-2-2-2--------------|
--2-4-4-4-4--------------|--4-2-2-2-2--------------|


  S S S S S S S S S S S S S S S S    S S S S S S S S S S S S S S S S
--0-0-0-0-0-0-0-0-0-0-0-0-0-0-0-0-|------------------0-0-0-0-0-0-0-0-|
----------------------------------|--4-4-4-4-4-4-4-4-----------------|
--2-2-2-2-2-2-2-2-2-2-2-2-2-2-2-2-|--2-2-2-2-2-2-2-2-2-2-2-2-2-2-2-2-|
--2-2-2-2-2-2-2-2-2-2-2-2-2-2-2-2-|--2-2-2-2-2-2-2-2-2-2-2-2-2-2-2-2-|
--0-0-0-0-0-0-0-0-0-0-0-0-0-0-0-0-|--0-0-0-0-0-0-0-0-0-0-0-0-0-0-0-0-|
----------------------------------|----------------------------------|


  S S S S S E.  H           S S S S S E.  H
-------------------------|-------------------------|
-------------------------|-------------------------|
-------------------------|-------------------------|
-------------------------|-------------------------|
--2-4-4-4-4--------------|--4-2-2-2-2--------------|
--2-4-4-4-4--------------|--4-2-2-2-2--------------|


  S S S S S S S S S S S S S S S S    S S S S S S S S S S S S S S S S
--0-0-0-0-0-0-0-0-0-0-0-0-0-0-0-0-|------------------0-0-0-0-0-0-0-0-|
----------------------------------|--4-4-4-4-4-4-4-4-----------------|
--2-2-2-2-2-2-2-2-2-2-2-2-2-2-2-2-|--2-2-2-2-2-2-2-2-2-2-2-2-2-2-2-2-|
--2-2-2-2-2-2-2-2-2-2-2-2-2-2-2-2-|--2-2-2-2-2-2-2-2-2-2-2-2-2-2-2-2-|
--0-0-0-0-0-0-0-0-0-0-0-0-0-0-0-0-|--0-0-0-0-0-0-0-0-0-0-0-0-0-0-0-0-|
----------------------------------|----------------------------------|


  S S S S S S S S S S S S S S S S    S S S S S S S S S S S S S S S S
--7-0-7-0-7-0-7-0-7-0-7-0-7-0-7-0-|--7---7---7---7---7---7---7---7---|
----------------------------------|----------------------------------|
----------------------------------|----8---8---8---8---8---8---8---8-|
----------------------------------|----------------------------------|
----------------------------------|----------------------------------|
----------------------------------|----------------------------------|


  S S S S S S S S S S S S S S S S    S S S S S S S S S S S S S S S S
--9---9---9---9---9---9---9---9---|--7---7-0-7-0-7-0-7-0-7-0-7-0-7-0-|
----------------------------------|----------------------------------|
----9---9---9---9---9---9---9---9-|----9-----------------------------|
----------------------------------|----------------------------------|
----------------------------------|----------------------------------|
----------------------------------|----------------------------------|


   TP                   TP                   TP
   W                    W                    W
--12----------------|--11----------------|--12----------------|
--------------------|--------------------|--------------------|
--------------------|--------------------|--------------------|
--------------------|--------------------|--------------------|
--------------------|--------------------|--------------------|
--------------------|--------------------|--------------------|


   TP                   TP                   TP
   W                    W                    W
--14----------------|--12----------------|--11----------------|
--------------------|--------------------|--------------------|
--------------------|--------------------|--------------------|
--------------------|--------------------|--------------------|
--------------------|--------------------|--------------------|
--------------------|--------------------|--------------------|


   TP                   TP                   TP
   W                    W                    W
--16----------------|--14----------------|--19----------------|
--------------------|--------------------|--------------------|
--------------------|--------------------|--------------------|
--------------------|--------------------|--------------------|
--------------------|--------------------|--------------------|
--------------------|--------------------|--------------------|


   TP                   TP                            TP
   W                    W                   H         Q    Q
--------------------|--------------------|-------------------------|
--------------------|--------------------|-------------------------|
--20----------------|--------------------|-----------18------------|
--------------------|--21----------------|--L----------------------|
--------------------|--------------------|-----------------9-------|
--------------------|--------------------|-----------------7-------|


  E  S E  S E  S S E  S S E     E  S E  S E  S S E  S E.
-----------------------------|----------------------------|
-----------------------------|----------------------------|
-----------------------------|----------------------------|
----------------------2-3-4--|--4--2-4--2-4---------4-2---|
--9--7-9--7-9--0------0-1-2--|--2--0-2--0-2--0------2-0---|
--7--5-7--5-7----4-2---------|-----------------4-2--------|


  E  S E  S E  S S E  S S E     E  S E  S E  S S E  S E.     W
-----------------------------|----------------------------|-------------------|
-----------------------------|----------------------------|-------------------|
-----------------------------|----------------------------|-------------------|
--4--2-4--2-4---------2-3-4--|--4--2-4--2-4---------4-2---|-------------------|
--2--0-2--0-2--0------0-1-2--|--2--0-2--0-2--0------2-0---|-------------------|
-----------------4-2---------|-----------------4-2--------|--4----------------|


Duration Legend
---------------
W - whole
H - half
Q - quarter
E - 8th
S - 16th
T - 32nd
X - 64th
. - note dotted
|-n-|  - n-tuplets


Tablature Legend
----------------
L - tied note
x - dead note
g - grace note
(n) - ghost note
> - accentuded note
NH - natural harmonic
AH - artificial harmonic
TH - tapped harmonic
SH - semi harmonic
PH - pitch harmonic
h - hammer on
p - pull off
b - bend
br - bendRelease
pb - preBend
pbr - preBendRelease
brb - bendReleaseBend
n/ - tremolo bar dip
n - tremolo bar dive
-/n - tremolo bar Release up
/n - tremolo bar inverted dip
/n - tremolo bar return
-n - tremolo bar Release down
S - shift slide
s - legato slide
/ -  slide into from below or out of upwards
 -  slide into from above or out of downwards
~ - vibrato
W - wide vibrato
tr - trill
TP - tremolo picking
T - tapping
S - slap
P - pop
< - fade in
^ - brush up
v - brush down
comments
print report bad tab
4 comments total. Showing first comments.
0 reply
richardsmith199 wrote on July 9 2007, 03:21 pm

S S S S S S S S S S S S S S S S S S S S S S S S S S S S S S S S
----------------------------------|----------------------------------|
----------------------------------|----------------------------------|
----------------------------------|----------------------------------|
----------------------------------|----------------------------------|
--4-4-4-4-4-4-4-4-4-4-4-4-4-4-4-4-|--2-2-2-2-2-2-2-2-2-2-2-2-2-2-2-2-|
--4-4-4-4-4-4-4-4-4-4-4-4-4-4-4-4-|--2-2-2-2-2-2-2-2-2-2-2-2-2-2-2-2-|
but its in standard?


but looks gd other then that lol erm... 4 stars?

0 reply
19371 wrote on July 12 2007, 01:13 pm

I like the way you've done this

0 reply
19371 wrote on July 29 2007, 04:49 pm

Actually if you get the guitar pro one then switch the guitars to standard tuning it will come out EXACTLY like this, try it out if you have guitar pro!!!

I want to post or [tab]
guest
You may want to rate the tab now too:
select rating
Please do not post tabs as comments. Select "correction" instead!