Oops, an error
Loading. Please wait.

Palahniuks Laughter Tab

ver3
ver3

Whole song

More versions @911Tabs.com
11,883 views 12 this week
11 commentsread comments
1 2 3 4 5
accurate
x 11
Autoscroll
+/-
esc
set tempo
stop
Contributor
WARNING: You are trying to view
                                    content from Ultimate-Guitar.com
                                    in an unauthorized application,
                                    which is prohibited.

                                    Please use an official Ultimate
                                    Guitar Tabs application for iPhone,
                                    iPad or Android to access legitimate
                                    chords, guitar, bass, and drum tabs
                                    from Ultimate-Guitar.com database.

                                    Type "ultimate guitar tabs" in Apple
                                    App Store's or Android Market's
                                    search to find the application.
-------------------------------------------------------------------------------
                             PALAHNIUK'S LAUGHTER - Fightstar
-------------------------------------------------------------------------------
Tabbed by: slyo
Email: sly at davidhurst.net

Gtr   I (B F# B E G# C#) - Charlie Simpson
Gtr  II (B F# B E G# C#) - Alex Westaway
Gtr III (B F# B E G# C#) - Backup guitar

[Intro]
    Gtr I (Distorted)                                                  1.          2.
C#||--------------------------------------|---------------------------|----------||----------||
G#||--------------------------------------|---------------------------|---------o||----------||
E ||--------------------------------------|---------------------------|----------||----------||
B ||-0--10-12-0-10-12-0-3-2-0-0-10-11-12--|-0--10-0-0-10-12-0-3-2-0-0-|-12-10----||-12-10\---||
F#||-0--10-12-0-10-12-0-3-2-0-0-10-11-12--|-0--10-0-0-10-12-0-3-2-0-0-|-12-10---o||-12-10\---||
B ||-0--10-12-0-10-12-0-3-2-0-0-10-11-12--|-0--10-0-0-10-12-0-3-2-0-0-|-12-10----||-12-10\---||
  |
  | Gtr II (Distorted)                                                1.         2.
C#||-------------------------------------|---------------------------|---------||----------||
G#||-------------------------------------|---------------------------|--------o||----------||
E ||-------------------------------------|---------------------------|---------||----------||
B ||-0--10-0-0-10-12-0-3-2-0-0-10-11-12--|-0--10-0-0-10-12-0-3-2-0-0-|-0-10----||-12-10\---||
F#||-0--10-0-0-10-12-0-3-2-0-0-10-11-12--|-0--10-0-0-10-12-0-3-2-0-0-|-0-10---o||-12-10\---||
B ||-0--10-0-0-10-12-0-3-2-0-0-10-11-12--|-0--10-0-0-10-12-0-3-2-0-0-|-0-10----||-12-10\---||

[Verse]
    Gtr I (Clean w. slight delay)
C#||-------|-------|--------|-10-----||
G#||-0-----|-0-----|-0------|-10-----||
E ||-0-----|-0-----|-0------|-12-----||
B ||-9-16x-|-9-16x-|-9------|-12-16x-||
F#||-7----/|/9-----|-10-16x-|-10-----||
B ||-------|-------|--------|-10-----||
  |
  | Gtr II (Clean)
C#||-------|-15--14-------|-12--14-----|-----------------17--17-||
G#||-------|---------12---|---------12-|-13--12--------15--15---||
E ||-------|--------------|------------|---------12-------------||
B ||-------|--------------|------------|------------------------||
F#||-------|--------------|------------|------------------------||
B ||-------|--------------|------------|------------------------||

[Verse]
    Gtr I (Clean w. slight delay)
C#||-------|-------|--------|--------||
G#||-0-----|-0-----|-0------|-0------||
E ||-0-----|-0-----|-0------|-0------||
B ||-9-16x-|-9-16x-|-9------|-9--16x-||
F#||-7----/|/9-----|-10-16x-|-10-----||
B ||-------|-------|--------|-10-----||
  | Gtr II (Clean w. delay)
C#||---17----|---17---17----|---17--17--17--17--19--19--19--19-|---15--15--17--17--19--19--19--19-||
G#||-15------|-15--15-------|-15--15--15--15--15--15--15--15---|-15--15--15--15--15--15--15--15---||
E ||---------|--------------|----------------------------------|----------------------------------||
B ||------8x-|-----------8x-|----------------------------------|----------------------------------||
F#||---------|--------------|----------------------------------|----------------------------------||
B ||---------|--------------|----------------------------------|----------------------------------||


[Pre-Chorus]
    Gtr I (Distorted)
C#||--10-10-10-10-10-10-10-10-10-10-10-10-10-10-10-10-12-12-12-12-12-12-12-12-10-10-10-10-10-10-10-10---||
G#||o---8--8--8--8--8--8--8--8--7--7--7--7--7--7--7--7--8--8--8--8--8--8--8--8--8--8--8--8--8--8--8--8-o||
E ||----------------------------------------------------------------------------------------------------||
B ||----------------------------------------------------------------------------------------------------||
F#||o--------------------------------------------------------------------------------------------------o||
B ||----------------------------------------------------------------------------------------------------||
  |
  | Gtr II (Clean)
C#||-----------------------------------------------------------------------------------||
G#||o-------------------------------------------------3-3-3-3-3-3-3-3-3-3-3-3-3-3-3-3-o||
E ||---0--0--0--0--0--0--0--0--0--0--0--0--0--0--0--0-0-0-0-0-0-0-0-0-0-0-0-0-0-0-0-0--||
B ||--12-12-12-12-12-12-12-12-12-12-12-12-12-12-12-12-2-2-2-2-2-2-2-2-2-2-2-2-2-2-2-2--||
F#||o-10-10-10-10-10-10-10-10--9--9--9--9--9--9--9--9-3-3-3-3-3-3-3-3-3-3-3-3-3-3-3-3-o||
B ||-----------------------------------------------------------------------------------||

[Chorus]
    Gtr I (Distorted)                                                  1.              2.
C#||--------------------------|-----------------------------|--------|---------------|-------------||
G#||o-------------------------|-----------------------------|--------|--------------o|-------------||
E ||--------------------------|-----------------------------|-12-----|-11-----12-----|-11----------||
B ||--2---2---2--2-2--2-2-2-2-|-0-0---0---0-0--0-0--0-0-0-0-|-10-----|-10-----10-----|-10-----10-\-||
F#||o-2---2---2--2-2--2-2-2-2-|-0-0---0---0-0--0-0--0-0-0-0-|-10-16x-|-10-8x--10-8x-o|-10-8x--10-\-||
B ||--2---2---2--2-2--2-2-2-2-|-0-0---0---0-0--0-0--0-0-0-0-|-10-----|-10-----10-----|-10-----10-\-||
  |
  | Gtr II (Distorted)               1.       2.
C#||--0-----|-------------|--------|---------|-------||
G#||o-0-----|-5-----------|--------|--------o|-------||
E ||--4-----|-x----11-----|-12-----|-12------|-------||
B ||--2-16x-|-2-8x--x-8x--|-10-----|-10------|-10-\--||
F#||o-2-----|-0-----9-----|-10-16x-|-10-16x-o|-10-\--||
B ||--2-----|-0-----0-----|-10-----|-10------|-10-\--||

[Pre-Verse]
    Gtr I (Distorted)                                                  1.          2.
C#||---------------------------------------|---------------------------|----------||----------||
G#||o--------------------------------------|---------------------------|---------o||----------||
E ||---------------------------------------|---------------------------|----------||----------||
B ||--0--10-12-0-10-12-0-3-2-0-0-10-11-12--|-0--10-0-0-10-12-0-3-2-0-0-|-12-10----||-12-10\---||
F#||o-0--10-12-0-10-12-0-3-2-0-0-10-11-12--|-0--10-0-0-10-12-0-3-2-0-0-|-12-10---o||-12-10\---||
B ||--0--10-12-0-10-12-0-3-2-0-0-10-11-12--|-0--10-0-0-10-12-0-3-2-0-0-|-12-10----||-12-10\---||
  |
  | Gtr II (Distorted)                                                1.         2.
C#||--------------------------------------|---------------------------|---------||----------||
G#||o-------------------------------------|---------------------------|--------o||----------||
E ||--------------------------------------|---------------------------|---------||----------||
B ||--0--10-0-0-10-12-0-3-2-0-0-10-11-12--|-0--10-0-0-10-12-0-3-2-0-0-|-0-10----||-12-10\---||
F#||o-0--10-0-0-10-12-0-3-2-0-0-10-11-12--|-0--10-0-0-10-12-0-3-2-0-0-|-0-10---o||-12-10\---||
B ||--0--10-0-0-10-12-0-3-2-0-0-10-11-12--|-0--10-0-0-10-12-0-3-2-0-0-|-0-10----||-12-10\---||

[Verse]
    Gtr I (Clean w. slight delay)
C#||-------|-------|--------|--------||
G#||-0-----|-0-----|-0------|-0------||
E ||-0-----|-0-----|-0------|-0------||
B ||-9-16x-|-9-16x-|-9------|-9--16x-||
F#||-7----/|/9-----|-10-16x-|-10-----||
B ||-------|-------|--------|-10-----||
  | Gtr II (Clean w. delay)
C#||---17----|---17---17----|---17--17--17--17--19--19--19--19-|---15--15--17--17--19--19--19--19-||
G#||-15------|-15--15-------|-15--15--15--15--15--15--15--15---|-15--15--15--15--15--15--15--15---||
E ||---------|--------------|----------------------------------|----------------------------------||
B ||------8x-|-----------8x-|----------------------------------|----------------------------------||
F#||---------|--------------|----------------------------------|----------------------------------||
B ||---------|--------------|----------------------------------|----------------------------------||

[Verse]
    Gtr I (Clean w. slight delay)
C#||-------|-------|--------|--------||
G#||-0-----|-0-----|-0------|-0------||
E ||-0-----|-0-----|-0------|-0------||
B ||-9-16x-|-9-16x-|-9------|-9--16x-||
F#||-7----/|/9-----|-10-16x-|-10-----||
B ||-------|-------|--------|-10-----||
  |
  | Gtr II (Clean w. delay)
C#||-----17-17-|---17--17-----|---17--17--17--17--19--19--19--19-|---15--15--17--17--19--19--19--19-||
G#||----15-15--|-15--15-------|-15--15--15--15--15--15--15--15---|-15--15--15--15--15--15--15--15---||
E ||-----------|--------------|----------------------------------|----------------------------------||
B ||-----------|-----------8x-|----------------------------------|----------------------------------||
F#||-----------|--------------|----------------------------------|----------------------------------||
B ||-----------|--------------|----------------------------------|----------------------------------||

[Pre-Chorus]
    Gtr I & II (Distorted)
C#||--10-10-10-10-10-----------10-10-10-10-10----------12-12-12-12-12-12-12-12-10-10-10-10-10-10-10-10--||
G#||o--7/8--8--8--8-------------7--7--7--7--7---------8--8--8--8--8--8--8--8--8--8--8--8--8--8--8--8---o||
E ||----------------------------------------------------------------------------------------------------||
B ||----------------------------------------------------------------------------------------------------||
F#||o--------------------------------------------------------------------------------------------------o||
B ||----------------------------------------------------------------------------------------------------||

[Chorus]
    Gtr I (Distorted)                                                  1.              2.
C#||--------------------------|-----------------------------|--------|---------------|-------------||
G#||o-------------------------|-----------------------------|--------|--------------o|-------------||
E ||--------------------------|-----------------------------|-12-----|-11-----12-----|-11----------||
B ||--2---2---2--2-2--2-2-2-2-|-0-0---0---0-0--0-0--0-0-0-0-|-10-----|-10-----10-----|-10-----10-\-||
F#||o-2---2---2--2-2--2-2-2-2-|-0-0---0---0-0--0-0--0-0-0-0-|-10-16x-|-10-8x--10-8x-o|-10-8x--10-\-||
B ||--2---2---2--2-2--2-2-2-2-|-0-0---0---0-0--0-0--0-0-0-0-|-10-----|-10-----10-----|-10-----10-\-||
  |
  | Gtr II (Distorted)               1.       2.
C#||--0-----|-------------|--------|---------|-------||
G#||o-0-----|-5-----------|--------|--------o|-------||
E ||--4-----|-x----11-----|-12-----|-12------|-------||
B ||--2-16x-|-2-8x--x-8x--|-10-----|-10------|-10-\--||
F#||o-2-----|-0-----9-----|-10-16x-|-10-16x-o|-10-\--||
B ||--2-----|-0-----0-----|-10-----|-10------|-10-\--||

[Bridge]
    Gtr I & II
C#||---------------------------------|--------|---------------||
G#||o--------------------------------|--------|--------------o||
E ||---------------------------------|-12-----|-11-----12-----||
B ||--0h2-2-2-2------2p0-0-0-0-------|-10-----|-10-----10-----||
F#||o-0h2-2-2-2------2p0-0-0-0-------|-10-16x-|-10-8x--10-8x-o||
B ||--0h2-2-2-2------2p0-0-0-0-------|-10-----|-10-----10-----||

[Bridge]
    Gtr I
C#||-10-10-10-10-10-10-10-10-10-10-10-10-10-10-10-10-12-12-12-12-12-12-12-12-10-10-10-10-10-10-10-10--|
G#||---8--8--8--8--8--8--8--8--7--7--7--7--7--7--7--7--8--8--8--8--8--8--8--8--8--8--8--8--8--8--8--8-|
E ||--------------------------------------------------------------------------------------------------|
B ||--------------------------------------------------------------------------------------------------|
F#||--------------------------------------------------------------------------------------------------|
B ||--------------------------------------------------------------------------------------------------|

[Solo]
    Gtr I (Distorted)
C#||--10-10-10-10-10-10-10-10-10-10-10-10-10-10-10-10-12-12-12-12-12-12-12-12-10-10-10-10-10-10-10-10--||
G#||o--8--8--8--8--8--8--8--8--7--7--7--7--7--7--7--7--8--8--8--8--8--8--8--8--8--8--8--8--8--8--8--8-o||
E ||---------------------------------------------------------------------------------------------------||
B ||---------------------------------------------------------------------------------------------------||
F#||o-------------------------------------------------------------------------------------------------o||
B ||---------------------------------------------------------------------------------------------------||
  |
  | Gtr II (Distorted)
C#||-----------------------------------------------------------------------------------||
G#||o-------------------------------------------------3-3-3-3-3-3-3-3-3-3-3-3-3-3-3-3-o||
E ||---0--0--0--0--0--0--0--0--0--0--0--0--0--0--0--0-0-0-0-0-0-0-0-0-0-0-0-0-0-0-0-0--||
B ||--12-12-12-12-12-12-12-12-12-12-12-12-12-12-12-12-------2-------2-2-2-2-2-2-2-2-2--||
F#||o-10-10-10-10-10-10-10-10--9--9--9--9--9--9--9--9-------3-------3-3-3-3-3-3-3-3-3-o||
B ||-----------------------------------------------------------------------------------||
  |
  | Gtr III (Distorted w. reverb)
C#||-15~-14~-15~-17~-|-15~-14~-19~-17~-|
G#||-----------------|-----------------|
E ||-----------------|-----------------|
B ||-----------------|-----------------|
F#||-----------------|-----------------|
B ||-----------------|-----------------|

[Solo]
    Gtr I (Distorted)
C#||-10-10-10-10-10-10-10-10-10-10-10-10-10-10-10-10-12-12-12-12-12-12-12-12-10-10-10-10-10-10-10-10-----||
G#||--8--8--8--8--8--8--8--8--7--7--7--7--7--7--7--7--8--8--8--8--8--8--8--8--8--8--8--8--8--8--8--8-----||
E ||-----------------------------------------------------------------------------------------------------||
B ||-------------------------------------------------------------------------------------------------10\-||
F#||-------------------------------------------------------------------------------------------------10\-||
B ||-------------------------------------------------------------------------------------------------10\-||
  |
  | Gtr II (Distorted)
C#||-------------------------------------------------------------------------------------||
G#||-------------------------------------------------3-3-3-3-3-3-3-3-3-3-3-3-3-3-3-3-----||
E ||--0--0--0--0--0--0--0--0--0--0--0--0--0--0--0--0-0-0-0-0-0-0-0-0-0-0-0-0-0-0-0-0-----||
B ||-12-12-12-12-12-12-12-12-12-12-12-12-12-12-12-12-------2-------2-2-2-2-2-2-2-2-2-10\-||
F#||-10-10-10-10-10-10-10-10--9--9--9--9--9--9--9--9-------3-------3-3-3-3-3-3-3-3-3-10\-||
B ||---------------------------------------------------------------------------------10\-||
  |
  | Gtr III
C#|-22~-14~\10~/12~-||
G#|-----------------||
E |-----------------||
B |-----------------||
F#|-----------------||
B |-----------------||


[Extro]
    Gtr I (Distorted)                                                  1.          2.
C#||---------------------------------------|---------------------------|----------||------------||
G#||o--------------------------------------|---------------------------|---------o||------------||
E ||---------------------------------------|---------------------------|----------||------------||
B ||--0--10-12-0-10-12-0-3-2-0-0-10-11-12--|-0--10-0-0-10-12-0-3-2-0-0-|-12-10----||-12-10\-2~--||
F#||o-0--10-12-0-10-12-0-3-2-0-0-10-11-12--|-0--10-0-0-10-12-0-3-2-0-0-|-12-10---o||-12-10\-2~--||
B ||--0--10-12-0-10-12-0-3-2-0-0-10-11-12--|-0--10-0-0-10-12-0-3-2-0-0-|-12-10----||-12-10\-2~--||
  |
  | Gtr II (Distorted)                                                1.         2.
C#||--------------------------------------|---------------------------|---------||------------||
G#||o-------------------------------------|---------------------------|--------o||------------||
E ||--------------------------------------|---------------------------|---------||------------||
B ||--0--10-0-0-10-12-0-3-2-0-0-10-11-12--|-0--10-0-0-10-12-0-3-2-0-0-|-0-10----||-12-10\-2~--||
F#||o-0--10-0-0-10-12-0-3-2-0-0-10-11-12--|-0--10-0-0-10-12-0-3-2-0-0-|-0-10---o||-12-10\-2~--||
B ||--0--10-0-0-10-12-0-3-2-0-0-10-11-12--|-0--10-0-0-10-12-0-3-2-0-0-|-0-10----||-12-10\-2~--||


/ = slide up
\ = slide down
x = muted note
~ = let ring
p = pull-off
h = hammer-on

===============================================================================
comments
print report bad tab
11 comments total. Showing first comments.
0 reply
schecter006 wrote on March 7 2006, 10:13 am

i get lost of where i am on this tab

0 reply
slyo wrote on March 11 2006, 10:37 am

i shortened it now

+1 reply
schecter006 wrote on April 5 2006, 07:20 am

seems pretty spot on to me.

I want to post or [tab]
guest
You may want to rate the tab now too:
select rating
Please do not post tabs as comments. Select "correction" instead!