Oops, an error
Loading. Please wait.

They Liked You Better When You Were Dead Tab

698 views 1 this week
no commentswrite comment
1 2 3 4 5
worth learning
x 1
add to favorites launch autoscroll
font size
0
reset
Autoscroll
+/-
esc
set tempo
stop
Contributor
WARNING: You are trying to view
                                    content from Ultimate-Guitar.com
                                    in an unauthorized application,
                                    which is prohibited.

                                    Please use an official Ultimate
                                    Guitar Tabs application for iPhone,
                                    iPad or Android to access legitimate
                                    chords, guitar, bass, and drum tabs
                                    from Ultimate-Guitar.com database.

                                    Type "ultimate guitar tabs" in Apple
                                    App Store's or Android Market's
                                    search to find the application.
Fightstar-"They Liked You Better When You Were Dead" EP

track listing;

1.Palahniuk's Laughter
2.Speak Up
3.Mono
4.Lost Like Tears In Rain
5.Amethyst
6.(hidden track)Hazy Eyes

note: all of the tabs submitted here are
my own personal interpretations or are
only slightly based on others, non have
been copied and pasted except for track 1 and 5
which i did myself earlier.

1.Palahniuk's laughter

tuning: dropped-B

/-slide up
\-slide down
t-tremolo pick

intro
|-------------------------------------------------------------------------|
|-------------------------------------------------------------------------|
|-------------------------------------------------------------------------|
|-0---10-12---10-12---3-2-0---10-11-12---0---10-12---10-12---3-2-0---0-10-|
|-0---10-12---10-12---3-2-0---10-11-12---0---10-12---10-12---3-2-0---0-10-|
|-0---10-12---10-12---3-2-0---10-11-12---0---10-12---10-12---3-2-0---0-10-|

|--------------------------------------------------------------------------|
|--------------------------------------------------------------------------|
|--------------------------------------------------------------------------|
|-0---10-12---10-12---3-2-0---10-11-12---0---10-12---10-12---3-2-0---0-10\-|
|-0---10-12---10-12---3-2-0---10-11-12---0---10-12---10-12---3-2-0---0-10\-|
|-0---10-12---10-12---3-2-0---10-11-12---0---10-12---10-12---3-2-0---0-10\-|

verse-guitar 1
|------------------------3----------------------3--------|
|-0-------0-------0------3-------0-------0------3--------|
|-0-------0-------0------5-------0-------0------5--------|
|-9X16----9X16----9X16---5-------9X16----9X16---5X32-----|
|-7-------9------10------3X16----7-------9------3--------|
|--------------------------------------------------------|

guitar 2
i'm not in your house but i'm not in your head  and your not even listening
|---------------15-14--------------------12-14----------------------------|
|--------------------12-----------------------12------------------13-12---|
|----------------------------------------------------------------------12-|
|-------------------------------------------------------------------------|
|-------------------------------------------------------------------------|
|-------------------------------------------------------------------------|

          it's so hard      to know       when your not      scared
|---17--17--17--17--17--17--17--17--17--17--17--17--17--17--17--17-|
|-15--15--15--15--15--15--15--15--15--15--15--15--15--15--15--15---|
|------------------------------------------------------------------|
|------------------------------------------------------------------|
|------------------------------------------------------------------|
|------------------------------------------------------------------|

|---17--17--17--19--19--19--19--19--15--15--17--19--19--19--19--19-|
|-15--15--15--15--15--15--15--15--15--15--15--15--15--15--15--15---|
|------------------------------------------------------------------|
|------------------------------------------------------------------|
|------------------------------------------------------------------|
|------------------------------------------------------------------|

pre-chorus
  please....              don't....
|-10-10-10-10-10-10-10-10-10-10-10-10-10-10-10-10--|
|---8--8--8--8--8--8--8--8--7--7--7--7--7--7--7--7-|
|--------------------------------------------------|
|--------------------------------------------------|
|--------------------------------------------------|
|--------------------------------------------------|
  help....                me....
|-12-12-12-12-12-12-12-12-10-10-10-10-10-10-10-10--|
|---8--8--8--8--8--8--8--8--8--8--8--8--8--8--8--8-|
|--------------------------------------------------|
|--------------------------------------------------|
|--------------------------------------------------|
|--------------------------------------------------|

  please....              don't....
|-10-10-10-10-10-10-10-10-10-10-10-10-10-10-10-10--|
|---8--8--8--8--8--8--8--8--7--7--7--7--7--7--7--7-|
|--------------------------------------------------|
|--------------------------------------------------|
|--------------------------------------------------|
|--------------------------------------------------|
  hate....                me....         stop puttin me
|-12-12-12-12-12-12-12-12-10-10-10-10-10-10-10-10--|
|---8--8--8--8--8--8--8--8--8--8--8--8--8--8--8--8-|
|--------------------------------------------------|
|--------------------------------------------------|
|--------------------------------------------------|
|--------------------------------------------------|

chorus
  down          cause i won't  ever.....    understand.....
|-----------------------------------------------------------------|
|-----------------------------------------------------------------|
|-----------------------------------------------------------------|
|-2-2-2-2-2-2-2-2-2-2-2-2-2-2-2-2-0-0-0-0-0-0-0-0-0-0-0-0-0-0-0-0-|
|-2-2-2-2-2-2-2-2-2-2-2-2-2-2-2-2-0-0-0-0-0-0-0-0-0-0-0-0-0-0-0-0-|
|-2-2-2-2-2-2-2-2-2-2-2-2-2-2-2-2-0-0-0-0-0-0-0-0-0-0-0-0-0-0-0-0-|

stop panicking stop panicking
|-----------------------|
|-----------------------|
|-12------11-----12-----|
|-10------10-----10---0-|
|-10------10-----10---0-|
|-10X16---10X8---10X7-0-|

                i see it in your eyes         i see it in your mind
|-----------------------------------------------------------------|
|-----------------------------------------------------------------|
|-----------------------------------------------------------------|
|-2-2-2-2-2-2-2-2-2-2-2-2-2-2-2-2-0-0-0-0-0-0-0-0-0-0-0-0-0-0-0-0-|
|-2-2-2-2-2-2-2-2-2-2-2-2-2-2-2-2-0-0-0-0-0-0-0-0-0-0-0-0-0-0-0-0-|
|-2-2-2-2-2-2-2-2-2-2-2-2-2-2-2-2-0-0-0-0-0-0-0-0-0-0-0-0-0-0-0-0-|

stop panicking stop panicking
|-------------------|
|-------------------|
|-12------11--------|
|-10------10-----10-|
|-10------10-----10-|
|-10X16---10X8---10-|

|-------------------------------------------------------------------------|
|-------------------------------------------------------------------------|
|-------------------------------------------------------------------------|
|-0---10-12---10-12---3-2-0---10-11-12---0---10-12---10-12---3-2-0---0-10-|
|-0---10-12---10-12---3-2-0---10-11-12---0---10-12---10-12---3-2-0---0-10-|
|-0---10-12---10-12---3-2-0---10-11-12---0---10-12---10-12---3-2-0---0-10-|

|--------------------------------------------------------------------------|
|--------------------------------------------------------------------------|
|--------------------------------------------------------------------------|
|-0---10-12---10-12---3-2-0---10-11-12---0---10-12---10-12---3-2-0---0-10\-|
|-0---10-12---10-12---3-2-0---10-11-12---0---10-12---10-12---3-2-0---0-10\-|
|-0---10-12---10-12---3-2-0---10-11-12---0---10-12---10-12---3-2-0---0-10\-|

verse-guitar 1
|------------------------3----------------------3--------|
|-0-------0-------0------3-------0-------0------3--------|
|-0-------0-------0------5-------0-------0------5--------|
|-9X16----9X16----9X16---5-------9X16----9X16---5X32-----|
|-7-------9------10------3X16----7-------9------3--------|
|--------------------------------------------------------|

guitar-2
            i'm trying not to speak cause you can't here my
|-------------------------------------------------|
|-15-15-15-15-15-15-15-15-15-15-15-15-15-15-15-15-|
|-------------------------------------------------|
|-------------------------------------------------|
|-------------------------------------------------|
|-------------------------------------------------|
 voice           and nothing seems familiar here
|---17--17--17--19--19--19--19--19--15--15--17--19--19--19--19--19-|
|-15--15--15--15--15--15--15--15--15--15--15--15--15--15--15--15---|
|------------------------------------------------------------------|
|------------------------------------------------------------------|
|------------------------------------------------------------------|
|------------------------------------------------------------------|
       on the other side           of this town
|------------------------------------17--17--17--17--17-|
|----------------15-15-15-15-15-15-15--15--15--15--15---|
|------(start at 6th drum beat)-------------------------|
|-------------------------------------------------------|
|-------------------------------------------------------|
|-------------------------------------------------------|

|---17--17--17--19--19--19--19--19--15--15--17--19--19--19--19--19-|
|-15--15--15--15--15--15--15--15--15--15--15--15--15--15--15--15---|
|------------------------------------------------------------------|
|------------------------------------------------------------------|
|------------------------------------------------------------------|
|------------------------------------------------------------------|

pre-chorus
  please....          don't....
|-10-10-10-10-10------10-10-10-10-10-|
|-8--8--8--8--8-------7--7--7--7--7--|
|------------------------------------|
|------------------------------------|
|------------------------------------|
|------------------------------------|
  help....                me....
|--12-12-12-12-12-12-12-12-10-10-10-10-10-10-10-10-|
|-8--8--8--8--8--8--8--8--8--8--8--8--8--8--8--8---|
|--------------------------------------------------|
|--------------------------------------------------|
|--------------------------------------------------|
|--------------------------------------------------|

  please....          don't....
|-10-10-10-10-10------10-10-10-10-10-|
|-8--8--8--8--8-------7--7--7--7--7--|
|------------------------------------|
|------------------------------------|
|------------------------------------|
|------------------------------------|
  help....                me....      stop puttin me
|--12-12-12-12-12-12-12-12-10-10-10-10-10-10-10-10-|
|-8--8--8--8--8--8--8--8--8--8--8--8--8--8--8--8---|
|--------------------------------------------------|
|--------------------------------------------------|
|--------------------------------------------------|
|--------------------------------------------------|

chorus
  down          cause i won't  ever.....    understand.....
|-----------------------------------------------------------------|
|-----------------------------------------------------------------|
|-----------------------------------------------------------------|
|-2-2-2-2-2-2-2-2-2-2-2-2-2-2-2-2-0-0-0-0-0-0-0-0-0-0-0-0-0-0-0-0-|
|-2-2-2-2-2-2-2-2-2-2-2-2-2-2-2-2-0-0-0-0-0-0-0-0-0-0-0-0-0-0-0-0-|
|-2-2-2-2-2-2-2-2-2-2-2-2-2-2-2-2-0-0-0-0-0-0-0-0-0-0-0-0-0-0-0-0-|

stop panicking stop panicking
|---------------------------|
|---------------------------|
|-12-----11-----12---11-----|
|-10-----10-----10---10---0-|
|-10-----10-----10---10---0-|
|-10X8---10X8---10X8-10X7-0-|

                i see it in your eyes         i see it in your mind
|-----------------------------------------------------------------|
|-----------------------------------------------------------------|
|-----------------------------------------------------------------|
|-2-2-2-2-2-2-2-2-2-2-2-2-2-2-2-2-0-0-0-0-0-0-0-0-0-0-0-0-0-0-0-0-|
|-2-2-2-2-2-2-2-2-2-2-2-2-2-2-2-2-0-0-0-0-0-0-0-0-0-0-0-0-0-0-0-0-|
|-2-2-2-2-2-2-2-2-2-2-2-2-2-2-2-2-0-0-0-0-0-0-0-0-0-0-0-0-0-0-0-0-|

stop panicking stop panicking
|---------------------------|
|---------------------------|
|-12-----11-----12---11-----|
|-10-----10-----10---10---0-|
|-10-----10-----10---10---0-|
|-10X8---10X8---10X8-10X7-0-|

          hold..............on
|---------------------------------------------|
|---------------------------------------------|
|---------------------------12-----11----12---|
|-2-2-2-2-2----2-0-0-0-0----10-----10----10---|
|-2-2-2-2-2----2-0-0-0-0----10-----10----10---|
|-2-2-2-2-2----2-0-0-0-0----10X16--10X9--10X7-|

         hold..............on
|---------------------------------------------|
|---------------------------------------------|
|---------------------------12-----11----12---|
|-2-2-2-2-2----2-0-0-0-0----10-----12----10---|
|-2-2-2-2-2----2-0-0-0-0----10-----10----10---|
|-2-2-2-2-2----2-0-0-0-0----10X16--10X6--10X9-|

         if i see this all again   i'll try to take my
|-10-10-10-10-10-10-10-10-10-10-10-10-10-10-10-10--|
|---8--8--8--8--8--8--8--8--7--7--7--7--7--7--7--7-|
|--------------------------------------------------|
|--------------------------------------------------|
|--------------------------------------------------|
|--------------------------------------------------|
  time       i wonder how fast you could try
|-12-12-12-12-12-12-12-12-10-10-10-10-10-10-10-10--|
|---8--8--8--8--8--8--8--8--8--8--8--8--8--8--8--8-|
|--------------------------------------------------|
|--------------------------------------------------|
|--------------------------------------------------|
|--------------------------------------------------|

solo
guitar-1
  t    t    t    t    t    t    t    t    t    t    t    t
|-15---14---15---17---15---14---19---17---22---14---10---12-------|
|-----------------------------------------------------------------|
|-----------------------------------------------------------------|
|-------------------------------------------------------------10\-|
|-------------------------------------------------------------10\-|
|-------------------------------------------------------------10\-|

guitar-2 (not what is done in the recording but slightly along the same
lines)
|----------------------------------------------------------------------|
|----------------------------------------------------------------------|
|----------------------------------------------------------------------|
|-5------0------10------5------0------10------5------0------10-----10\-|
|-5------0------10------5------0------10------5------0------10-----10\-|
|-5X16---0X16---10X32---5X16---0X16---10X32---5X16---0X16---10X28--10\-|

|-------------------------------------------------------------------------|
|-------------------------------------------------------------------------|
|-------------------------------------------------------------------------|
|-0---10-12---10-12---3-2-0---10-11-12---0---10-12---10-12---3-2-0---0-10-|
|-0---10-12---10-12---3-2-0---10-11-12---0---10-12---10-12---3-2-0---0-10-|
|-0---10-12---10-12---3-2-0---10-11-12---0---10-12---10-12---3-2-0---0-10-|

|--------------------------------------------------------------------------|
|--------------------------------------------------------------------------|
|--------------------------------------------------------------------------|
|-0---10-12---10-12---3-2-0---10-11-12---0---10-12---10-12---3-2-0---0-10\-|
|-0---10-12---10-12---3-2-0---10-11-12---0---10-12---10-12---3-2-0---0-10\-|
|-0---10-12---10-12---3-2-0---10-11-12---0---10-12---10-12---3-2-0---0-10\-|


|---
|---
|---
|-2-
|-2- hold and let fade out...
|-2-

end.


2.Speak up

tuning: dropped-D

x-mute string
b-bend

intro-clean
|-----------------------------------|
|-----------------------------------|
|-----------------------------------|
|-----------------------------------|
|--------------------11-------5-5---| repeat 2 more times
|-0---12-0-0-11-10-0----0-0-3-3-3-0-|

|-------------------------|
|-------------------------|
|-------------------------|
|-------------------------|
|--------------------11---|
|-0---12-0-0-11-10-0----0-|

distortion
|-----
|-----
|-----
|-x-x-
|-x-x-
|-x-x-

|-------------------------------------------------|
|-------------------------------------------------|
|-------------------------------------------------|
|-0---0-------0-0-0-----------0---0-------0-0-0---|
|-0---0-------0-0-x-----------0---0-------0-0-x---|
|-0---0-------0-0-11b---------0---0-------0-0-11--|b

guitar 1
|------|
|------|
|------|
|-5----|
|-5----|
|-5x32-

guitar 2
|-----------------------------------------------------------------|
|-----------------------------------------------------------------|
|---------------------------------6/7-7-7-7-7-7/9-9-9-9-9-9-9-9-9-|
|-7-7-7-7-7-7-7/9-9-9-9-9-9-9-9-9-x-x-x-x-x-x-x-x-x-x-x-x-x-x-x-x-|
|-x-x-x-x-x-x-x-x-x-x-x-x-x-x-x-x-4/5-5-5-5-5-5/7-7-7-7-7-7-7-7-7-|
|-7-7-7-7-7-7-7/9-9-9-9-9-9-9-9-9---------------------------------|

verse
|-------------------------------------------------|
|-------------------------------------------------|
|-------------------------------------------------|
|-0---0-------0-0-0-----------0---0-------0-0-0---|
|-0---0-------0-0-x-----------0---0-------0-0-x---|
|-0---0-------0-0-11b---------0---0-------0-0-11--|b

|-------------------------------------------------|
|-------------------------------------------------|
|-------------------------------------------------|
|-0---0-------0-0-0-----------0---0-------0-0-0---|
|-0---0-------0-0-x-----------0---0-------0-0-x---|
|-0---0-------0-0-11b---------0---0-------0-0-11--|b

guitar 1
|------|
|------|
|------|
|-5----|
|-5----|
|-5x32-

guitar 2
|-----------------------------------------------------------------|
|-----------------------------------------------------------------|
|---------------------------------6/7-7-7-7-7-7/9-9-9-9-9-9-9-9-9-|
|-7-7-7-7-7-7-7/9-9-9-9-9-9-9-9-9-x-x-x-x-x-x-x-x-x-x-x-x-x-x-x-x-|
|-x-x-x-x-x-x-x-x-x-x-x-x-x-x-x-x-4/5-5-5-5-5-5/7-7-7-7-7-7-7-7-7-|
|-7-7-7-7-7-7-7/9-9-9-9-9-9-9-9-9---------------------------------|

|-------------------------------------------------|
|-------------------------------------------------|
|-------------------------------------------------|
|-0---0-------0-0-0-----------0---0-------0-0-0---|
|-0---0-------0-0-x-----------0---0-------0-0-x---|
|-0---0-------0-0-11b---------0---0-------0-0-11--|b

|-------------------------------------------------|
|-------------------------------------------------|
|-------------------------------------------------|
|-0---0-------0-0-0-----------0---0-------0-0-0---|
|-0---0-------0-0-x-----------0---0-------0-0-x---|
|-0---0-------0-0-11b---------0---0-------0-0-11--|b

guitar 1
|------|
|------|
|------|
|-5----|
|-5----|
|-5x32-

guitar 2
|-----------------------------------------------------------------|
|-----------------------------------------------------------------|
|---------------------------------6/7-7-7-7-7-7/9-9-9-9-9-9-9-9-9-|
|-7-7-7-7-7-7-7/9-9-9-9-9-9-9-9-9-x-x-x-x-x-x-x-x-x-x-x-x-x-x-x-x-|
|-x-x-x-x-x-x-x-x-x-x-x-x-x-x-x-x-4/5-5-5-5-5-5/7-7-7-7-7-7-7-7-7-|
|-7-7-7-7-7-7-7/9-9-9-9-9-9-9-9-9---------------------------------|

pre-chorus
|-----------------------------------------------------------------|
|-----------------------------------------------------------------|
|----------------------------------11111111111111---7-7-7-7-7-7-7-|
|-2-------2---2-2---2-2-2-2-2-2-2---9-9-9-9-9-9-9---5-5-5-5-5-5-5-|
|-2-------2---2-2---2-2-2-2-2-2-2---9-9-9-9-9-9-9---5-5-5-5-5-5-5-|
|-2-------2---2-2---2-2-2-2-2-2-2---9-9-9-9-9-9-9---5-5-5-5-5-5-5-|

|-----------------------------------------------------------------|
|-----------------------------------------------------------------|
|----------------------------------11111111111111---7-7-7-7-7-7-7-|
|-2-------2---2-2---2-2-2-2-2-2-2---9-9-9-9-9-9-9---5-5-5-5-5-5-5-|
|-2-------2---2-2---2-2-2-2-2-2-2---9-9-9-9-9-9-9---5-5-5-5-5-5-5-|
|-2-------2---2-2---2-2-2-2-2-2-2---9-9-9-9-9-9-9---5-5-5-5-5-5-5-|

|-7-7-9-91010-9-9-7-7-9-91010-9-9-|
|-7-7-7-7-7-7-7-7-7-7-7-7-7-7-7-7-|
|---------------------------------|
|---------------------------------|
|---------------------------------|
|---------------------------------|

chorus
|-------------------------------------------------------------------------|
|-------------------------------------------------------------------------|
|1111111111111111-14-14-14-14-14-14-14-14-7-7-7-7-7-7-7-7-7-7-7-7-7-7-7-7-|
|-9-9-9-9-9-9-9-9-12-12-12-12-12-12-12-12-5-5-5-5-5-5-5-5-5-5-5-5-5-5-5-5-|
|-9-9-9-9-9-9-9-9-12-12-12-12-12-12-12-12-5-5-5-5-5-5-5-5-5-5-5-5-5-5-5-5-|
|-9-9-9-9-9-9-9-9-12-12-12-12-12-12-12-12-5-5-5-5-5-5-5-5-5-5-5-5-5-5-5-5-|

clean
|-------0-----------2-----------------------------|
|---0-----------0---------------3------------3----|
|-2---2-------2---2---------2------2------2-----2-|
|-------------------------5---5---------5---5-----|
|-------------------------------------------------|
|-------------------------------------------------|

|-------------------------------------------------------------------------|
|-------------------------------------------------------------------------|
|1111111111111111-14-14-14-14-14-14-14-14-7-7-7-7-7-7-7-7-7-7-7-7-7-7-7-7-|
|-9-9-9-9-9-9-9-9-12-12-12-12-12-12-12-12-5-5-5-5-5-5-5-5-5-5-5-5-5-5-5-5-|
|-9-9-9-9-9-9-9-9-12-12-12-12-12-12-12-12-5-5-5-5-5-5-5-5-5-5-5-5-5-5-5-5-|
|-9-9-9-9-9-9-9-9-12-12-12-12-12-12-12-12-5-5-5-5-5-5-5-5-5-5-5-5-5-5-5-5-|

guitar 1
|--------------------------------------|
|--------------------------------------|
|--------------------------------------|
|-9---9---9---9---12---12---12---12-5--|
|-9---9---9---9---12---12---12---12-5--|
|-9---9---9---9---12---12---12---12-5--|

guitar 2
|--------------------------------------|
|--------------------------------------|
|-7---7---7---7---6----6----6----6--4--|
|-x---x---x---x---x----x----x----x--x--|
|-5---5---5---5---4----4----4----4--2--|
|--------------------------------------|

|-----------------------|
|-----------------------|
|-7-7-7-6-6-6-----------|
|-7-7-7-6-6-6-2-----x-x-|
|-5-5-5-4-4-4-2-----x-x-|
|-------------2-----x-x-|

|-------------------------------------------------|
|-------------------------------------------------|
|-------------------------------------------------|
|-0---0-------0-0-0-----------0---0-------0-0-0---|
|-0---0-------0-0-x-----------0---0-------0-0-x---|
|-0---0-------0-0-11b---------0---0-------0-0-11--|b

|-------------------------------------------------|
|-------------------------------------------------|
|-------------------------------------------------|
|-0---0-------0-0-0-----------0---0-------0-0-0---|
|-0---0-------0-0-x-----------0---0-------0-0-x---|
|-0---0-------0-0-11b---------0---0-------0-0-11--|b

guitar 1
|------|
|------|
|------|
|-5----|
|-5----|
|-5x32-

guitar 2
|-----------------------------------------------------------------|
|-----------------------------------------------------------------|
|---------------------------------6/7-7-7-7-7-7/9-9-9-9-9-9-9-9-9-|
|-7-7-7-7-7-7-7/9-9-9-9-9-9-9-9-9-x-x-x-x-x-x-x-x-x-x-x-x-x-x-x-x-|
|-x-x-x-x-x-x-x-x-x-x-x-x-x-x-x-x-4/5-5-5-5-5-5/7-7-7-7-7-7-7-7-7-|
|-7-7-7-7-7-7-7/9-9-9-9-9-9-9-9-9---------------------------------|

pre-chorus
|-----------------------------------------------------------------|
|-----------------------------------------------------------------|
|----------------------------------11111111111111---7-7-7-7-7-7-7-|
|-2-------2---2-2---2-2-2-2-2-2-2---9-9-9-9-9-9-9---5-5-5-5-5-5-5-|
|-2-------2---2-2---2-2-2-2-2-2-2---9-9-9-9-9-9-9---5-5-5-5-5-5-5-|
|-2-------2---2-2---2-2-2-2-2-2-2---9-9-9-9-9-9-9---5-5-5-5-5-5-5-|

|-----------------------------------------------------------------|
|-----------------------------------------------------------------|
|----------------------------------11111111111111---7-7-7-7-7-7-7-|
|-2-------2---2-2---2-2-2-2-2-2-2---9-9-9-9-9-9-9---5-5-5-5-5-5-5-|
|-2-------2---2-2---2-2-2-2-2-2-2---9-9-9-9-9-9-9---5-5-5-5-5-5-5-|
|-2-------2---2-2---2-2-2-2-2-2-2---9-9-9-9-9-9-9---5-5-5-5-5-5-5-|

|-7---9--10---9---7---9--10---9-|
|-7---7---7---7---7---7---7---7-|
|-------------------------------|
|-------------------------------|
|-------------------------------|
|-------------------------------|

repeat chorus 1 more time

|---------------------------------------------|
|---------------------------------------------|
|---------------------------------------------|
|---------------------------------------------|
|--------------------11-------5-5-- repeat 10-| more times
|-0---12-0-0-11-10-0----0-0-3-3-3-0-----------|

|-----------------------------|
|-----------------------------|
|-----------------------------|
|-------------------------x-x-|
|--------------------11---x-x-|
|-0---12-0-0-11-10-0----0-x-x-|

outro
|--------------------------------------|
|--------------------------------------|
|------------------------13------------|
|-0---0---12-0-0-11-10-0--x--0-0-3-3-3-|
|-0---0---12-0-0-11-10-0-11--0-0-3-3-3-|
|-0---0---12-0-0-11-10-0-----0-0-3-3-3-|

|--------------------------------------|
|--------------------------------------|
|------------------------13------------|
|-0---0---12-0-0-11-10-0--x--0-0-3-3-3-|
|-0---0---12-0-0-11-10-0-11--0-0-3-3-3-|
|-0---0---12-0-0-11-10-0-----0-0-3-3-3-|

|--------------------------------------|
|--------------------------------------|
|------------------------13------------|
|-0---0---12-0-0-11-10-0--x--0-0-3-3-3-|
|-0---0---12-0-0-11-10-0-11--0-0-3-3-3-|
|-0---0---12-0-0-11-10-0-----0-0-3-3-3-|

|----------------------------|
|----------------------------|
|------------------------13--|
|-0---0---12-0-0-11-10-0--x--|
|-0---0---12-0-0-11-10-0-11--|
|-0---0---12-0-0-11-10-0-----|


|--------------------------------------|
|--------------------------------------|
|------------------------13------------| repeat 3 more times
|-0---0---12-0-0-11-10-0--x--0-0-3-3-3-|
|-0---0---12-0-0-11-10-0-11--0-0-3-3-3-|
|-0---0---12-0-0-11-10-0-----0-0-3-3-3-|

|---
|---
|---
|-0-
|-0-
|-0-

end

3.Mono

tuning: dropped-B

intro/verse
|---10-----8-----7-----7-----7-------10-----8-----7-----7-----7-----|
|------0-----0-----0-----0-----0--------0-----0-----0-----0-----0---|
|-0------0-----0-----0-----0-----0-0------0-----0-----0-----0-----0-|
|-------------------------------------------------------------------|
|-------------------------------------------------------------------|
|-------------------------------------------------------------------|

|---------------------------------------------------------------|
|---8-----7-----8-----8-----8-------8-----7-----8-----8-----7---|
|-----0-----0-----0-----0-----0-------0-----0-----0-----0-----0-|
|---------------------------------------------------------0-----|
|-7-----7-----7-----7-----7-----7-7-----7-----7-----7-----------|
|---------------------------------------------------------------|

|-----------------------------------------------------------------|
|--5------5-----5-----5-----5-----5-----5-----5-----5-----5-----0-|
|----0------0-----0-----0-----0-----0-----0-----0-----0-----0-----|
|-----------------------------------------------------------------|
|-3-----3-----3-----3-----3-----3-----3-----3-----3-----3-----3---|
|-----------------------------------------------------------------|

repeat 2 more times

chorus
|---7-----7-----7-----7-----7-----5-----5-----7-----7-----7-----7-|
|-----0-----0-----0-----0-----0-----0-----0-----0-----0-----0-----|
|-0-----0-----0-----0-----0-----0-----0-----0-----0-----0-----0---|
|-----------------------------------------------------------------|
|-----------------------------------------------------------------|
|-----------------------------------------------------------------|

|----------------------------------------------------------------------|
|---10-----10-----10-----10-----10-----8-----8-----8-----7-----7-----7-|
|------9------9------9------9------9-----9-----9-----9-----9-----9-----|
|-0------0------0------0------0------0-----0-----0-----0-----0-----0---|
|----------------------------------------------------------------------|
|----------------------------------------------------------------------|

|-----------------------------------------------------------------|
|---8-----8-----7-----7-----7-------8-----8-----7-----7-----7-----|
|-----0-----0-----0-----0-----0-------0-----0-----0-----0-----0---|
|---------------------------------------------------------0-----0-|
|-7-----7-----7-----7-----7-----7-7-----7-----7-----7-------7-----|
|-----------------------------------------------------------------|

|------------------------------------------------------------------|
|---12----12----12--12----12----12--12----12----12--12----12----12-|
|-----12----12----12--12----12----12--12----12----12--12----12-----|
|-10----10----10--------10----10--------10----10--------10----10---|
|------------------------------------------------------------------|
|------------------------------------------------------------------|

|---7-----7-----7-----7-----7-----5-----5-----7-----7-----7-----7-|
|-----0-----0-----0-----0-----0-----0-----0-----0-----0-----0-----|
|-0-----0-----0-----0-----0-----0-----0-----0-----0-----0-----0---|
|-----------------------------------------------------------------|
|-----------------------------------------------------------------|
|-----------------------------------------------------------------|

|----------------------------------------------------------------------|
|---10-----10-----10-----10-----10-----8-----8-----8-----7-----7-----7-|
|------9------9------9------9------9-----9-----9-----9-----9-----9-----|
|-0------0------0------0------0------0-----0-----0-----0-----0-----0---|
|----------------------------------------------------------------------|
|----------------------------------------------------------------------|

|-----------------------------------------------------------------|
|---8-----8-----7-----7-----7-------8-----8-----7-----7-----7-----|
|-----0-----0-----0-----0-----0-------0-----0-----0-----0-----0---|
|---------------------------------------------------------0-----0-|
|-7-----7-----7-----7-----7-----7-7-----7-----7-----7-------7-----|
|-----------------------------------------------------------------|

|------------------------------------------------------------------|
|---12----12----12--12----12----12--12----12----12--12----12----12-|
|-----12----12----12--12----12----12--12----12----12--12----12-----|
|-10----10----10--------10----10--------10----10--------10----10---|
|------------------------------------------------------------------|
|------------------------------------------------------------------|

(just pluck these notes in whatever rhythm suits you
|------------------------------------------------|
|------------------------------------------------|
|------------------------------------------------|
|-5---7---9---7---9---10---5---4---7---4---5---7-|
|------------------------------------------------|
|------------------------------------------------|

repeat verse 2 more times

repeat chorus 1 more time

distortion
|-------------------------------------------|
|-------------------------------------------|
|------2----4---------------2----4----------|
|-5----0----2----10----5----0----2----10----|
|-5----0----2----10----5----0----2----10----|
|-5x32-0x32-2x32-10x32-5x32-0x32-2x32-10x32-|

solo
guitar 1
  t   t   t   t   t   t    t   t   t   t   t   t   t
|----------------------------------------------------|
|----------------------------------------------------|
|----------------------------------------------------|
|-5---7---9---7---9---10---9---5---4---7---4---5---7-|
|----------------------------------------------------|
|----------------------------------------------------|

  t   t   t   t   t   t    t   t   t   t   t   t   t
|-15--17--19--17--19--20---19--15--14--17--14--15--17-|
|-----------------------------------------------------|
|-----------------------------------------------------|
|-----------------------------------------------------|
|-----------------------------------------------------|
|-----------------------------------------------------|

guitar 2
|-----------------------------------------|
|-----------------------------------------|
|------2----4----2---------2----4----2----|
|-5----0----2----0----5----0----2----0----|
|-5----0----2----0----5----0----2----0----|
|-5x32-0x32-2x32-0x32-5x32-0x32-2x32-0x32-|

|---
|---
|---
|-5-
|-5-
|-5-

end

4.Lost like tears in rain

tuning: Dropped-C

pm-palm mute

intro
|-------------------------------------------------|
|-------------------------------------------------|
|-------------------------------------------------|
|-----------------0-0-0-0-0-0-0-0-0-0-0-0-0-0-0-0-|
|-8-8-8-8-8-8-8-8-8-8-8-8-8-8-8-8-8-8-8-8-8-8-8-8-|
|-------------------------------------------------|
pm- - - - - - - - - - - - - - - - - - - - - - - -

|---------------------------------|
|---------------------------------|
|---------------------------------|
|---------------------------------|
|-3-3-3-3-3-3-1-1-1-1-1-1-1-1-1-1-|
|---------------------------------|
pm- - - - - - - - - - - - - - - -

|-------------------------------------------------|
|-------------------------------------------------|
|-------------------------------------------------|
|-----------------0-0-0-0-0-0-0-0-0-0-0-0-0-0-0-0-|
|-8-8-8-8-8-8-8-8-8-8-8-8-8-8-8-8-8-8-8-8-8-8-8-8-|
|-------------------------------------------------|
pm- - - - - - - - - - - - - - - - - - - - - - - -

|---------------------------------|
|---------------------------------|
|---------------------------------|
|------------------(distortion)---|
|-1-1-1-1-1-1-1-1-8-8-8-8-8-8-8-8-|
|-----------------8-8-8-8-8-8-8-8-|
pm- - - - - - - - - - - - - - - -

|-----------------------------------------------------|
|-----------------------------------------------------|
|-------------9/10\9/10\9\7-------------9/10\9/10\9\5-|
|-----------------------------------------------------|
|-0-0-0-0-0-0---------------0-0-0-0-0-0---------------|
|-0-0-0-0-0-0---------------0-0-0-0-0-0---------------|
pm- - - - - -               - - - - - -

|-------------------------------------------------------------|
|-------------------------------------------------------------|
|-------------9/10\9/10\9/12-------------------12\10\9/10\9\7-|
|-------------------------------------------------------------|
|-8-8-8-8-8-8----------------10-10-10-10-10-10----------------|
|-8-8-8-8-8-8----------------10-10-10-10-10-10----------------|
pm- - - - - -                -  -  -  -  -  -

guitar 1
|-----------------------------------------------------|
|-----------------------------------------------------|
|-------------9/10\9/10\9\7-------------9/10\9/10\9\5-|
|-----------------------------------------------------|
|-0-0-0-0-0-0---------------0-0-0-0-0-0---------------|
|-0-0-0-0-0-0---------------0-0-0-0-0-0---------------|
pm- - - - - -               - - - - - -

|-------------------------------------------------------------|
|-------------------------------------------------------------|
|-------------9/10\9/10\9/12-------------------12\10\9/10\9\7-|
|-------------------------------------------------------------|
|-8-8-8-8-8-8----------------10-10-10-10-10-10----------------|
|-8-8-8-8-8-8----------------10-10-10-10-10-10----------------|
pm- - - - - -                -  -  -  -  -  -

guitar 2
|-------------------------------------------------------------|
|-------------------------------------------------------------|
|-------------12/14\12/14\12\10-------------12/14\12/14\12\10-|
|-------------------------------------------------------------|
|-0-0-0-0-0-0-------------------0-0-0-0-0-0-------------------|
|-0-0-0-0-0-0-------------------0-0-0-0-0-0-------------------|
pm- - - - - -                   - - - - - -

|------------------------------------------------------------------|
|------------------------------------------------------------------|
|-------------12/14\12/14\12\9-------------------12/14\12/14\12\10-|
|------------------------------------------------------------------|
|-8-8-8-8-8-8------------------10-10-10-10-10-10-------------------|
|-8-8-8-8-8-8------------------10-10-10-10-10-10-------------------|
pm- - - - - -                  -  -  -  -  -  -

|--------|
|--------|
|--------|
|-0------|
|-0------|
|-0------|

verse
|-13----13----13--12----12----12--13----13----13--12----12----12---|
|---10----10--------10----10--------10----10--------10----10-------|
|-----10----10--10----10----10--10----10----10--10----10----10--10-| repeat
|------------------------------------------------------------------| 2 more
|------------------------------------------------------------------| times
|------------------------------------------------------------------|

pre-chorus
|---------------------------------------------------------------|
|---------------------------------------------------------------|
|---------------------------------------------------------------|
|---------------------------------------------------------------|
|-0-0-0-0-0-0-0---0-0-0-0-0-0-0---8-8-8-8-8-8-8---8-8-8-8-8-8-8-|
|-0-0-0-0-0-0-0---0-0-0-0-0-0-0---8-8-8-8-8-8-8---8-8-8-8-8-8-8-|
pm- - - - - - -   - - - - - - -   - - - - - - -   - - - - - - -

|----------------------------------------------------------------------------|
|----------------------------------------------------------------------------|
|----------------------------------------------------------------------------|
|----------------------------------------------------------------------------|
|10-10-10-10-10-10-10---10-10-10-10-10-10-10---8-8-8-8-8-8-8---5-5-5-5-5-5-5-|
|10-10-10-10-10-10-10---10-10-10-10-10-10-10---8-8-8-8-8-8-8---5-5-5-5-5-5-5-|
pm-  -  -  -  -  -  -    -  -  -  -  -  -  -   - - - - - - -   - - - - - - -
chorus
|---------------------------------------------------------|
|---------------------------------------------------------|
|10--10--1010--1010101010101010--10--1010--10101010101010-|
|10--10--1010--1010101010101010--10--1010--10101010101010-|
|-8---8---8-8---8-8-8-8-8-8-8-8---8---8-8---8-8-8-8-8-8-8-|
|-0---0---0-0---0-0-0-0-0-0-0-8---8---8-8---8-8-8-8-8-8-8-|

|---------------------------------------|
|---------------------------------------|
|10--10--10-9---9-9-9-9-9-9-9-5---10----|
|10--10--1010--10101010101010-3----8----|
|-8---8---8-8---8-8-8-8-8-8-8-3----8----|
|-0---0---0-0---0-0-0-0-0-0-0-3x16-8x16-|

|---------------------------------------------------------|
|---------------------------------------------------------|
|10--10--1010--1010101010101010--10--1010--10101010101010-|
|10--10--1010--1010101010101010--10--1010--10101010101010-|
|-8---8---8-8---8-8-8-8-8-8-8-8---8---8-8---8-8-8-8-8-8-8-|
|-0---0---0-0---0-0-0-0-0-0-0-8---8---8-8---8-8-8-8-8-8-8-|

|---------------------------------------|
|---------------------------------------|
|10--10--10-9---9-9-9-9-9-9-9-5---10----|
|10--10--1010--10101010101010-3----8----|
|-8---8---8-8---8-8-8-8-8-8-8-3----8----|
|-0---0---0-0---0-0-0-0-0-0-0-3x16-8x16-|

guitar 1
|-----------------------------------------------------|
|-----------------------------------------------------|
|-------------9/10\9/10\9\7-------------9/10\9/10\9\5-|
|-----------------------------------------------------|
|-0-0-0-0-0-0---------------0-0-0-0-0-0---------------|
|-0-0-0-0-0-0---------------0-0-0-0-0-0---------------|
pm- - - - - -               - - - - - -

|-------------------------------------------------------------|
|-------------------------------------------------------------|
|-------------9/10\9/10\9/12-------------------12\10\9/10\9\7-|
|-------------------------------------------------------------|
|-8-8-8-8-8-8----------------10-10-10-10-10-10----------------|
|-8-8-8-8-8-8----------------10-10-10-10-10-10----------------|
pm- - - - - -                -  -  -  -  -  -

guitar 2
|-------------------------------------------------------------|
|-------------------------------------------------------------|
|-------------12/14\12/14\12\10-------------12/14\12/14\12\10-|
|-------------------------------------------------------------|
|-0-0-0-0-0-0-------------------0-0-0-0-0-0-------------------|
|-0-0-0-0-0-0-------------------0-0-0-0-0-0-------------------|
pm- - - - - -                   - - - - - -

|------------------------------------------------------------------|
|------------------------------------------------------------------|
|-------------12/14\12/14\12\9-------------------12/14\12/14\12\10-|
|------------------------------------------------------------------|
|-8-8-8-8-8-8------------------10-10-10-10-10-10-------------------|
|-8-8-8-8-8-8------------------10-10-10-10-10-10-------------------|
pm- - - - - -                  -  -  -  -  -  -

|--------|
|--------|
|--------|
|-0------|
|-0------|
|-0------|

verse
|-13----13----13--12----12----12--13----13----13--12----12----12---|
|---10----10--------10----10--------10----10--------10----10-------|
|-----10----10--10----10----10--10----10----10--10----10----10--10-| repeat
|------------------------------------------------------------------| 1 more
|------------------------------------------------------------------| time
|------------------------------------------------------------------|

repeat pre-chorus
repeat chorus

bridge
|--------------------------------------|
|--------------------------------------|
|--------------------------------------|
|--------------------------------------|
|-------------8b-------------------8b--|
|-0---0---0------------0---0---0-------|
pm-   -   -            -   -   -

|--------------------------------------|
|--------------------------------------|
|--------------------------------------|
|--------------------------------------|
|-0---0---0---8b-------0---0---0---8b--|
|-0---0---0------------0---0---0-------|
pm-   -   -            -   -   -

|--------------------------------------|
|--------------------------------------|
|--------------------------------------|
|--------------------------------------|
|-0---0---0---8b-------0---0---0---8b--|
|-0---0---0------------0---0---0-------|
pm-   -   -            -   -   -

|------------------------------------------------------------------|
|------------------------------------------------------------------|
|------------------------------------------------------------------|
|------------------------------------------------------------------|
|-0---0---0---8b-------0---0---0-------0---0---0-------0---0---0---|
|-0---0---0------------0---0---0-------0---0---0-------0---0---0---|
pm-   -   -            -   -   -       -   -   -       -   -   -

|-----------------------------------|
|-----------------------------------|
|-----------------------------------|
|-----------------------------------|
|-0---0---0---8---8---8---8---8---8-|
|-0---0---0---8---8---8---8---8---8-|
pm-   -   -   -   -   -   -   -   -

|-----------------------------------------------|
|-----------------------------------------------|
|10--10--10--10--10--10--10--10--10--10--10--10-|
|10--10--10--10--10--10--10--10--10--10--10--10-|
|-8---8---8---8---8---8---8---8---8---8---8---8-|
|-8---8---8---8---8---8---8---8---8---8---8---8-|

|-----------------------------------------------|
|-----------------------------------------------|
|-9---9---9---9---9---9--10--10--10--10--10--10-|
|10--10--10--10--10--10--10--10--10--10--10--10-|
|-8---8---8---8---8---8---8---8---8---8---8---8-|
|-8---8---8---8---8---8---8---8---8---8---8---8-|

|-----
|-----
|-7---
|-7---
|-5---
|-5x32

|-17--17--17--17--17--17--17--17--15--15--15--15--15--15--14--14---|
|---15--15--15--15--15--15--14--14--12--12--12--12--12--12--12--12-|
|------------------------------------------------------------------|
|------------------------------------------------------------------|
|------------------------------------------------------------------|
|------------------------------------------------------------------|

|-17--17--17--17--17--17--17--17--15--15--15--15--15--15--14-|
|---15--15--15--15--15--15--14--14--12--12--12--12--12--12---|
|------------------------------------------------------------|
|------------------------------------------------------------|
|------------------------------------------------------------|
|------------------------------------------------------------|

outro
|-------------0-----0-0---0-0-0-0---------------------------------|
|-------------3-----3-3---3-3-3-3---------------------------------|
|-2-----2---2-2-----2-2---2-2-2-2-7-----7---7-7-----7-7---7-7-7-7-|
|-0-----0---0-0-----0-0---0-0-0-0-7-----7---7-7-----7-7---7-7-7-7-|
|-0-----0---0-0-----0-0---0-0-0-0-5-----5---5-5-----5-5---5-5-5-5-|
|-0-----0---0-0-----0-0---0-0-0-0-5-----5---5-5-----5-5---5-5-5-5-|

|-------------0-----0-0---0-0-0-0---------------------------------|
|-------------3-----3-3---3-3-3-3---------------------------------|
|-2-----2---2-2-----2-2---2-2-2-2-7-----7---7-7-----7-7---7-7-7-7-|
|-0-----0---0-0-----0-0---0-0-0-0-7-----7---7-7-----7-7---7-7-7-7-|
|-0-----0---0-0-----0-0---0-0-0-0-5-----5---5-5-----5-5---5-5-5-5-|
|-0-----0---0-0-----0-0---0-0-0-0-5-----5---5-5-----5-5---5-5-5-5-|

guitar 1
|-------------0-----0-0---0-0-0-0---------------------------------|
|-------------3-----3-3---3-3-3-3---------------------------------|
|-2-----2---2-2-----2-2---2-2-2-2-7-----7---7-7-----7-7---7-7-7-7-|
|-0-----0---0-0-----0-0---0-0-0-0-7-----7---7-7-----7-7---7-7-7-7-|
|-0-----0---0-0-----0-0---0-0-0-0-5-----5---5-5-----5-5---5-5-5-5-|
|-0-----0---0-0-----0-0---0-0-0-0-5-----5---5-5-----5-5---5-5-5-5-|

|-------------0-----0-0---0-0-0-0---------------------------------|
|-------------3-----3-3---3-3-3-3---------------------------------|
|-2-----2---2-2-----2-2---2-2-2-2-7-----7---7-7-----7-7---7-7-7-7-|
|-0-----0---0-0-----0-0---0-0-0-0-7-----7---7-7-----7-7---7-7-7-7-|
|-0-----0---0-0-----0-0---0-0-0-0-5-----5---5-5-----5-5---5-5-5-5-|
|-0-----0---0-0-----0-0---0-0-0-0-5-----5---5-5-----5-5---5-5-5-5-|

|-------------0-----0-0---0-0-0-0---------------------------------|
|-------------3-----3-3---3-3-3-3---------------------------------|
|-2-----2---2-2-----2-2---2-2-2-2-7-----7---7-7-----7-7---7-7-7-7-|
|-0-----0---0-0-----0-0---0-0-0-0-7-----7---7-7-----7-7---7-7-7-7-|
|-0-----0---0-0-----0-0---0-0-0-0-5-----5---5-5-----5-5---5-5-5-5-|
|-0-----0---0-0-----0-0---0-0-0-0-5-----5---5-5-----5-5---5-5-5-5-|

|-------------0-----0-0---0-0-0-0---------------------------------|
|-------------3-----3-3---3-3-3-3---------------------------------|
|-2-----2---2-2-----2-2---2-2-2-2-7-----7---7-7-----7-7---7-7-7-7-|
|-0-----0---0-0-----0-0---0-0-0-0-7-----7---7-7-----7-7---7-7-7-7-|
|-0-----0---0-0-----0-0---0-0-0-0-5-----5---5-5-----5-5---5-5-5-5-|
|-0-----0---0-0-----0-0---0-0-0-0-5-----5---5-5-----5-5---5-5-5-5-|

|------------------|
|------------------|
|10----------------|
|10----------------|
|-8----0-0-0-0-0-0-|
|-8x32-0-0-0-0-0-0-|
pm     - - - - - -

guitar 2
  t    t   t    t    t    t   t    t
|-10---9--------10---10---9--------10-|
|----------10-----------------10------|
|-------------------------------------|
|-------------------------------------|
|-------------------------------------|
|-------------------------------------|

end


5.Amethyst

tuning-drop d

chords:
  Am  C  F-M7  G  F5  A5
 F5(2)  C5  G5/B
|-0---0--0----------------------------------|
|-1---1--1-----0----------------------------|
|-2---0--2-----0--5-------9---10------------|
|-2---2--3-----0--3---7---9---10-----10-12--|
|-0---3--3-----x--3---7---7----8-----10-10--|
|--------------5--3---7--------------10--9--|

intro
|-3p0-1p0-----3p0-1p0-----3p0-1p0-----3p0-1p0------|
|----0---1h3p1---0---1h3p1---0---1h3p1---0---1h3p1-|
|--------------------------------------------------|
|--------------------------------------------------| 2 times
|--------------------------------------------------|
|--------------------------------------------------|

|-3---1--0----------3---1--0--------|
|----1--1---1h3p1------1--1---1h3p1-|
|-----------------------------------|
|-----------------------------------|
|-----------------------------------|
|-----------------------------------|

|-3p0-1p0-----3p0-1p0-----3p0-1p0-----3p0-1p0------|
|----0---1h3p1---0---1h3p1---0---1h3p1---0---1h3p1-|
|--------------------------------------------------|
|--------------------------------------------------|
|--------------------------------------------------|
|--------------------------------------------------|

|-3---1--0----------3---1--0--------|
|----1--1---1h3p1------1--1---3---1-|
|-----------------------------------|
|-----------------------------------|
|-----------------------------------|
|-----------------------------------|


Am                    C
she smokes like an amethyst,
                             F-M7
she's moving her way through my skin,
          Am                             C
she moves me, cause east is the way i'll go,
                F-M7           Am
nobody seems to notice, how i feel.
  G                                   F5        Am
|-15-15-15-15-15-15-15-15-13-13-13-12-12-12-----17-17-17-17-17-17-17-17-|
|------------------------------------------13-13------------------------|
|-----------------------------------------------------------------------|
|-----------------------------------------------------------------------|
|-----------------------------------------------------------------------|
|-----------------------------------------------------------------------|
                        G
|-12-12-12--------------15-15-15-15-15-15-15-17-17-17-17-17-17-17-17-17-|
|---------13-13-13-13-13------------------------------------------------|
|-----------------------------------------------------------------------|
|-----------------------------------------------------------------------|
|-----------------------------------------------------------------------|
|-----------------------------------------------------------------------|
  F5
|-19-19-19-19-19-19-19-20-20-20-20-20-20-20-20-20-20-|
|----------------------------------------------------|
|----------------------------------------------------|
|----------------------------------------------------|
|----------------------------------------------------|
|----------------------------------------------------|

A5             E5
keep all the lights off,
                F5(2)
and i'll try to kill our pass time,
 C5     G5/B      F5
just to find your heart,
               A5
please don't ignore me,
             F5(2)
or i'll just fall asleep,
    C5       G5/B       F5
and wake up when you're gone.

|-3p0-1p0-----3p0-1p0-----3p0-1p0-----3p0-1p0------|
|----0---1h3p1---0---1h3p1---0---1h3p1---0---1h3p1-|
|--------------------------------------------------|
|--------------------------------------------------|
|--------------------------------------------------|
|--------------------------------------------------|

|-3---1--0----------3---1--0--------|
|----1--1---1h3p1------1--1---3---1-|
|-----------------------------------|
|-----------------------------------|
|-----------------------------------|
|-----------------------------------|

Am             C
this body only needs,
                     F-M7
to learn to feel the problem,
       Am                              C
disappear, i froze with those plastic eyes,
                    F-M7              Am
cutting loose from upon this disguise.

  G                                   F5        Am
|-15-15-15-15-15-15-15-15-13-13-13-12-12-12-----17-17-17-17-17-17-17-17-|
|------------------------------------------13-13------------------------|
|-----------------------------------------------------------------------|
|-----------------------------------------------------------------------|
|-----------------------------------------------------------------------|
|-----------------------------------------------------------------------|
                        G
|-12-12-12--------------15-15-15-15-15-15-15-17-17-17-17-17-17-17-17-17-|
|---------13-13-13-13-13------------------------------------------------|
|-----------------------------------------------------------------------|
|-----------------------------------------------------------------------|
|-----------------------------------------------------------------------|
|-----------------------------------------------------------------------|
  F5
|-19-19-19-19-19-19-19-20-20-20-20-20-20-20-20-20-20-|
|----------------------------------------------------|
|----------------------------------------------------|
|----------------------------------------------------|
|----------------------------------------------------|
|----------------------------------------------------|

A5             E5
keep all the lights off,
                F5(2)
and i'll try to kill our pass time,
 C5     G5/B      F5
just to find your heart,
               A5
please don't ignore me,
             F5(2)
or i'll just fall asleep,
    C5       G5/B       F5
and wake up when you're gone.

end riff
|--------------------------------------------------------------|
|--------------------------------------------------------------|
|--------------------------------------------------------------|
|-7-7-7-7---7-7-7-7-7---7-7-7-7\3-3-3-3---3-3-3-3-3---3-3-3-3--|
|-7-7-7-7---7-7-7-7-7---7-7-7-7\3-3-3-3---3-3-3-3-3---3-3-3-3--|
|-7-7-7-7---7-7-7-7-7---7-7-7-7\3-3-3-3---3-3-3-3-3---3-3-3-3--|

|-------------------------------|
|-------------------------------|
|-------------------------------|
|-7-7-7-7---7-7-7-7-7---7-7-7-7-|
|-7-7-7-7---7-7-7-7-7---7-7-7-7-|
|-7-7-7-7---7-7-7-7-7---7-7-7-7-|

|--------------------------------------------------------------|
|--------------------------------------------------------------|
|--------------------------------------------------------------|
|-7-7-7-7---7-7-7-7-7---7-7-7-7\3-3-3-3---3-3-3-3-3---3-3-3-3--|
|-7-7-7-7---7-7-7-7-7---7-7-7-7\3-3-3-3---3-3-3-3-3---3-3-3-3--|
|-7-7-7-7---7-7-7-7-7---7-7-7-7\3-3-3-3---3-3-3-3-3---3-3-3-3--|

|---------------------------------|
|---------------------------------|
|---------------------------------|
|-7-7-7-7---7-7-7-7-7---7-7-7-7\3-|
|-7-7-7-7---7-7-7-7-7---7-7-7-7\3-|
|-7-7-7-7---7-7-7-7-7---7-7-7-7\3-|

Am                      C
she smokes like an amethyst,
                             F-M7
she's moving her way through my skin.

|-0
|-1
|-2
|-2
|-0
|--

end.


6.Hazy eyes

tuning: Dropped-D

h-hammer on
p-pull off

intro

guitar 1
|------------------------------------------------------------------|
|------------------------------------------------------------------|
|-7---7---7-9-6-6-6/7---7--7-9-6-7---7---7-9-6-6-6/7---7---7---9-6-|
|------------------------------------------------------------------|
|------------------------------------------------------------------|
|------------------------------------------------------------------|

|-----------------------------|
|---------8-7---------------5-|
|-------------7---------6-7---|
|-7---7-7-------5---5-5-------|
|-7---7-7-------5---5-5-------|
|-7---7-7-------5---5-5-------|

|------------------------------------------------------------------|
|------------------------------------------------------------------|
|-7---7---7-9-6-6-6/7---7--7-9-6-7---7---7-9-6-6-6/7---7---7---9-6-|
|------------------------------------------------------------------|
|------------------------------------------------------------------|
|------------------------------------------------------------------|

|-------------------------------|
|---------8---7-------------5---|
|-----------7-----------6-7-----|
|-7---7-7-------5---5-5-------0-|
|-7---7-7-------5---5-5-------0-|
|-7---7-7-------5---5-5-------0-|

guitar 2
|-----------------------------------------------------------------|
|-----------------------------------------------------------------|
|-----------------------------------------------------------------|
|-0---0---0-12-0-0-0---0---0-12-0-0---0---0-12-0-0-0---0---0-12-0-|
|-0---0---0-12-0-0-0---0---0-12-0-0---0---0-12-0-0-0---0---0-12-0-|
|-0---0---0-12-0-0-0---0---0-12-0-0---0---0-12-0-0-0---0---0-12-0-|

|-----------------------|
|-----------------------|
|-9---9-9-------7---7-7-|
|-7---7-7-------5---5-5-|
|-7---7-7-------5---5-5-|
|-7---7-7-------5---5-5-|

|-----------------------------------------------------------------|
|-----------------------------------------------------------------|
|-----------------------------------------------------------------|
|-0---0---0-12-0-0-0---0---0-12-0-0---0---0-12-0-0-0---0---0-12-0-|
|-0---0---0-12-0-0-0---0---0-12-0-0---0---0-12-0-0-0---0---0-12-0-|
|-0---0---0-12-0-0-0---0---0-12-0-0---0---0-12-0-0-0---0---0-12-0-|

|-------------------------------|
|-------------------------------|
|-9---9-9-------7---7-7---------|
|-7---7-7-------5---5-5-------0-|
|-7---7-7-------5---5-5-------0-|
|-7---7-7-------5---5-5-------0-|

verse
|-------------------------------------------------|
|-------------------------------------------------|
|-------7-----------7-----------7-----------7-----| repeat 3 more times
|-----7---7-------7---7-------7---7-------7---7---|
|---5-------5---5-------0---5-------5---5-------0-|
|-0-----------0-----------5-----------5-----------|

|-------------------------------------0-----------0-----|
|-------------------------------------------------------|
|-----------------------------------7---7-------7---7---|
|-----12-11h12-------12-11h12-----5-------5---5---------|
|---9----------9---9----------0-----------------------0-|
|-9--------------9--------------5-----------5-----------|

|-------------------------------------0-----------0-----|
|-------------------------------------------------------|
|-----------------------------------7---7-------7---7---|
|-----12-11h12-------12-11h12-----5-------5---5---------|
|---9----------9---9----------0-----------------------0-|
|-9--------------9--------------5-----------5-----------|

chorus
guitar 1           guitar
|--------------    |--------------------|
|--------------    |--------------------|
|1111--11--1111    |-14-14---14---14-14-|
|-x-x---x---x-x    |--x--x----x----x--x-|
|-9-9---9---9-9    |-12-12---12---12-12-|
|--------------    |--------------------|

|----------------------------------------------|
|----------------------------------------------|
|----------------------------------------------|
|-9-9-9-----5---5---5-5---55555---5---5-5-5555-|
|-9-9-9-----5---5---5-5---55555---5---5-5-5555-|
|-9-9-9-----5---5---5-5---55555---5---5-5-5555-|

|--------------    |--------------------|
|--------------    |--------------------|
|1111--11--1111    |-14-14---14---14-14-|
|-x-x---x---x-x    |--x--x----x----x--x-|
|-9-9---9---9-9    |-12-12---12---12-12-|
|--------------    |--------------------|

|----------------------------------------------|
|----------------------------------------------|
|----------------------------------------------|
|-9-9-9-----5---5---5-5---55555---5---5-5-5555-|
|-9-9-9-----5---5---5-5---55555---5---5-5-5555-|
|-9-9-9-----5---5---5-5---55555---5---5-5-5555-|

(from here im not sure about the striking rhythm
so just do what comes to you)

guitar 1   guitar 2
|---      |----|
|---      |----|
|11       |-14-
|-x-      |--x-
|-9-      |-12-|
|---      |----|

|---------------|
|---------------|
|---------------|
|-9-----7-----5-| repeat 1 more time
|-9-----7-----5-|
|-9-----7-----5-|

guitar 1
|------------------------------------------------------------------|
|------------------------------------------------------------------|
|-7---7---7-9-6-6-6/7---7--7-9-6-7---7---7-9-6-6-6/7---7---7---9-6-|
|------------------------------------------------------------------|
|------------------------------------------------------------------|
|------------------------------------------------------------------|

|-------------------------------|
|---------8---7-------------5---|
|-----------7-----------6-7-----|
|-7---7-7-------5---5-5-------0-|
|-7---7-7-------5---5-5-------0-|
|-7---7-7-------5---5-5-------0-|

guitar 2
|-----------------------------------------------------------------|
|-----------------------------------------------------------------|
|-----------------------------------------------------------------|
|-0---0---0-12-0-0-0---0---0-12-0-0---0---0-12-0-0-0---0---0-12-0-|
|-0---0---0-12-0-0-0---0---0-12-0-0---0---0-12-0-0-0---0---0-12-0-|
|-0---0---0-12-0-0-0---0---0-12-0-0---0---0-12-0-0-0---0---0-12-0-|

|-----------------------|
|-----------------------|
|-9---9-9-------7---7-7-|
|-7---7-7-------5---5-5-|
|-7---7-7-------5---5-5-|
|-7---7-7-------5---5-5-|

|---
|---
|---
|-0-
|-0-
|-0-

verse
|-------------------------------------------------|
|-------------------------------------------------|
|-------7-----------7-----------7-----------7-----| repeat 1 more time
|-----7---7-------7---7-------7---7-------7---7---|
|---5-------5---5-------0---5-------5---5-------0-|
|-0-----------0-----------5-----------5-----------|

|-------------------------------------0-----------0-----|
|-------------------------------------------------------|
|-----------------------------------7---7-------7---7---|
|-----12-11h12-------12-11h12-----5-------5---5---------|
|---9----------9---9----------0-----------------------0-|
|-9--------------9--------------5-----------5-----------|

|-------------------------------------0-----------0-----|
|-------------------------------------------------------|
|-----------------------------------7---7-------7---7---|
|-----12-11h12-------12-11h12-----5-------5---5---------|
|---9----------9---9----------0-----------------------0-|
|-9--------------9--------------5-----------5-----------|

chorus
guitar 1           guitar
|--------------    |--------------------|
|--------------    |--------------------|
|1111--11--1111    |-14-14---14---14-14-|
|-x-x---x---x-x    |--x--x----x----x--x-|
|-9-9---9---9-9    |-12-12---12---12-12-|
|--------------    |--------------------|

|----------------------------------------------|
|----------------------------------------------|
|----------------------------------------------|
|-9-9-9-----5---5---5-5---55555---5---5-5-5555-|
|-9-9-9-----5---5---5-5---55555---5---5-5-5555-|
|-9-9-9-----5---5---5-5---55555---5---5-5-5555-|

|--------------    |--------------------|
|--------------    |--------------------|
|1111--11--1111    |-14-14---14---14-14-|
|-x-x---x---x-x    |--x--x----x----x--x-|
|-9-9---9---9-9    |-12-12---12---12-12-|
|--------------    |--------------------|

|----------------------------------------------|
|----------------------------------------------|
|----------------------------------------------|
|-9-9-9-----5---5---5-5---55555---5---5-5-5555-|
|-9-9-9-----5---5---5-5---55555---5---5-5-5555-|
|-9-9-9-----5---5---5-5---55555---5---5-5-5555-|

repeat chorus

bridge
|------------------------------------------------------------------------|
|------------------------------------------------------------------------|
|-----------------14-14---14---14-14---12-11--14-14---14---14-14---12-11-|
|-2-------5--------x--x----x----x--x----x-x----x--x----x----x--x----x-x--|
|-2-------5-------12-12---12---12-12---10-9---12-12---12---12-12---10-9--|
|-2-------5--------------------------------------------------------------|

|-----------------------------------------------------------------------|
|-----------------------------------------------------------------------|
|-----------------14-14---14---14-14---14-14---14---14-14---14-14---14--|
|-2-------5--------x--x----x----x--x----x--x----x----x--x----x--x----x--|
|-2-------5-------12-12---12---12-12---12-12---12---12-12---12-12---12--|
|-2-------5-------------------------------------------------------------|

|----------------------------------------------|
|----------------------------------------------|
|-14-14---14-14---14---14-14---12-11-----------|
|--x--x----x--x----x----x--x----x-x--2-----4-5-|
|-12-12---12-12---12---12-12---10-9--2-----4-5-|
|------------------------------------2-----4-5-|

outro

guitar 1
|------------------------------------------------------------------|
|------------------------------------------------------------------|
|-7---7---7-9-6-6-6/7---7--7-9-6-7---7---7-9-6-6-6/7---7---7---9-6-|
|------------------------------------------------------------------|
|------------------------------------------------------------------|
|------------------------------------------------------------------|

|------------------------------|
|---------8---7-------------5--|
|-----------7-----------6-7----|
|-7---7-7-------5---5-5--------|
|-7---7-7-------5---5-5--------|
|-7---7-7-------5---5-5--------|

guitar 2
|-----------------------------------------------------------------|
|-----------------------------------------------------------------|
|-----------------------------------------------------------------|
|-0---0---0-12-0-0-0---0---0-12-0-0---0---0-12-0-0-0---0---0-12-0-|
|-0---0---0-12-0-0-0---0---0-12-0-0---0---0-12-0-0-0---0---0-12-0-|
|-0---0---0-12-0-0-0---0---0-12-0-0---0---0-12-0-0-0---0---0-12-0-|

|-----------------------|
|-----------------------|
|-9---9-9-------7---7-7-|
|-7---7-7-------5---5-5-|
|-7---7-7-------5---5-5-|
|-7---7-7-------5---5-5-|

end.
comments
We did not receive enough feedback on this tab! Please rate:
print report bad tab
1 2 3 4 5
I want to post or [tab]
guest
You may want to rate the tab now too:
select rating
Please do not post tabs as comments. Select "correction" instead!