Oops, an error
Loading. Please wait.

Core Of My Addiction Tab

ver1
ver1

Whole song

More versions @911Tabs.com
5,357 views 15 this week
1 commentread comment
1 2 3 4 5
worth learning
x 5
add to favorites launch autoscroll
font size
0
reset
Autoscroll
+/-
esc
set tempo
stop
Contributor
WARNING: You are trying to view
                                    content from Ultimate-Guitar.com
                                    in an unauthorized application,
                                    which is prohibited.

                                    Please use an official Ultimate
                                    Guitar Tabs application for iPhone,
                                    iPad or Android to access legitimate
                                    chords, guitar, bass, and drum tabs
                                    from Ultimate-Guitar.com database.

                                    Type "ultimate guitar tabs" in Apple
                                    App Store's or Android Market's
                                    search to find the application.
                Core Of My Addiction-Fireflight 

Tabbed by:AC2106
Email:connora@email.sc.edu

Tuning:
Guitar 1:Drop C#
Guitar 2:Drop C#

*This is my first tab but I have been doing this awhile, not perfect at it though; 
 Any corrections let me know. I forgot to add the 2nd guitar on the outro so its all there now.

(Intro)(Verse 1)
-Guitar 1-
D#|--------------------------------------------------------------------------|
A#|--------------------------------------------------------------------------|
F#|--------------------------------------------------------------------------|
C#|--------------------------------------------------------------------------|
G#|------7-7-7-7-7------3-3----------7-7-7-7-7-----3-3----------7-7-7-7-7----|
C#|7-7-7----------3-3-3----5-5-7-7-7----------3-3-3----5-5-7-7-7----------3-3|
P.M..........................................................................
D#|--------------------------------------------------------------------------|
A#|--------------------------------------------------------------------------|
F#|--------------------------------------------------------------------------|
C#|--------------------------------------------------------------------------|
G#|--3-3-----------7-7-7-7-7-----3-3----------7-7-7-7-7----------------------|
C#|3-----5-5-7-7-7----------3-3-3----5-5-7-7-7----------3-3-3-5-5-5-5-5------|
P.M....................................................................
  (Pre-Chorus)
-Guitars 1&2-    
D#|--------------------------------------------------------------------------|
A#|--------------------------------------------------------------------------|
F#|-------------5-5----------------------------------------------------------|
C#|-7-7---7-7---5-5---5-5-----------------7-7---7-7---3-3---3/5--------------|
G#|-7-7---7-7---3-3---5-5-----------------7-7---7-7---3-3---3/5--------------|
C#|-7-7---7-7---------5-5-----------------7-7---7-7---3-3---3/5--------------|

D#|--------------------------------------------------------------------------|
A#|--------------------------------------------------------------------------|
F#|-------------5-5----------------------------------------------------------|
C#|-7-7---7-7---5-5---5-5-----------------7-7---7-7---3-3---3/5--------------|
G#|-7-7---7-7---3-3---5-5-----------------7-7---7-7---3-3---3/5--------------|
C#|-7-7---7-7---------5-5-----------------7-7---7-7---3-3---3/5--------------|
                                                                    






 (Chorus)
 -Guitar 1- {x2}
D#|--------------------------------------------------------------------------|
A#|--------------------------------------------------------------------------|
F#|-----------------5-5-5-5-5-5-5-5-------------------------5-5-5-5----------|
C#|-7-7-7-7-7-7-7-7-5-5-5-5-5-5-5-5-5-5-5-5-5-5-5-5-5-5-5-5-5-5-5-5-3--3-3-3-|
G#|-7-7-7-7-7-7-7-7-3-3-3-3-3-3-3-3-5-5-5-5-5-5-5-5-5-5-5-5-3-3-3-3-3--3-3-3-|
C#|-7-7-7-7-7-7-7-7-----------------5-5-5-5-5-5-5-5-5-5-5-5---------3--3-3-3-|

D#|--------------------------------------------------------------------------|
A#|--------------------------------------------------------------------------|
F#|--------5-5-5-5-5-5-5-5---------------------------------------------------|
C#|3-3-3-3-5-5-5-5-5-5-5-5--5-5-5---5---5-5-5-5---6--------------------------|
G#|3-3-3-3-3-3-3-3-3-3-3-3--5-5-5---5---5-5-5-5---6--------------------------|
C#|3-3-3-3------------------5-5-5---5---5-5-5-5---6--------------------------|
                                                   
  -Guitar 2- {x2}
D#|--------------------------------------------------------------------------|
A#|--------------------------------------------------------------------------|
F#|-----------------5-5-5-5-5-5-5-5-------------------------5-5-5-5----------|
C#|-7-7-7-7-7-7-7-7-5-5-5-5-5-5-5-5-5-5-5-5-5-5-5-5-5-5-5-5-5-5-5-5-3--3-3-3-|
G#|-7-7-7-7-7-7-7-7-3-3-3-3-3-3-3-3-5-5-5-5-5-5-5-5-5-5-5-5-3-3-3-3-3--3-3-3-|
C#|-7-7-7-7-7-7-7-7-----------------5-5-5-5-5-5-5-5-5-5-5-5---------3--3-3-3-|

D#|--------------------------------------------------------------------------|
A#|--------------------------------------------------------------------------|
F#|--------5-5-5-5-5-5-5-5--14-12----------14---12---------------------------|
C#|3-3-3-3-5-5-5-5-5-5-5-5-------14-12-10----------14-12-10------------------|
G#|3-3-3-3-3-3-3-3-3-3-3-3---------------12----------------11--12------------|
C#|3-3-3-3-------------------------------------------------------------------|

  (Verse 2) -Guitars 1&2-

  -Guitar 1-
D#|--------------------------------------------------------------------------|
A#|--------------------------------------------------------------------------|
F#|--------------------------------------------------------------------------|
C#|--------------------------------------------------------------------------|
G#|------7-7-7-7-7------3-3----------7-7-7-7-7-----3-3----------7-7-7-7-7----|
C#|7-7-7----------3-3-3----5-5-7-7-7----------3-3-3----5-5-7-7-7----------3-3|
P.M..........................................................................
D#|--------------------------------------------------------------------------|
A#|--------------------------------------------------------------------------|
F#|--------------------------------------------------------------------------|
C#|--------------------------------------------------------------------------|
G#|--3-3-----------7-7-7-7-7-----3-3----------7-7-7-7-7----------------------|
C#|3-----5-5-7-7-7----------3-3-3----5-5-7-7-7----------3-3-3-5-5-5-5-5------|
P.M....................................................................

  -Guitar 2-
D#|--------------------------------------------------------------------------|
A#|--------------------------------------------------------------------------|
F#|--------------------------------------------------------------------------|
C#|----------------------------7-7-------------------------7-7---------------|
G#|----------------------------7-7-------------------------7-7---------------|
C#|----------------------------7-7-------------------------7-7---------------|

D#|--------------------------------------------------------------------------|
A#|--------------------------------------------------------------------------|
F#|--------------------------------------------------------------------------|
C#|----------7-7-------------3-3--5--------7-7-----------3--3---5--5---------|
G#|----------7-7---7---------3-3--5-3-2----7-7---7-------3--3---5--5---------|
C#|----------7-7-------------3-3--5-----5--7-7-----------3--3---5--5---------|

(Pre-Chorus)
-Guitars 1&2-    
D#|--------------------------------------------------------------------------|
A#|--------------------------------------------------------------------------|
F#|-------------5-5----------------------------------------------------------|
C#|-7-7---7-7---5-5---5-5-----------------7-7---7-7---3-3---3/5--------------|
G#|-7-7---7-7---3-3---5-5-----------------7-7---7-7---3-3---3/5--------------|
C#|-7-7---7-7---------5-5-----------------7-7---7-7---3-3---3/5--------------|

D#|--------------------------------------------------------------------------|
A#|--------------------------------------------------------------------------|
F#|-------------5-5----------------------------------------------------------|
C#|-7-7---7-7---5-5---5-5-----------------7-7---7-7---3-3---3/5--------------|
G#|-7-7---7-7---3-3---5-5-----------------7-7---7-7---3-3---3/5--------------|
C#|-7-7---7-7---------5-5-----------------7-7---7-7---3-3---3/5--------------|
   Let it ring........................................................

(Chorus)
 -Guitar 1- {x2}
D#|--------------------------------------------------------------------------|
A#|--------------------------------------------------------------------------|
F#|-----------------5-5-5-5-5-5-5-5-------------------------5-5-5-5----------|
C#|-7-7-7-7-7-7-7-7-5-5-5-5-5-5-5-5-5-5-5-5-5-5-5-5-5-5-5-5-5-5-5-5-3--3-3-3-|
G#|-7-7-7-7-7-7-7-7-3-3-3-3-3-3-3-3-5-5-5-5-5-5-5-5-5-5-5-5-3-3-3-3-3--3-3-3-|
C#|-7-7-7-7-7-7-7-7-----------------5-5-5-5-5-5-5-5-5-5-5-5---------3--3-3-3-|

D#|--------------------------------------------------------------------------|
A#|--------------------------------------------------------------------------|
F#|--------5-5-5-5-5-5-5-5---------------------------------------------------|
C#|3-3-3-3-5-5-5-5-5-5-5-5--5-5-5---5---5-5-5-5---6--------------------------|
G#|3-3-3-3-3-3-3-3-3-3-3-3--5-5-5---5---5-5-5-5---6--------------------------|
C#|3-3-3-3------------------5-5-5---5---5-5-5-5---6--------------------------|
                                                   


  -Guitar 2- {x2}
D#|--------------------------------------------------------------------------|
A#|--------------------------------------------------------------------------|
F#|-----------------5-5-5-5-5-5-5-5-------------------------5-5-5-5----------|
C#|-7-7-7-7-7-7-7-7-5-5-5-5-5-5-5-5-5-5-5-5-5-5-5-5-5-5-5-5-5-5-5-5-3--3-3-3-|
G#|-7-7-7-7-7-7-7-7-3-3-3-3-3-3-3-3-5-5-5-5-5-5-5-5-5-5-5-5-3-3-3-3-3--3-3-3-|
C#|-7-7-7-7-7-7-7-7-----------------5-5-5-5-5-5-5-5-5-5-5-5---------3--3-3-3-|

D#|--------------------------------------------------------------------------|
A#|--------------------------------------------------------------------------|
F#|--------5-5-5-5-5-5-5-5--14-12----------14---12---------------------------|
C#|3-3-3-3-5-5-5-5-5-5-5-5-------14-12-10----------14-12-10------------------|
G#|3-3-3-3-3-3-3-3-3-3-3-3---------------12----------------11---12-----------|
C#|3-3-3-3-------------------------------------------------------------------|

(Post-Chorus)
-Guitar 1-
D#|--------------------------------------------------------------------------|
A#|--------------------------------------------------------------------------|
F#|--------------------------------------------------------------------------|
C#|-7-7-7-7-7-7-7-7-7-7-7-7-7-7-7-7-3-3-3-3-3-3-3-3-3-3-3-3-3-3-3-3-5-5-5-5-5|
G#|-7-7-7-7-7-7-7-7-7-7-7-7-7-7-7-7-3-3-3-3-3-3-3-3-3-3-3-3-3-3-3-3-5-5-5-5-5|
C#|-7-7-7-7-7-7-7-7-7-7-7-7-7-7-7-7-3-3-3-3-3-3-3-3-3-3-3-3-3-3-3-3-5-5-5-5-5|
P.M..........................................................................

D#|--------------------------------------------------------------------------|
A#|--------------------------------------------------------------------------|
F#|--------------------------------------------------------------------------|
C#|-5-5-5-5-5-5-5-5-5-5-5--5-5-5-5-5-5-5-5-5-5-5-5-5-5-5-5-------------------|
G#|-5-5-5-5-5-5-5-5-5-5-5--5-5-5-5-5-5-5-5-5-5-5-5-5-5-5-5-------------------|
C#|-5-5-5-5-5-5-5-5-5-5-5--5-5-5-5-5-5-5-5-5-5-5-5-5-5-5-5-------------------|
   ......................
 
 -Guitar 2-
D#|--------------------------------------------------------------------------|
A#|--------------------------------------------------------------------------|
F#|--------------------------------------------------------------------7-9-7-|
C#|-7-7-7-7-7-7-7-7-7-7-7-7-7-7-7-7-3-3-3-3-3-3-3-3-3-3-3-3-3-3-3-3--7-------|
G#|-7-7-7-7-7-7-7-7-7-7-7-7-7-7-7-7-3-3-3-3-3-3-3-3-3-3-3-3-3-3-3-3----------|
C#|-7-7-7-7-7-7-7-7-7-7-7-7-7-7-7-7-3-3-3-3-3-3-3-3-3-3-3-3-3-3-3-3----------|
P.M..........................................................................


D#|--------------------------------------------------------------------------|
A#|--------------------------------------------------------------------------|
F#|--7-9-7---7-9-7---7-9-7-7-7-7-7-------------------------------------------|
C#|7-------7-------7---------------5-5-5-5-5-5-5-5-5-5-5-5-------------------|
G#|--------------------------------5-5-5-5-5-5-5-5-5-5-5-5-------------------|
C#|--------------------------------5-5-5-5-5-5-5-5-5-5-5-5-------------------|
  ........................
(Bridge)
-Guitars 1&2-
D#|-----------------------|
A#|-----------------------|
F#|-------------5-5-------|
C#|-7-7---7-7---5-5---5-5-|
G#|-7-7---7-7---3-3---5-5-|
C#|-7-7---7-7---------5-5-|


(Chorus)
 -Guitar 1- {x2}
D#|--------------------------------------------------------------------------|
A#|--------------------------------------------------------------------------|
F#|-----------------5-5-5-5-5-5-5-5-------------------------5-5-5-5----------|
C#|-7-7-7-7-7-7-7-7-5-5-5-5-5-5-5-5-5-5-5-5-5-5-5-5-5-5-5-5-5-5-5-5-3--3-3-3-|
G#|-7-7-7-7-7-7-7-7-3-3-3-3-3-3-3-3-5-5-5-5-5-5-5-5-5-5-5-5-3-3-3-3-3--3-3-3-|
C#|-7-7-7-7-7-7-7-7-----------------5-5-5-5-5-5-5-5-5-5-5-5---------3--3-3-3-|

D#|--------------------------------------------------------------------------|
A#|--------------------------------------------------------------------------|
F#|--------5-5-5-5-5-5-5-5---------------------------------------------------|
C#|3-3-3-3-5-5-5-5-5-5-5-5--5-5-5---5---5-5-5-5---6--------------------------|
G#|3-3-3-3-3-3-3-3-3-3-3-3--5-5-5---5---5-5-5-5---6--------------------------|
C#|3-3-3-3------------------5-5-5---5---5-5-5-5---6--------------------------|
                                                   

  -Guitar 2- {x2}
D#|--------------------------------------------------------------------------|
A#|--------------------------------------------------------------------------|
F#|-----------------5-5-5-5-5-5-5-5-------------------------5-5-5-5----------|
C#|-7-7-7-7-7-7-7-7-5-5-5-5-5-5-5-5-5-5-5-5-5-5-5-5-5-5-5-5-5-5-5-5-3--3-3-3-|
G#|-7-7-7-7-7-7-7-7-3-3-3-3-3-3-3-3-5-5-5-5-5-5-5-5-5-5-5-5-3-3-3-3-3--3-3-3-|
C#|-7-7-7-7-7-7-7-7-----------------5-5-5-5-5-5-5-5-5-5-5-5---------3--3-3-3-|

D#|--------------------------------------------------------------------------|
A#|--------------------------------------------------------------------------|
F#|--------5-5-5-5-5-5-5-5--14-12----------14---12---------------------------|
C#|3-3-3-3-5-5-5-5-5-5-5-5-------14-12-10----------14-12-10------------------|
G#|3-3-3-3-3-3-3-3-3-3-3-3---------------12----------------11---12-----------|
C#|3-3-3-3-------------------------------------------------------------------|

(Outro)
-Guitar 1-
D#|--------------------------------------------------------------------------|
A#|--------------------------------------------------------------------------|
F#|-----------------5-5-5-5-5-5-5-5------------------------------------------|
C#|-3-3-3-3-3-3-3-3-5-5-5-5-5-5-5-5-5-5-5-5-5-5-5-5-5-5-5-5-5-5-5-5-3-3-3-3-3|
G#|-3-3-3-3-3-3-3-3-3-3-3-3-3-3-3-3-5-5-5-5-5-5-5-5-5-5-5-5-5-5-5-5-3-3-3-3-3|
C#|-3-3-3-3-3-3-3-3-----------------5-5-5-5-5-5-5-5-5-5-5-5-5-5-5-5-3-3-3-3-3|
D#|---------------------------------------------------------------------------|
A#|---------------------------------------------------------------------------|
F#|-------5-5-5-5-5-5-5-5-----------------------------------------------------|
C#|-3-3-3-5-5-5-5-5-5-5-5-5-5-5-5-5-5-5-5-5-5-5-5-5-5-5-5-7-7-7---7---7-7-7-7-|
G#|-3-3-3-3-3-3-3-3-3-3-3-5-5-5-5-5-5-5-5-5-5-5-5-5-5-5-5-7-7-7---7---7-7-7-7-|
C#|-3-3-3-----------------5-5-5-5-5-5-5-5-5-5-5-5-5-5-5-5-7-7-7---7---7-7-7-7-|

  -Guitar 2-
D#|--------------------------------------------------------------------------|
A#|--------------------------------------------------------------------------|
F#|-14-12------------14---12------------14-12------------14---12-------------|
C#|------14-12-10-----------14-12-10----------14-12-10-----------14-12-10----|
G#|---------------12-----------------12----------------12--------------------|
C#|--------------------------------------------------------------------------|

D#|--------------------------------------------------------------------------|
A#|--------------------------------------------------------------------------|
F#|-14-12------------14---12------------14-12------------14---12-------------|
C#|------14-12-10-----------14-12-10---------14-12-10-----------14-12-10-----|
G#|---------------12-----------------12----------------------------------11--|
C#|--------------------------------------------------------------------------|

D#|---------------------|
A#|---------------------|
F#|---------------------|
C#|-7-7-7---7---7-7-7-7-|
G#|-7-7-7---7---7-7-7-7-|
C#|-7-7-7---7---7-7-7-7-|

***********************************
| /   slide up
| \   slide down
| h   hammer-on
| p   pull-off
| ~   vibrato
| +   harmonic
| x   Mute note
| b   Bend
| pb  Pre-bend
| br  Bend release
| pbr Pre-bend release
| brb Bend release bend
| P.M... Palm mute
************************************
comments
print report bad tab
1 comment total.
0 reply
Musician4Jesus wrote on May 30 2010, 06:17 pm

very good tab!

I want to post or [tab]
guest
You may want to rate the tab now too:
select rating
Please do not post tabs as comments. Select "correction" instead!