Oops, an error
Loading. Please wait.

For Those Who Wait Tab

ver3
ver3

Whole song

More versions @911Tabs.com
553 views 3 this week
no commentswrite comment
1 2 3 4 5
excellent!
x 1
Autoscroll
+/-
esc
set tempo
stop
Contributor
Difficulty
Tuning
novice
C# G# C# F# A# D#
WARNING: You are trying to view
                                    content from Ultimate-Guitar.com
                                    in an unauthorized application,
                                    which is prohibited.

                                    Please use an official Ultimate
                                    Guitar Tabs application for iPhone,
                                    iPad or Android to access legitimate
                                    chords, guitar, bass, and drum tabs
                                    from Ultimate-Guitar.com database.

                                    Type "ultimate guitar tabs" in Apple
                                    App Store's or Android Market's
                                    search to find the application.

-------------------------------------------------------------------------------
                          For Those Who Wait - Fireflight
-------------------------------------------------------------------------------
Tabbed by: oogah33

Tuning: Drop C# (C#,G#,C#,F#,A#,D#)


Intro: (Lead)
D#|---------------------------------------------------------------------------|
A#|---------------------------------------------------------------------------|
F#|-7-7-9-9-10-10-7-9-10-7-7-12-12-10-10-7-12-10-12-12-12-12-12-12-12-12------|
C#|---------------------------------------------------------------------------|
G#|-5-5-7-7-8--8--5-7-8--5-5-10-10-8--8--5-10-8--10-10-10-10-10-10-10-10------|
C#|---------------------------------------------------------------------------|

D#|---------------------------------------------------------------------------|
A#|---------------------------------------------------------------------------|
F#|-10-10-10-10-5-5-5-5-12-12-12-12-12-12-12-12-15-15-15-15-15-14-14-14-------|
C#|---------------------------------------------------------------------------|
G#|-8--8--8--8--3-3-3-3-10-10-10-10-10-10-10-10-13-13-13-13-13-12-12-12-------|
C#|---------------------------------------------------------------------------|

Intro: (Rhythm)
D#|---------------------------------------------------------------------------|
A#|---------------------------------------------------------------------------|
F#|---------------------------------------------------------------------------|
C#|--8-8-8-8-8-8-8-8-0-0-0-0-0-0-0-0-3-3-3-3-3-3-3-3-10-10-10-10-10-10-10-10--|
G#|--8-8-8-8-8-8-8-8-0-0-0-0-0-0-0-0-3-3-3-3-3-3-3-3-10-10-10-10-10-10-10-10--|
C#|--8-8-8-8-8-8-8-8-0-0-0-0-0-0-0-0-3-3-3-3-3-3-3-3-10-10-10-10-10-10-10-10--|


Verse:
D#|---------------------------------------------------------------------------|
A#|---------------------------------------------------------------------------|
F#|-------------0----0----0----0----0----0----0----0----0----0----0---0-------|
C#|-----------0----0----0----0----0----0----0----0----0----0----0---0---------|
G#|-3/5~----3----3----1----1----1----1----3----3----3----3----1----1----------|
C#|---------------------------------------------------------------------------|

D#|---------------------------------------------------------------------------|
A#|---------------------------------------------------------------------------|
F#|-----0----0----------------------------------------------------------------|
C#|---0----0------------------------------------------------------------------|
G#|--1----1-------------------------------------------------------------------|
C#|---------------------------------------------------------------------------|


Pre-Chorus:
D#|---------------------------------------------------------------------------|
A#|---------------------------------------------------------------------------|
F#|---------------------------------------------------------------------------|
C#|---------------------------------------------------------------------------|
G#|---------------------------------------------------------------------------|
C#|-10-10-10-10-10-10-10-10-10-10-10-10-10-10-10-10-5-5-5-5-5-5-5-5-5-5-5-5---|
    *  *  *  *  *  *  *  *  *  *  *  *  *  *  *  *  * * * * * * * * * * * * 
D#|---------------------------------------------------------------------------|
A#|---------------------------------------------------------------------------|
F#|---------------------------------------------------------------------------|
C#|---------------------------------------------------------------------------|
G#|---------------------------------------------------------------------------|
C#|--5-5-5-5------------------------------------------------------------------|
     * * * *

Chorus (x2): (Same as Intro)
D#|---------------------------------------------------------------------------|
A#|---------------------------------------------------------------------------|
F#|-7-7-9-9-10-10-7-9-10-7-7-12-12-10-10-7-12-10-12-12-12-12-12-12-12-12------|
C#|---------------------------------------------------------------------------|
G#|-5-5-7-7-8--8--5-7-8--5-5-10-10-8--8--5-10-8--10-10-10-10-10-10-10-10------|
C#|---------------------------------------------------------------------------|

D#|---------------------------------------------------------------------------|
A#|---------------------------------------------------------------------------|
F#|-10-10-10-10-5-5-5-5-12-12-12-12-12-12-12-12-15-15-15-15-15-14-14-14-------|
C#|---------------------------------------------------------------------------|
G#|-8--8--8--8--3-3-3-3-10-10-10-10-10-10-10-10-13-13-13-13-13-12-12-12-------|
C#|---------------------------------------------------------------------------|

Chorus (x2): (Rhythm)
D#|---------------------------------------------------------------------------|
A#|---------------------------------------------------------------------------|
F#|---------------------------------------------------------------------------|
C#|--8-8-8-8-8-8-8-8-0-0-0-0-0-0-0-0-3-3-3-3-3-3-3-3-10-10-10-10-10-10-10-10--|
G#|--8-8-8-8-8-8-8-8-0-0-0-0-0-0-0-0-3-3-3-3-3-3-3-3-10-10-10-10-10-10-10-10--|
C#|--8-8-8-8-8-8-8-8-0-0-0-0-0-0-0-0-3-3-3-3-3-3-3-3-10-10-10-10-10-10-10-10--|


Verse 2:
D#|---------------------------------------------------------------------------|
A#|---------------------------------------------------------------------------|
F#|----0----0----0----0----0----0----0----0----0----0----0----0----0----0-----|
C#|--0----0----0----0----0----0----0----0----0----0----0----0----0----0-------|
G#|-3----3----3----3----1----1----1----1----3----3----3----3----1----1--------|
C#|---------------------------------------------------------------------------|

D#|---------------------------------------------------------------------------|
A#|---------------------------------------------------------------------------|
F#|-----0----0----------------------------------------------------------------|
C#|---0----0------------------------------------------------------------------|
G#|--1----1-------------------------------------------------------------------|
C#|---------------------------------------------------------------------------|


Pre-Chorus:
D#|---------------------------------------------------------------------------|
A#|---------------------------------------------------------------------------|
F#|---------------------------------------------------------------------------|
C#|---------------------------------------------------------------------------|
G#|---------------------------------------------------------------------------|
C#|-10-10-10-10-10-10-10-10-10-10-10-10-10-10-10-10-5-5-5-5-5-5-5-5-5-5-5-5---|
    *  *  *  *  *  *  *  *  *  *  *  *  *  *  *  *  * * * * * * * * * * * * 
D#|---------------------------------------------------------------------------|
A#|---------------------------------------------------------------------------|
F#|---------------------------------------------------------------------------|
C#|---------------------------------------------------------------------------|
G#|---------------------------------------------------------------------------|
C#|--5-5-5-5------------------------------------------------------------------|
     * * * *


Chorus (x2): (Lead)
D#|---------------------------------------------------------------------------|
A#|---------------------------------------------------------------------------|
F#|-7-7-9-9-10-10-7-9-10-7-7-12-12-10-10-7-12-10-12-12-12-12-12-12-12-12------|
C#|---------------------------------------------------------------------------|
G#|-5-5-7-7-8--8--5-7-8--5-5-10-10-8--8--5-10-8--10-10-10-10-10-10-10-10------|
C#|---------------------------------------------------------------------------|

D#|---------------------------------------------------------------------------|
A#|---------------------------------------------------------------------------|
F#|-10-10-10-10-5-5-5-5-12-12-12-12-12-12-12-12-15-15-15-15-15-14-14-14-------|
C#|---------------------------------------------------------------------------|
G#|-8--8--8--8--3-3-3-3-10-10-10-10-10-10-10-10-13-13-13-13-13-12-12-12-------|
C#|---------------------------------------------------------------------------|

Chorus (x2): (Rhythm)
D#|---------------------------------------------------------------------------|
A#|---------------------------------------------------------------------------|
F#|---------------------------------------------------------------------------|
C#|--8-8-8-8-8-8-8-8-0-0-0-0-0-0-0-0-3-3-3-3-3-3-3-3-10-10-10-10-10-10-10-10--|
G#|--8-8-8-8-8-8-8-8-0-0-0-0-0-0-0-0-3-3-3-3-3-3-3-3-10-10-10-10-10-10-10-10--|
C#|--8-8-8-8-8-8-8-8-0-0-0-0-0-0-0-0-3-3-3-3-3-3-3-3-10-10-10-10-10-10-10-10--|


Bridge: (Strum accordingly)
D#|----x-------------------x--------------------x-------------------x---------|
A#|----x-------------------x--------------------1-------------------x---------|
F#|----7-------------------x--------------------x-------------------x---------|
C#|----7-------------------3--------------------2-------------------5---------|
G#|----5-------------------3--------------------3-------------------5---------|
C#|----x-------------------3--------------------x-------------------5---------| (x2)
     

D#|----x-------------------x--------------------------------------------------|
A#|----1-------------------x--------------------------------------------------|
F#|----x-------------------x--------------------------------------------------|
C#|----2-------------------5--------------------------------------------------|
G#|----3-------------------5--------------------------------------------------|
C#|----x-------------------5--------------------------------------------------|

Chorus: (Begin with volume swell)
D#|---------------------------------------------------------------------------|
A#|---------------------------------------------------------------------------|
F#|-12-12-12-12-12-12-12-12-10-10-10-10-5-5-5-5-12-12-12-12-12-12-12-12-------|
C#|---------------------------------------------------------------------------|
G#|-10-10-10-10-10-10-10-10-8--8--8--8--3-3-3-3-10-10-10-10-10-10-10-10-------|
C#|---------------------------------------------------------------------------|

D#|---------------------------------------------------------------------------|
A#|---------------------------------------------------------------------------|
F#|-15-15-15-15-15-14-14-14---------------------------------------------------|
C#|---------------------------------------------------------------------------|
G#|-13-13-13-13-13-12-12-12---------------------------------------------------|
C#|---------------------------------------------------------------------------|

Chorus: (Rhythm)
D#|---------------------------------------------------------------------------|
A#|---------------------------------------------------------------------------|
F#|---------------------------------------------------------------------------|
C#|-3-3-3-3-3-3-3-3-10-10-10-10-10-10-10-10-----------------------------------|
G#|-3-3-3-3-3-3-3-3-10-10-10-10-10-10-10-10-----------------------------------|
C#|-3-3-3-3-3-3-3-3-10-10-10-10-10-10-10-10-----------------------------------|

Chorus: (Lead)
D#|---------------------------------------------------------------------------|
A#|---------------------------------------------------------------------------|
F#|-7-7-9-9-10-10-7-9-10-7-7-12-12-10-10-7-12-10-12-12-12-12-12-12-12-12------|
C#|---------------------------------------------------------------------------|
G#|-5-5-7-7-8--8--5-7-8--5-5-10-10-8--8--5-10-8--10-10-10-10-10-10-10-10------|
C#|---------------------------------------------------------------------------|

D#|---------------------------------------------------------------------------|
A#|---------------------------------------------------------------------------|
F#|-10-10-10-10-5-5-5-5-12-12-12-12-12-12-12-12-15-15-15-15-15-14-14-14-------|
C#|---------------------------------------------------------------------------|
G#|-8--8--8--8--3-3-3-3-10-10-10-10-10-10-10-10-13-13-13-13-13-12-12-12-------|
C#|---------------------------------------------------------------------------|

Chorus: (Rhythm)
D#|---------------------------------------------------------------------------|
A#|---------------------------------------------------------------------------|
F#|---------------------------------------------------------------------------|
C#|--8-8-8-8-8-8-8-8-0-0-0-0-0-0-0-0-3-3-3-3-3-3-3-3-10-10-10-10-10-10-10-10--|
G#|--8-8-8-8-8-8-8-8-0-0-0-0-0-0-0-0-3-3-3-3-3-3-3-3-10-10-10-10-10-10-10-10--|
C#|--8-8-8-8-8-8-8-8-0-0-0-0-0-0-0-0-3-3-3-3-3-3-3-3-10-10-10-10-10-10-10-10--|
     

Outro: (Lead)
D#|---------------------------------------------------------------------------|
A#|---------------------------------------------------------------------------|
F#|-7-7-9-9-10-10-7-9-10-7-7-12-12-10-10-7-12-10-12-12-12-12-12-12-12-12------|
C#|---------------------------------------------------------------------------|
G#|-5-5-7-7-8--8--5-7-8--5-5-10-10-8--8--5-10-8--10-10-10-10-10-10-10-10------|
C#|---------------------------------------------------------------------------|

D#|---------------------------------------------------------------------------|
A#|---------------------------------------------------------------------------|
F#|-10-10-10-10-5-5-5-5-12-12-12-12-12-12-12-12-15-15-15-15-15-14-14-14-------|
C#|---------------------------------------------------------------------------|
G#|-8--8--8--8--3-3-3-3-10-10-10-10-10-10-10-10-13-13-13-13-13-12-12-12-------|
C#|---------------------------------------------------------------------------| (x2)

Outro: (Rhythm)
D#|---------------------------------------------------------------------------|
A#|---------------------------------------------------------------------------|
F#|---------------------------------------------------------------------------|
C#|--8-8-8-8-8-8-8-8-0-0-0-0-0-0-0-0-3-3-3-3-3-3-3-3-10-10-10-10-10-10-10-10--|
G#|--8-8-8-8-8-8-8-8-0-0-0-0-0-0-0-0-3-3-3-3-3-3-3-3-10-10-10-10-10-10-10-10--|
C#|--8-8-8-8-8-8-8-8-0-0-0-0-0-0-0-0-3-3-3-3-3-3-3-3-10-10-10-10-10-10-10-10--|

D#|---------------------------------------------------------------------------|
A#|---------------------------------------------------------------------------|
F#|---------------------------------------------------------------------------|
C#|--8-8-8-8-8-8-----0-0-0-0-0-0-0-0-3-3-3-3-3-3-3-3-10-10-10-10-10-10-10-10--|
G#|--8-8-8-8-8-8-----0-0-0-0-0-0-0-0-3-3-3-3-3-3-3-3-10-10-10-10-10-10-10-10--|
C#|--8-8-8-8-8-8-3-2-0-0-0-0-0-0-0-0-3-3-3-3-3-3-3-3-10-10-10-10-10-10-10-10--|

D#|---------------------------------------------------------------------------|
A#|---------------------------------------------------------------------------|
F#|---------------------------------------------------------------------------|
C#|---0-----------------------------------------------------------------------|
G#|---0-----------------------------------------------------------------------|
C#|---0-----------------------------------------------------------------------|



************************************

| /   slide up
| \   slide down
| h   hammer-on
| p   pull-off
| ~   vibrato
| +   harmonic
| x   Mute note
| b   Bend
| pb  Pre-bend
| br  Bend release
| pbr Pre-bend release
| brb Bend release bend
| *   Palm mute

************************************
comments
We did not receive enough feedback on this tab! Please rate:
1 2 3 4 5
I want to post or [tab]
guest
You may want to rate the tab now too:
select rating
Please do not post tabs as comments. Select "correction" instead!