Oops, an error
Loading. Please wait.

Unbreakable Tab

ver3
ver3
More versions @911Tabs.com
9,340 views 1 this week
6 commentsread comments
1 2 3 4 5
accurate
x 4
Autoscroll
+/-
esc
set tempo
stop
Difficulty
Tuning
novice
C# G# C# F# A# D#
Hey! There's an official Ultimate Guitar app which is ideal
for learning songs when you're away from computer. Get the app
WARNING: You are trying to view
                                    content from Ultimate-Guitar.com
                                    in an unauthorized application,
                                    which is prohibited.

                                    Please use an official Ultimate
                                    Guitar Tabs application for iPhone,
                                    iPad or Android to access legitimate
                                    chords, guitar, bass, and drum tabs
                                    from Ultimate-Guitar.com database.

                                    Type "ultimate guitar tabs" in Apple
                                    App Store's or Android Market's
                                    search to find the application.
Fireflight
Unbreakable
        Db-Ab-Db-Gb-Bb-Eb
... Palm mute
<> natural Harmonic
S=Slide 
(ghost note)
let ring
e|-------------------------------------------|
B|-12-0-10-0-8s10-0-10s12-0-12s15-0----------|
G|----------------------------------12-11-9--|
D|-------------------------------------------|
A|-------------------------------------------|
E|-------------------------------------------|
Verse 1/Guitar 2         (0:29)
e|-------------------------------------|
B|----------------0--3-----------------|
G|-4~-------------0--2----4----2----4--|
D|-2~-----(0)-----2--0----2----0----2--|
A|-2~-----(0)-----2--0----2----0----2--|
E|-2~-----(0)-------------2----0----2--|
           .
Chorus 1/Guitar 1/CPart A     (c=chorus)
e|----------------------------------------|
B|----------------------------------------|
G|-5-5-5-5--5-5-5-5--7-7-7-7--12-12-11-11-|
D|-5-5-5-5--5-5-5-5--7-7-7-7--------------|
A|-3-3-3-3--3-3-3-3--5-5-5-5--10-10-9--9--|
E|----------------------------------------|
Guitar 1/CPart B
e|-------------------------------|
B|-------------------------------|
G|-12-12------12-11------11------|
D|-------------------------------|X2
A|-10-10------10-9-------9-------|
E|-------------------------------|
Guitar 1/CPart C
e|----------------------------------------|
B|----------------------------------------|
G|-5-5-5-5--5-5-5-5--7-7-7-7--12-12-11-11-|
D|-5-5-5-5--5-5-5-5--7-7-7-7--------------|
A|-3-3-3-3--3-3-3-3--5-5-5-5--10-10-9--9--|
E|----------------------------------------|
Guitar 1/CPart B
e|-------------------------------|
B|-------------------------------|
G|-12-12------12-11------11------|
D|-------------------------------|X2
A|-10-10------10-9-------9-------|
E|-------------------------------|
Guitar 1/CPart D





e|------------------------------------------|
B|------------------------------------------|
G|-9-9-9-9-9-9-9-9--7-7-7-7----7------------|
D|---------------------------------0----2~--|
A|-7-7-7-7-7-7-7-7--5-5-5-5----5---0----2~--|
E|---------------------------------0----2~--|
Verse 1/Guitar 2         (0:29)
e|-------------------------------------|
B|----------------0--3-----------------|
G|-4~-------------0--2----4----2----4--|
D|-2~-----(0)-----2--0----2----0----2--|
A|-2~-----(0)-----2--0----2----0----2--|
E|-2~-----(0)-------------2----0----2--|
Both Guitars
(1:17)
e|----------------------------------------------------------|
B|----------------------------------------------------------|
G|----------------------------------------------------------|
D|-2-------------2-----2-----2--0-------------0-----0-----0-|
A|-2-2-2-2-2-2-2-2-2-2-2-2-2-2--0-0-0-0-0-0-0-0-0-0-0-0-0-0-|
E|-2-2-2-2-2-2-2-2-2-2-2-2-2-2--0-0-0-0-0-0-0-0-0-0-0-0-0-0-|
     . . . . . .    . .   . .     . . . . . .   . .   . .                         

e|----------------------------------------|
B|----------------------------------------|
G|----------------------------------------|
D|-2-2--2-2--2-2--2-2--2--2-2--0-0-0-0-5~-|
A|-2-2--2-2--2-2--2-2--2--2-2--0-0-0-0-5~-|
E|-2-2--2-2--2-2--2-2--2--2-2--0-0-0-0-5~-|
        . .       . .               

Chorus 1/Guitar 1/CPart A     (c=chorus)
e|----------------------------------------|
B|----------------------------------------|
G|-5-5-5-5--5-5-5-5--7-7-7-7--12-12-11-11-|
D|-5-5-5-5--5-5-5-5--7-7-7-7--------------|
A|-3-3-3-3--3-3-3-3--5-5-5-5--10-10-9--9--|
E|----------------------------------------|
Guitar 1/CPart B
e|-------------------------------|
B|-------------------------------|
G|-12-12------12-11------11------|
D|-------------------------------|X2
A|-10-10------10-9-------9-------|
E|-------------------------------|

Guitar 1/CPart C
e|----------------------------------------|
B|----------------------------------------|
G|-5-5-5-5--5-5-5-5--7-7-7-7--12-12-11-11-|
D|-5-5-5-5--5-5-5-5--7-7-7-7--------------|
A|-3-3-3-3--3-3-3-3--5-5-5-5--10-10-9--9--|
E|----------------------------------------|

Guitar 1/CPart D
e|------------------------------------------|
B|------------------------------------------|
G|-9-9-9-9-9-9-9-9--7-7-7-7----7------------|
D|---------------------------------0----2~--|
A|-7-7-7-7-7-7-7-7--5-5-5-5----5---0----2~--|
E|---------------------------------0----2~--|
(2:02)


e|-------------|
B|-------------|
G|-------------|
D|-2~------(2)-|
A|-2~------(2)-|
E|-2~------(2)-|

Interlude
Guitar 1/IPart A
e|---------------------------------------------------------------|
B|---------------------------------------------------------------|
G|---------------------------------------------------------------|
D|-2--2-----------2--2-----------2--2----------------------------|
A|-2--2--3-3-2----2--2--3-3-2----2--2--3-3-2---2-0---------------|
E|-2--2--------5--2--2--------5--2--2--------5-----5-0-----------|

Guitar 1/IPart B
e|---------------------------------------------------------------|
B|---------------------------------------------------------------|
G|---------------------------------------------------------------|
D|-2--2-----------2--2-----------2--2-2---2----------------------|
A|-2--2--3-3-2----2--2--3-3-2----2--2-2---2----------------------|
E|-2--2--------5--2--2--------5--2--2-2---2----------------------|
                                 .  . .   .      
Chorus 1/Guitar 1/CPart A     (c=chorus)
e|----------------------------------------|
B|----------------------------------------|
G|-5-5-5-5--5-5-5-5--7-7-7-7--12-12-11-11-|
D|-5-5-5-5--5-5-5-5--7-7-7-7--------------|
A|-3-3-3-3--3-3-3-3--5-5-5-5--10-10-9--9--|
E|----------------------------------------|
Guitar 1/CPart B
e|-------------------------------|
B|-------------------------------|
G|-12-12------12-11------11------|
D|-------------------------------|X2
A|-10-10------10-9-------9-------|
E|-------------------------------|
Guitar 1/CPart C
e|----------------------------------------|
B|----------------------------------------|
G|-5-5-5-5--5-5-5-5--7-7-7-7--12-12-11-11-|
D|-5-5-5-5--5-5-5-5--7-7-7-7--------------|
A|-3-3-3-3--3-3-3-3--5-5-5-5--10-10-9--9--|
E|----------------------------------------|
Guitar 1/CPart B
e|-------------------------------|
B|-------------------------------|
G|-12-12------12-11------11------|
D|-------------------------------|X2
A|-10-10------10-9-------9-------|
E|-------------------------------|




Guitar 1/CPart C
e|----------------------------------------|
B|----------------------------------------|
G|-5-5-5-5--5-5-5-5--7-7-7-7--12-12-11-11-|
D|-5-5-5-5--5-5-5-5--7-7-7-7--------------|
A|-3-3-3-3--3-3-3-3--5-5-5-5--10-10-9--9--|
E|----------------------------------------|
Guitar 1/CPart B
e|-------------------------------|
B|-------------------------------|
G|-12-12------12-11------11------|
D|-------------------------------|X2
A|-10-10------10-9-------9-------|
E|-------------------------------|
Chorus 1/Guitar 1/CPart A     (c=chorus)
e|----------------------------------------|
B|----------------------------------------|
G|-5-5-5-5--5-5-5-5--7-7-7-7--12-12-11-11-|
D|-5-5-5-5--5-5-5-5--7-7-7-7--------------|
A|-3-3-3-3--3-3-3-3--5-5-5-5--10-10-9--9--|
E|----------------------------------------|
Guitar 1/CPart B
e|-------------------------------|
B|-------------------------------|
G|-12-12------12-11------11------|
D|-------------------------------|X2
A|-10-10------10-9-------9-------|
E|-------------------------------|
Guitar 1/CPart D
e|------------------------------------------|
B|------------------------------------------|
G|-9-9-9-9-9-9-9-9--7-7-7-7----7------------|
D|---------------------------------0----2~--|
A|-7-7-7-7-7-7-7-7--5-5-5-5----5---0----2~--|
E|---------------------------------0----2~--|
Outro/Both Guitars
e|-----------------------------|------------------|
B|-----------------------------|------------------|
G|-----------------------------|------------------|
D|-2-2----2-2---2-2--2--X2|-2-2----2-2--5-0-0--2~-|
A|-2-2----2-2---2-2--2----|-2-2----2-2--5-0-0--2~-|
E|-2-2----2-2---2-2--2----|-2-2----2-2--5-0-0--2~-|
                     . .  .                       . . .                     




Guitar 2      
(0:07)Guitar 2                  1st ending 2nd ending             
e|-----------------------------|---------|---------|
B|-----------------------------|---------|---------|
G|-----------------------------|-7-7-7-7-|---------|
D|-2-2---2-2---2--2-2--5-5-5-5-|-7-7-7-7-|-7-7-7-7-|
A|-2-2---2-2---2--2-2--5-5-5-5-|-5-5-5-5-|-7-7-7-7-|
E|-2-2---2-2---2--2-2--5-5-5-5-|---------|-7-7-7-7-|
                                                              

Verse 1/Guitar 2         (0:29)
e|-------------------------------------|
B|----------------0--3-----------------|
G|-4~-------------0--2----4----2----4--|
D|-2~-----(0)-----2--0----2----0----2--|
A|-2~-----(0)-----2--0----2----0----2--|
E|-2~-----(0)-------------2----0----2--|
           .

Guitar 2/CPart A
e|----------------------------------------|
B|----------------------------------------|
G|-5-5-5-5--5-5-5-5--7-7-7-7--7--7--7--7--|
D|-5-5-5-5--5-5-5-5--7-7-7-7--7--7--7--7--|
A|-3-3-3-3--3-3-3-3--5-5-5-5--5--5--5--5--|
E|----------------------------------------|

Guitar 2/CPart B
e|-------------------------------|
B|-------------------------------|
G|-------------------------------|
D|-2--2--2-2--2--2--2-2--2--2-2--|X2
A|-2--2--2-2--2--2--2-2--2--2-2--|
E|-2--2--2-2--2--2--2-2--2--2-2--|
Guitar 2/CPart A
e|----------------------------------------|
B|----------------------------------------|
G|-5-5-5-5--5-5-5-5--7-7-7-7--7--7--7--7--|
D|-5-5-5-5--5-5-5-5--7-7-7-7--7--7--7--7--|
A|-3-3-3-3--3-3-3-3--5-5-5-5--5--5--5--5--|
E|----------------------------------------|
Guitar 2/CPart B
e|-------------------------------|
B|-------------------------------|
G|-------------------------------|
D|-2--2--2-2--2--2--2-2--2--2-2--|X2
A|-2--2--2-2--2--2--2-2--2--2-2--|
E|-2--2--2-2--2--2--2-2--2--2-2--|






e|------------------------------------------|
B|------------------------------------------|
G|-5-5-5-5-5-5-5-5-------------7------------|
D|-3-5-5-5-5-5-5-5--5-5-5-5--------0----2~--|
A|-3-3-3-3-3-3-3-3--5-5-5-5----5---0----2~--|
E|------------------5-5-5-5--------0----2~--|

Verse 1/Guitar 2         (0:29)
e|-------------------------------------|
B|----------------0--3-----------------|
G|-4~-------------0--2----4----2----4--|
D|-2~-----(0)-----2--0----2----0----2--|
A|-2~-----(0)-----2--0----2----0----2--|
E|--2~--------(0)---------2----0----2--|
Both Guitars
(1:17)
e|----------------------------------------------------------|
B|----------------------------------------------------------|
G|----------------------------------------------------------|
D|-2-------------2-----2-----2--0-------------0-----0-----0-|
A|-2-2-2-2-2-2-2-2-2-2-2-2-2-2--0-0-0-0-0-0-0-0-0-0-0-0-0-0-|
E|-2-2-2-2-2-2-2-2-2-2-2-2-2-2--0-0-0-0-0-0-0-0-0-0-0-0-0-0-|
     . . . . . .    . .   . .     . . . . . .   . .   . .                         

e|----------------------------------------|
B|----------------------------------------|
G|----------------------------------------|
D|-2-2--2-2--2-2--2-2--2--2-2--0-0-0-0-5~-|
A|-2-2--2-2--2-2--2-2--2--2-2--0-0-0-0-5~-|
E|-2-2--2-2--2-2--2-2--2--2-2--0-0-0-0-5~-|
        . .       . .               
Guitar 2/CPart A
e|----------------------------------------|
B|----------------------------------------|
G|-5-5-5-5--5-5-5-5--7-7-7-7--7--7--7--7--|
D|-5-5-5-5--5-5-5-5--7-7-7-7--7--7--7--7--|
A|-3-3-3-3--3-3-3-3--5-5-5-5--5--5--5--5--|
E|----------------------------------------|

Guitar 2/CPart B
e|-------------------------------|
B|-------------------------------|
G|-------------------------------|
D|-2--2--2-2--2--2--2-2--2--2-2--|X2
A|-2--2--2-2--2--2--2-2--2--2-2--|
E|-2--2--2-2--2--2--2-2--2--2-2--|






Guitar 2/CPart A
e|----------------------------------------|
B|----------------------------------------|
G|-5-5-5-5--5-5-5-5--7-7-7-7--7--7--7--7--|
D|-5-5-5-5--5-5-5-5--7-7-7-7--7--7--7--7--|
A|-3-3-3-3--3-3-3-3--5-5-5-5--5--5--5--5--|
E|----------------------------------------|



e|------------------------------------------|
B|------------------------------------------|
G|-5-5-5-5-5-5-5-5-------------7------------|
D|-3-5-5-5-5-5-5-5--5-5-5-5--------0----2~--|
A|-3-3-3-3-3-3-3-3--5-5-5-5----5---0----2~--|
E|------------------5-5-5-5--------0----2~--|

e|-------------|
B|-------------|
G|-------------|
D|-2~------(2)-|
A|-2~------(2)-|
E|-2~------(2)-|
Guitar 2/IPart A
e|---------------------------------------------------------------|
B|---------------------------------------------------------------|
G|---------------------------------------------------------------|
D|-2--2-----------2--2-----------2--2----------------------------|
A|-2--2-----------2--2-----------2--2----------------------------|
E|-2--2-----------2--2-----------2--2----------------------------|

Guitar 2/IPart B
e|---------------------------------------------------------------|
B|---------------------------------------------------------------|
G|---------------------------------------------------------------|
D|-2--2-----------2--2-----------2--2-2---2----------------------|
A|-2--2-----------2--2-----------2--2-2---2----------------------|
E|-2--2-----------2--2-----------2--2-2---2----------------------|
                                 .  . .   .        
Guitar 2/CPart A
e|----------------------------------------|
B|----------------------------------------|
G|-5-5-5-5--5-5-5-5--7-7-7-7--7--7--7--7--|
D|-5-5-5-5--5-5-5-5--7-7-7-7--7--7--7--7--|
A|-3-3-3-3--3-3-3-3--5-5-5-5--5--5--5--5--|
E|----------------------------------------|
Guitar 2/CPart B
e|-------------------------------|
B|-------------------------------|
G|-------------------------------|
D|-2--2--2-2--2--2--2-2--2--2-2--|X2
A|-2--2--2-2--2--2--2-2--2--2-2--|
E|-2--2--2-2--2--2--2-2--2--2-2--|
         . .        . .     . .



Guitar 2/CPart A
e|----------------------------------------|
B|----------------------------------------|
G|-5-5-5-5--5-5-5-5--7-7-7-7--7--7--7--7--|
D|-5-5-5-5--5-5-5-5--7-7-7-7--7--7--7--7--|
A|-3-3-3-3--3-3-3-3--5-5-5-5--5--5--5--5--|
E|----------------------------------------|

Guitar 2/CPart B
e|-------------------------------|
B|-------------------------------|
G|-------------------------------|
D|-2--2--2-2--2--2--2-2--2--2-2--|X2
A|-2--2--2-2--2--2--2-2--2--2-2--|
E|-2--2--2-2--2--2--2-2--2--2-2--|
         . .        . .     . .
Guitar 2/CPart A
e|----------------------------------------|
B|----------------------------------------|
G|-5-5-5-5--5-5-5-5--7-7-7-7--7--7--7--7--|
D|-5-5-5-5--5-5-5-5--7-7-7-7--7--7--7--7--|
A|-3-3-3-3--3-3-3-3--5-5-5-5--5--5--5--5--|
E|----------------------------------------|

Guitar 2/CPart B
e|-------------------------------|
B|-------------------------------|
G|-------------------------------|
D|-2--2--2-2--2--2--2-2--2--2-2--|X2
A|-2--2--2-2--2--2--2-2--2--2-2--|
E|-2--2--2-2--2--2--2-2--2--2-2--|
         . .        . .     . .

e|------------------------------------------|
B|------------------------------------------|
G|-5-5-5-5-5-5-5-5-------------7------------|
D|-3-5-5-5-5-5-5-5--5-5-5-5--------0----2~--|
A|-3-3-3-3-3-3-3-3--5-5-5-5----5---0----2~--|
E|------------------5-5-5-5--------0----2~--|

Outro/Both Guitars
e|-----------------------------|------------------|
B|-----------------------------|------------------|
G|-----------------------------|------------------|
D|-2-2----2-2---2-2--2--X2|-2-2----2-2--5-0-0--2~-|
A|-2-2----2-2---2-2--2----|-2-2----2-2--5-0-0--2~-|
E|-2-2----2-2---2-2--2----|-2-2----2-2--5-0-0--2~-|
                     . .  .                       . . .                           





comments
print report bad tab
6 comments total. Showing first comments.
0 reply
sac wrote on May 14 2008, 12:32 pm

Incredible! Than JohanH's tab. You got both guitars, the verses, and the bridge. 6 stars!

+1 reply
EKCender429 wrote on May 17 2008, 08:49 am

This is the same as ver 1
i don't know who copied it but please give me the credit

0 reply
EKCender429 wrote on May 17 2008, 08:52 am

whoever copied this left out some of guitar 2's parts, like in the chorus

if you want to learn the song i suggest you print from ver 1

I want to post or [tab]
guest
You may want to rate the tab now too:
select rating
Please do not post tabs as comments. Select "correction" instead!