Oops, an error
Loading. Please wait.

Fire And The Fury Tab

ver1
ver1

Intro

Solo

Interactive

More versions @911Tabs.com
13,825 views 9 this week
1 commentread comment
1 2 3 4 5
excellent!
x 3
Autoscroll
+/-
esc
set tempo
stop
Contributor
Difficulty
Tabbers playing skills
advanced
advanced +
Hey! There's an official Ultimate Guitar app which is ideal
for learning songs when you're away from computer. Get the app
WARNING: You are trying to view
                                    content from Ultimate-Guitar.com
                                    in an unauthorized application,
                                    which is prohibited.

                                    Please use an official Ultimate
                                    Guitar Tabs application for iPhone,
                                    iPad or Android to access legitimate
                                    chords, guitar, bass, and drum tabs
                                    from Ultimate-Guitar.com database.

                                    Type "ultimate guitar tabs" in Apple
                                    App Store's or Android Market's
                                    search to find the application.
                    The Fire & The Fury                               

This are the solos in the song, pretty hard.
BY: Cob666
                                                                        Firewind
Solo - 170 BPM 
 Q     H.               H.            E   E      W                   

----------------------|-----------------------|----------------------|
-------12~------------|--L------------10--12--|--12br----------------|
----------------------|-----------------------|----------------------|
----------------------|-----------------------|----------------------|
----------------------|-----------------------|----------------------|
----------------------|-----------------------|----------------------|


   W                    W                     W                  
---------------------|---------------------|--------------------|
--12~----------------|--9br----------------|--9~----------------|
---------------------|---------------------|--------------------|
---------------------|---------------------|--------------------|
---------------------|---------------------|--------------------|
---------------------|---------------------|--------------------|


  W                     E  E  H.               W                 
---------------------|----------------------|-------------------|
---------------------|----------------------|-------------------|
--9br----------------|--9--7--9~------------|--L----------------|
---------------------|----------------------|-------------------|
---------------------|----------------------|-------------------|
---------------------|----------------------|-------------------|





  W                   E   E   E   H         E     Q     E   E   E   Q.        
-------------------|---------------------------|-----------------------------|
-------------------|--9--10--12--12~--------L--|--L----13--12--13--13br------|
-------------------|---------------------------|-----------------------------|
-------------------|---------------------------|-----------------------------|
-------------------|---------------------------|-----------------------------|
-------------------|---------------------------|-----------------------------|


   Q     H          S  S  S  S     S   S   S  S  S  S  S  S  S  S  S  S  Q      
----------------------------12-|--15S-17S-20-17----------17-20-17----17-17b----|
---L----13~---------L----13----|----------------17----17----------17-----------|
----------------------12-------|-------------------17--------------------------|
-------------------14----------|-----------------------------------------------|
-------------------------------|-----------------------------------------------|
-------------------------------|-----------------------------------------------|


   Q     S  S  E   E   E   Q          Q     H          S  S  S  S  
---L----16-17-16------------------|-------------------------------|
------------------18--17--17br----|---L----17~--------18-17-15----|
----------------------------------|----------------------------17-|
----------------------------------|-------------------------------|
----------------------------------|-------------------------------|
----------------------------------|-------------------------------|


   S  S  S  S  S  S  S  S  S  S  S  S  S  S  S  S  
--------------------------------------------------|
--15----------------------------------------------|
-----17-16-14-16-14-13----13----------------------|
-----------------------15----15-14-12-15-14-12----|
-----------------------------------------------15-|
--------------------------------------------------|


   S  S  S  S  S  S  S  S  S  S  S  S  Q      
---------------------------------------------|
---------------------------------------------|
---------------------------------------------|
--------------------12-14-15-14-12-14-14~----|
--14-12-11-12-14-15--------------------------|
---------------------------------------------|


                                               |----3---|    3         3     
  Q     E    E   E    E   E    E      E    E   E    E   E    E   Q     Q     
------------12-------12-------12--|-------12-------12-------12--------------|
-------15b------15b------15b------|--15b------15b------15b------15b----L----|
----------------------------------|-----------------------------------------|
--L-------------------------------|-----------------------------------------|
----------------------------------|-----------------------------------------|
----------------------------------|-----------------------------------------|


  With Wah                                      
  Q         S  S  S  S  S  S  S  S  S  S  S  S  
-----------16-17-16-13-12-13-16-17-19-17-16-13-|
------------L----------------------------------|
-----------------------------------------------|
-----------------------------------------------|
-----------------------------------------------|
-----------------------------------------------|


   S  S  S  S  S  S  S  S  S  S  S  S  S  S  S  S  
--12----------------------------------------------|
-----15-13-12-------------------12-13-12----------|
--------------14-13-------13-14----------14-13----|
--------------------14-15----------------------15-|
--------------------------------------------------|
--------------------------------------------------|


   S  S  S  S  S  S  S  S  S  S  S  S  S  S  S  S  
--------------------------------------------------|
--------------------------------------------------|
--------------------------------------------------|
--14-12----12-------------------------------12----|
--------15----15-14-12-11-------11-12-14-15----15-|
--------------------------12-13-------------------|


   S  S  S  S  S  S  S  S  H            Q       W                 
-------------------------------------|-------|-------------------|
-------------------------------------|-------|-------------------|
-------------------------------------|-------|-------------------|
-------------------------------------|-------|-------------------|
--14-12-11---------------------------|-------|-------------------|
-----------13-12-13-12-10-12~--------|--L----|-------------------|
           

  H          Q    Q       W                    Q    E  E  Q     E  E   
-----------------------|--------------------|-------------------------|
-----------------------|--------------------|-------------------------|
------------------7----|--------------------|-------------------------|
-----------5g7---------|--9~----------------|--L----9--7-----------7--|
-----------------------|--------------------|-------------9----10-----|
-----------------------|--------------------|-------------------------|


                             |-----3----|                
    Q.      S S  H           Q     Q    Q    E  Q.       
--------------------------|-----------------------------|
--------------------------|-----------------------------|
--------------------------|------------------7--9~------|
--5g7---------------------|-------------7---------------|
-----------10-9-10--------|--9----10--------------------|
--------------------------|-----------------------------|


  H        E  E  S E  S    Q.       S S H           E  E  H.             
------------------------|------------------------|----------------------|
------------------------|------------------------|--7--8--7~------------|
--L--------L--7----9----|--9br------9-7-9--------|----------------------|
------------------------|------------------------|----------------------|
------------------------|------------------------|----------------------|
------------------------|------------------------|----------------------|


  H         Q     Q        W                      Q     E   E   Q     S S  S S  
-----------------------|----------------------|--------------------------------|
--L--------------15----|----------------------|--------------------------------|
-----------14----------|--14br----------------|---L----14--12--11----12---14---|
-----------------------|----------------------|--------------------------------|
-----------------------|----------------------|--------------------------------|
-----------------------|----------------------|--------------------------------|


   Q.      S  S  H            E   E   E   E   E   E   E   E   
--------------------------|----------------------12--14--15--|
--------------------------|----------15------15--------------|
--14------12-11-12--------|--11--12------12------------------|
--------------------------|----------------------------------|
--------------------------|----------------------------------|
--------------------------|----------------------------------|


   H          Q.        S  S     H          Q.       E       W                  
--14~--------15br------15-14-|--15~--------17b------17b--|--17b----------------|
-----------------------------|---------------------------|---------------------|
-----------------------------|---------------------------|---------------------|
-----------------------------|---------------------------|---------------------|
-----------------------------|---------------------------|---------------------|
-----------------------------|---------------------------|---------------------|


   W                    H.             E   E      Q.      S  S  E   E   E   E   
---L----------------|--17b------------14--15--|--17------14-15-14------14--15--|
--------------------|-------------------------|--------------------17----------|
--------------------|-------------------------|--------------------------------|
--------------------|-------------------------|--------------------------------|
--------------------|-------------------------|--------------------------------|
--------------------|-------------------------|--------------------------------|


   Q.      E   H            W                    H.             E   E   
--14---------------------|-------------------|-----------------14--15--|
----------15-------------|-------------------|-------------------------|
--------------16~--------|--L----------------|--16~--------------------|
-------------------------|-------------------|-------------------------|
-------------------------|-------------------|-------------------------|
-------------------------|-------------------|-------------------------|


   Q.      S  S  E   E   E   E      E    E    E    E    E    E    E   E   
--17------14-15-14------14--15--|--14h--15p--14h--15p--14h--15p--14------|
--------------------17----------|------------------------------------15--|
--------------------------------|----------------------------------------|
--------------------------------|----------------------------------------|
--------------------------------|----------------------------------------|
--------------------------------|----------------------------------------|


   H.            E   S  S     H        E   S  S  S  S  S  S  
--------------------14-15-|--17--------L--14-15-17-14-15-14-|
--17~------------L--------|---------------------------------|
--------------------------|---------------------------------|
--------------------------|---------------------------------|
--------------------------|---------------------------------|
--------------------------|---------------------------------|


   S  S  S  S  S  S  S  S  S  S  S  S  S  S  S  S     Q       H.             
--17-15-14----------------------------------------|-------------------------|
-----------17-15----------------------------------|-------------------------|
-----------------17-16-14-------------------------|-------------------------|
--------------------------17-16-14----------------|--16br----16~------------|
-----------------------------------17-15-14-15-17-|-------------------------|
--------------------------------------------------|-------------------------|


  W                    E    E   E    E   E    E   E    E   
-------------------|--------------------------------------|
-------------------|-----------------------------15S--17--|
-------------------|-----------12S--14--16S--17-----------|
--L----------------|--14S--16-----------------------------|
-------------------|--------------------------------------|
-------------------|--------------------------------------|


   E    E   E    E   Q.      E      W                    W                 
--14S--15--17S--19--20b---------|--22b----------------|--L----------------|
--------------------------------|---------------------|-------------------|
--------------------------------|---------------------|-------------------|
--------------------------------|---------------------|-------------------|
--------------------------------|---------------------|-------------------|
--------------------------------|---------------------|-------------------|


   W                     E.     S  H.             
--22b----------------|--22br---19-22~------------|
---------------------|---------------------------|
---------------------|---------------------------|
---------------------|---------------------------|
---------------------|---------------------------|
---------------------|---------------------------|


       |--3--|      |--3--|      |--3--|      |--3--|  
   E   S  S  S  E   S  S  S  E   S  S  S  E   S  S  S  
--19--19-20-22-17--17-19-20-15--15-17-19-14--14-15-17-|
------------------------------------------------------|
------------------------------------------------------|
------------------------------------------------------|
------------------------------------------------------|
------------------------------------------------------|


       |--3--|      |--3--|      |--3--|  |--3--|      
   E   S  S  S  E   S  S  S  E   S  S  S  S  S  S  E   
--12--12-14-15-15--15-14-12-12------------------------|
--------------------------------15-13-12--------------|
-----------------------------------------14-12-11-----|
--------------------------------------------------14--|
------------------------------------------------------|
------------------------------------------------------|


   |-3-|  |--3--|  |--3--|  |------3-----|  |------3-----|      
   E   S  S  S  S  S  S  S  S  S  E   S  S  S  S  E   S  S  E   
--12-----------------------------------------------------------|
------15-13-12-------------------------------------------------|
---------------14-12-11----------------------------------------|
------------------------14-12----14--12------------------------|
------------------------------15--------15-14-12---------------|
-------------------------------------------------15--14-12-10--|


   E   E   E   E   E   E   E   E      Q       H          E   E   
----------------------------------|-----------------------------|
----------------------------------|-----------------------------|
----------------------------------|--14br----14~----------------|
------------------------------12--|---------------------12--14--|
------------------12--14--15------|-----------------------------|
--10--12--14--15------------------|-----------------------------|


   E   Q       S  S  H            Q.      E   E   E   Q      
-------------------------------|----------------------------|
-------------------------------|----------------------------|
--12--14br----14-12-14~--------|--L------12--11--12--11~----|
-------------------------------|----------------------------|
-------------------------------|----------------------------|
-------------------------------|----------------------------|


        |----3---|   |----3---|   |----3---|   
  Q     E    E   E   E    E   E   E    E   E   
----------------------------------------------|
------------12--15-------12--15-------12--15--|
--L----14b----------14b----------14b----------|
----------------------------------------------|
----------------------------------------------|
----------------------------------------------|


   |----3---|   |----3---|   |--3--|  |--3--|  |--3--|  |--3--|  
   E    E   E   E    E   E   S  S  S  S  S  S  S  S  S  S  S  S  
----------------------------------------------------------------|
-------12--15-------12--15--12----12-15-12----12-15-12----12-15-|
--14b----------14b-------------14----------14----------14-------|
----------------------------------------------------------------|
----------------------------------------------------------------|
----------------------------------------------------------------|


   |--3--|  |--3--|  |--3--|  |--3--|  |--3--|  |--3--|  |--3--|  |--3--|  
   S  S  S  S  S  S  S  S  S  S  S  S  S  S  S  S  S  S  S  S  S  S  S  S  
--------------------------------------------------------------------------|
--12----12-15-12----12-15-12----12-15-12----12-15-12----12-15-12----12-15-|
-----14----------14----------14----------14----------14----------14-------|
--------------------------------------------------------------------------|
--------------------------------------------------------------------------|
--------------------------------------------------------------------------|


   |--3--|  |--3--|  |--3--|  |--3--|                 
   S  S  S  S  S  S  S  S  S  S  S  S  S  S  Q.       
-----------------------------------------------------|
--12----12-15-12----12-15-12----12-15-12-------------|
-----14----------14----------14----------14-14b------|
-----------------------------------------------------|
-----------------------------------------------------|
-----------------------------------------------------|


   Q.        S  S  E   E   Q        H.            E   S  S  
--------------------------------|--------------------------|
--------------------------12----|--12b------------L--15-13-|
--14br------14-12-11--12--------|--------------------------|
--------------------------------|--------------------------|
--------------------------------|--------------------------|
--------------------------------|--------------------------|


   Q.       S  S  E   E   E   E      W                   
---------------------------------|----------------------|
--12~------12--------------------|----------------------|
--------------14-12--11--12--14--|--14br----------------|
---------------------------------|----------------------|
---------------------------------|----------------------|
---------------------------------|----------------------|


                            |---3---|   |---3--|              
   E   H.            E      E   E   E   E   E  E   H          
------------------------|------------------------------------|
------------------------|--12--------------------------------|
--12--14~------------L--|--12--12--11--------------9---------|
------------------------|--------------14--12--L--12b--------|
------------------------|------------------------------------|
------------------------|------------------------------------|


  Q.      E   E   E   E   E      E   E   E   E   E   E   E   E   
-----------------------------|----------------------------------|
-----------------------------|----------------------------------|
--L------12--11--12--11--12--|--14--16--14--16--17--16--17--19--|
--L------14--12--14--12--14--|--16--17--16--17--19--17--19--21--|
-----------------------------|----------------------------------|
-----------------------------|----------------------------------|


   E   E   E   E   E   Q.        Q     S  S  E   E   Q.       
------------------------------|-----------------17-----------|
--17--15--17--19--20b--L------|--L----20-19-20------20~------|
--17--16--17--19--21----------|------------------------------|
------------------------------|------------------------------|
------------------------------|------------------------------|
------------------------------|------------------------------|


   |--3--|  |--3--|  |--3--|  |--3--|  |--3--|  |--3--|  |--3--|  |--3--|  
   S  S  S  S  S  S  S  S  S  S  S  S  S  S  S  S  S  S  S  S  S  S  S  S  
-----15-19-15----15-19-15----15-19-15----15-20-15----15-20-15----15-20-15-|
--17----------17----------17----------17----------17----------17----------|
--------------------------------------------------------------------------|
--------------------------------------------------------------------------|
--------------------------------------------------------------------------|
--------------------------------------------------------------------------|


   |--3--|  |--3--|  |--|   |------3-----|  |-3-|  |--3--|  |--3--|  
   S  S  S  S  S  S  S  E   S  S  E   S  S  E   S  S  S  S  S  S  S  
-----15-20-15----20-19-17--15-17-15--14----14-----------------------|
--17----------17------------------------17-----17-15----------------|
-----------------------------------------------------17-16-14-------|
--------------------------------------------------------------17-16-|
--------------------------------------------------------------------|
--------------------------------------------------------------------|


   |-3-|  |--3--|  |----3----|   |--3--|  |--3--|  |-3-|  |--|   
   E   S  S  S  S  S  S  E   E   S  S  S  S  S  S  E   S  S  E   
----------------------------------------------------------------|
----------------------------------------------------------------|
----------------------------------------------------------------|
--14----------------------------------------------12------------|
------17-15-14---------------------------12-14-15-----15-14-12--|
---------------17-15-14-12--14--12-14-15------------------------|


   |--3--|  |-3-|  |--|   |--|              
   S  S  S  E   S  S  E   S  E   H          
-------------------------------------------|
-------------------------------------------|
--------------------------------11~--------|
-------------------------12-14-------------|
------------------14-15--------------------|
--15-14-12-14--15--------------------------|


                   |---3---|   |---3---|   
   E   E   E   E   E   E   E   E   E   E   
------------------------------------------|
------------------------------------------|
-------9-------9-------9-------9-------9--|
--12b-----12b-----12b-----12b-----12b-----|
------------------------------------------|
------------------------------------------|


   S  S  S  S  S  S  S  S  S  S  S  S  S  S  S  S     W                  
--------------------------------------------------|---------------------|
--------------------------------------------------|---------------------|
------9-----9-----9-----9-----9-----9-----9-----9-|---------------------|
--12b---12b---12b---12b---12b---12b---12b---12b---|--12b----------------|
--------------------------------------------------|---------------------|
--------------------------------------------------|---------------------|


  W                   W                  
-------------------|-------------------||
-------------------|-------------------||
-------------------|-------------------||
--L----------------|--L----------------||
-------------------|-------------------||
-------------------|-------------------||




Duration Legend
---------------
W - whole
H - half
Q - quarter
E - 8th
S - 16th
T - 32nd
X - 64th
. - note dotted
|-n-|  - n-tuplets


Tablature Legend
----------------
L - tied note
x - dead note
g - grace note
(n) - ghost note
> - accentuded note
NH - natural harmonic
AH - artificial harmonic
TH - tapped harmonic
SH - semi harmonic
PH - pitch harmonic
h - hammer on
p - pull off
b - bend
br - bendRelease
pb - preBend
pbr - preBendRelease
brb - bendReleaseBend
\n/ - tremolo bar dip
\n - tremolo bar dive
-/n - tremolo bar Release up
/n\ - tremolo bar inverted dip
/n - tremolo bar return
-\n - tremolo bar Release down
S - shift slide
s - legato slide
/ -  slide into from below or out of upwards
\ -  slide into from above or out of downwards
~ - vibrato
W - wide vibrato
tr - trill
TP - tremolo picking
T - tapping
S - slap
P - pop
< - fade in
^ - brush up
v - brush down
comments
We did not receive enough feedback on this tab! Please rate:
print report bad tab
1 2 3 4 5
1 comment total.
0 reply
GusM wrote on July 25 2010, 11:51 pm

Is this the live solo that Gus G plays before the Fire and The Fury?

I want to post or [tab]
guest
You may want to rate the tab now too:
select rating
Please do not post tabs as comments. Select "correction" instead!