Oops, an error
Loading. Please wait.

Kill To Live Tab

ver1
ver1

Intro

Whole song

Interactive

More versions @911Tabs.com
631 views 3 this week
no commentswrite comment
1 2 3 4 5
please rate
Autoscroll
+/-
esc
set tempo
stop
Contributor
Tuning
D G C F A D
WARNING: You are trying to view
                                    content from Ultimate-Guitar.com
                                    in an unauthorized application,
                                    which is prohibited.

                                    Please use an official Ultimate
                                    Guitar Tabs application for iPhone,
                                    iPad or Android to access legitimate
                                    chords, guitar, bass, and drum tabs
                                    from Ultimate-Guitar.com database.

                                    Type "ultimate guitar tabs" in Apple
                                    App Store's or Android Market's
                                    search to find the application.
NOT tabbed by me. From the guitar pro version.

             W         W
     E  E    Q    E    Q    E
D||------------------------------|
A||------------------------------|
F||------------------------------|
C||------------------------------|
G||--2--2--8-------7-------------|
D||--0--0---------0---------0----|


    W
    Q    E    Q    E  E   E
-------------------------------|
-------------------------------|
-------------------------------|
-------------------------------|
--3-------2-------5s--7--------|
---------0---------0--5s--7----|


          W         W
  E  E    Q    E    Q    E
------------------------------|
------------------------------|
------------------------------|
------------------------------|
--2--2--8-------7-------------|
--0--0---------0---------0----|


    W
    Q    E    Q    E  Q
-----------------------------|
-----------------------------|
-----------------------------|
-----------------------------|
--3-------2-------3----------|
---------0---------0--1------|


          W         W
  E  E    Q    E    Q    E
------------------------------|
------------------------------|
------------------------------|
------------------------------|
--2--2--8-------7-------------|
--0--0---------0---------0----|


    W
    Q    E    Q    E  E   E
-------------------------------|
-------------------------------|
-------------------------------|
-------------------------------|
--3-------2-------5s--7--------|
---------0---------0--5s--7----|


          W         W
  E  E    Q    E    Q    E     W
----------------------------|---------------------|
----------------------------|---------------------|
----------------------------|---------------------|
-------------------------3--|--L------------------|
--2--2--8-------7----1--|--L----------------------|
--0--0---------0------------|---------------------|


  S S S S Q    S S Q    S S
----------------------------|
----------------------------|
----------------------------|
----------3--------2--------|
----------1--------0--------|
--0-0-0-0------0-0------0-0-|


  Q    S S Q    S S E   E
---------------------------|
---------------------------|
---------------------------|
--------------------7s--9--|
--3--------2--------5s--7--|
--1----0-0-0----0-0--------|


  S S S S Q    S S Q    S S
----------------------------|
----------------------------|
----------------------------|
----------3--------2--------|
----------1--------0--------|
--0-0-0-0------0-0------0-0-|


                      W
  Q.     E  S S S S   Q
-----------------------------|
-----------------------------|
-----------------------------|
-----------------------------|
--3---------7-5--------------|
--1------0------7-5-7--------|


  S S S S Q    S S Q    S S
----------------------------|
----------------------------|
----------------------------|
----------3--------2--------|
----------1--------0--------|
--0-0-0-0------0-0------0-0-|


  Q    S S Q    S S E   E     S S S S Q    S S Q    E
---------------------------|---------------------------|
---------------------------|---------------------------|
---------------------------|---------------------------|
--------------------7s--9--|----------3--------2----7--|
--3--------2--------5s--7--|----------1--------0----5--|
--1----0-0-0----0-0--------|--0-0-0-0------0-0------5--|


                     W
  Q.      E    E     Q.         W
----------------------------|--12--------------------|
----------------------------|--15b~------------------|
----------------------------|------------------------|
--L-------------------------|------------------------|
--L-------------------------|------------------------|
--L------12\--12\--3------|--------------------------|


   W                      W
--15------------------|--14------------------|
--18b~----------------|--17b~----------------|
----------------------|----------------------|
----------------------|----------------------|
----------------------|----------------------|
----------------------|----------------------|


   W
--17------------------|
--20b~----------------|
----------------------|
----------------------|
----------------------|
----------------------|


   S  S  S  S  S  S  S  S  S  S  S  S  S  S  S  S
--18-------18-------18----18-------18-------18----|
-----17-15----17-15----17----17-15----17-15----17-|
--------------------------------------------------|
--------------------------------------------------|
--------------------------------------------------|
--------------------------------------------------|


   S  S  S  S  S  S  S  S  S  S  S  S  S  S  S  S
--17-------17-------17----17-------17-------17----|
-----17-15----17-15----17----17-15----17-15----17-|
--------------------------------------------------|
--------------------------------------------------|
--------------------------------------------------|
--------------------------------------------------|


   S  S  S  S  S  S  S  S  S  S  S  S  Q
--15-16-15-------------------------------------|
-----------17-15-17-15----------------15br~----|
-----------------------18-16-14-------14br~----|
--------------------------------17-14----------|
-----------------------------------------------|
-----------------------------------------------|


  H.           Q        S S S S E  S S S S E  S S E
---------------------|-------------------------------|
--L------------L\----|-------------------------------|
--L------------L\----|-------------------------------|
---------------------|-------------------------------|
---------------------|----------2----------2------2--|
---------------------|--0-0-0-0-0--0-0-0-0-0--0-0-0--|


  E  S S S S Q    E  E   E
----------------------------|
----------------------------|
----------------------------|
------------------5--5s--3--|
--2----------2----3--3s--1--|
--0--0-0-0-0-0----3--3s--1--|


  S S S S E  S S S S E  S S E
-------------------------------|
-------------------------------|
-------------------------------|
-------------------------------|
----------2----------2------2--|
--0-0-0-0-0--0-0-0-0-0--0-0-0--|


  E  S S S S E  E   E  Q
----------------------------|
----------------------------|
----------------------------|
----------------------------|
--2--------------------3----|
--0--0-0-0-0-0--1~--0--1----|


  S S S S E  S S S S E  S S E
-------------------------------|
-------------------------------|
-------------------------------|
-------------------------------|
----------2----------2------2--|
--0-0-0-0-0--0-0-0-0-0--0-0-0--|


  E  S S S S Q    E  E   E
----------------------------|
----------------------------|
----------------------------|
------------------5--5s--3--|
--2----------2----3--3s--1--|
--0--0-0-0-0-0----3--3s--1--|


  S S S S E  S S S S E  S S E
-------------------------------|
-------------------------------|
----------------------------7--|
----------------------------7--|
----------2----------2------5--|
--0-0-0-0-0--0-0-0-0-0--0-0----|


                   W
  Q.     E   E     Q.
----------------------------|
----------------------------|
--L-------------------------|
--L-------------------------|
--L------5\--5\--7----------|
----------------------------|


  S S S S E  S S S S E  S S E
-------------------------------|
-------------------------------|
-------------------------------|
-------------------------------|
----------2----------2------2--|
--0-0-0-0-0--0-0-0-0-0--0-0-0--|


  E  S S S S Q    E  E   E
----------------------------|
----------------------------|
----------------------------|
------------------5--5s--3--|
--2----------2----3--3s--1--|
--0--0-0-0-0-0----3--3s--1--|


  S S S S E  S S S S E  S S E
-------------------------------|
-------------------------------|
-------------------------------|
-------------------------------|
----------2----------2------2--|
--0-0-0-0-0--0-0-0-0-0--0-0-0--|


  E  S S S S E  E   E  Q
----------------------------|
----------------------------|
----------------------------|
----------------------------|
--2--------------------3----|
--0--0-0-0-0-0--1~--0--1----|


  S S S S E  S S S S E  S S E
-------------------------------|
-------------------------------|
-------------------------------|
-------------------------------|
----------2----------2------2--|
--0-0-0-0-0--0-0-0-0-0--0-0-0--|


  E  S S S S Q    E  E   E
----------------------------|
----------------------------|
----------------------------|
------------------5--5s--3--|
--2----------2----3--3s--1--|
--0--0-0-0-0-0----3--3s--1--|


  S S S S E  S S S S E  S S E     H         H
-------------------------------|----------------------|
-------------------------------|----------------------|
-------------------------------|----------------------|
----------------------------7--|--L-------------------|
----------2----------2------5--|--L-------------------|
--0-0-0-0-0--0-0-0-0-0--0-0-5--|--L--------12\--------|


  H.           E  E     W
---------------------|-------------------|
---------------------|-------------------|
--4------------L-----|-------------------|
--4------------L--5--|--L----------------|
--2------------L--5--|--L----------------|
------------------3--|--L----------------|


  H.           E  E     W
---------------------|-------------------|
---------------------|-------------------|
---------------------|-------------------|
--2------------L--4--|--L----------------|
------------------4--|--L----------------|
--0------------L--2--|--L----------------|


  H.           E  E     W
---------------------|-------------------|
---------------------|-------------------|
--4------------L-----|-------------------|
--4------------L--5--|--L----------------|
--2------------L--5--|--L----------------|
------------------3--|--L----------------|


  W                   E  E  E  E  E  E   Q
-------------------|---------------------------|
-------------------|---------------------------|
-------------------|---------------------------|
--2----------------|---------------------------|
--2----------------|--3--3--3--3--3--3---------|
--0----------------|--1--1--1--1--1--1--12\----|


  S S S S Q    S S E  S S E
-----------------------------|
-----------------------------|
-----------------------------|
----------3--------7------9--|
----------1--------5------7--|
--0-0-0-0------0-0----0-0----|


  E  S S E  S S E  S S E  S S
------------------------------|
------------------------------|
------------------------------|
------------------------------|
--2---------------------------|
--0--0-0-0--0-0-0--0-0-0--0-0-|


   H         E   Q      E      H.           Q
--11b--------L--13b----15b--|--L------------L\----|
--13b--------L--15b----16b--|--L------------L\----|
----------------------------|---------------------|
----------------------------|---------------------|
----------------------------|---------------------|
----------------------------|---------------------|


  S S S S Q    S S E  S S E
-----------------------------|
-----------------------------|
-----------------------------|
----------3--------7------9--|
----------1--------5------7--|
--0-0-0-0------0-0----0-0----|


  E  S S E  S S E  S S E  S S    H.           E  E
------------------------------|---------------------|
------------------------------|---------------------|
------------------------------|---------------------|
------------------------------|--5------------L--3--|
--2---------------------------|--5------------L--3--|
--0--0-0-0--0-0-0--0-0-0--0-0-|--3------------L--1--|


  H.            Q         H.            E  S  S
----------------------|--10b------------L--------|
----------------------|--10b------------L--5h-8h-|
----------------------|--------------------------|
----------------------|--------------------------|
----------------------|--------------------------|
---------------12\----|--------------------------|


  E.   S   E   Q     E   Q
--8b--------------------------|
--8b---8h-10--10-----L\-------|
---------------9~----L\-------|
------------------------------|
------------------------------|
------------------------------|


  S  S  S S  S  S S  S  S S S  S S S  S S
----------7---------------7-9----7-9-10-7-|
--8-10-11---11-10-8-10-11-----11----------|
------------------------------------------|
------------------------------------------|
------------------------------------------|
------------------------------------------|


  S  S  S S  S  S  S  S  S  S  S  S  S  S  S  S
--9-10-12-9-10-12-14-10-12-14-15-12-14-15-17-14-|
------------------------------------------------|
------------------------------------------------|
------------------------------------------------|
------------------------------------------------|
------------------------------------------------|


                                                    W
   |--3--|  |--3--|  |--3--| |--3-| |-3-|  |-3-|
   S  S  S  S  S  S  S  S  S S  S S S S S  S S S    Q
--14-15-14-12-14-12-10-12-10-9-10-9-7-9-7----------------|
------------------------------------------10-8-7-11------|
---------------------------------------------------------|
---------------------------------------------------------|
---------------------------------------------------------|
---------------------------------------------------------|


  Q    Q    E   E   E   E
-------------------10--12b--|
--L------------12-----------|
------------9---------------|
----------------------------|
----------------------------|
----------------------------|


  Q     E    Q      S   S  E    E
--L----13b--12b----10h-12-12b--12~--|
------------------------------------|
------------------------------------|
------------------------------------|
------------------------------------|
------------------------------------|


  H         H            S S S S E  S S S S E  S S E
--L---------L\--------|-------------------------------|
----------------------|-------------------------------|
----------------------|-------------------------------|
----------------------|-------------------------------|
----------------------|----------2----------2------2--|
----------------------|--0-0-0-0-0--0-0-0-0-0--0-0-0--|


  E  S S S S Q    E  E   E
----------------------------|
----------------------------|
----------------------------|
------------------5--5s--3--|
--2----------2----3--3s--1--|
--0--0-0-0-0-0----3--3s--1--|


  S S S S E  S S S S E  S S E
-------------------------------|
-------------------------------|
-------------------------------|
-------------------------------|
----------2----------2------2--|
--0-0-0-0-0--0-0-0-0-0--0-0-0--|


  E  S S S S E  E   E  Q
----------------------------|
----------------------------|
----------------------------|
----------------------------|
--2--------------------3----|
--0--0-0-0-0-0--1~--0--1----|


  S S S S E  S S S S E  S S E
-------------------------------|
-------------------------------|
-------------------------------|
-------------------------------|
----------2----------2------2--|
--0-0-0-0-0--0-0-0-0-0--0-0-0--|


  E  S S S S Q    E  E   E
----------------------------|
----------------------------|
----------------------------|
------------------5--5s--3--|
--2----------2----3--3s--1--|
--0--0-0-0-0-0----3--3s--1--|


  S S S S E  S S S S E  S S E
-------------------------------|
-------------------------------|
----------------------------7--|
----------------------------7--|
----------2----------2------5--|
--0-0-0-0-0--0-0-0-0-0--0-0----|


                   W
  Q.     E   E     Q.
----------------------------|
----------------------------|
--L-------------------------|
--L-------------------------|
--L------5\--5\--7----------|
----------------------------|


  S S S S E  S S S S E  S S E
-------------------------------|
-------------------------------|
-------------------------------|
-------------------------------|
----------2----------2------2--|
--0-0-0-0-0--0-0-0-0-0--0-0-0--|


  E  S S S S Q    E  E   E
----------------------------|
----------------------------|
----------------------------|
------------------5--5s--3--|
--2----------2----3--3s--1--|
--0--0-0-0-0-0----3--3s--1--|


  S S S S E  S S S S E  S S E
-------------------------------|
-------------------------------|
-------------------------------|
-------------------------------|
----------2----------2------2--|
--0-0-0-0-0--0-0-0-0-0--0-0-0--|


  E  S S S S E  E   E  Q
----------------------------|
----------------------------|
----------------------------|
----------------------------|
--2--------------------3----|
--0--0-0-0-0-0--1~--0--1----|


  S S S S E  S S S S E  S S E
-------------------------------|
-------------------------------|
-------------------------------|
-------------------------------|
----------2----------2------2--|
--0-0-0-0-0--0-0-0-0-0--0-0-0--|


  E  S S S S Q    E  E   E
----------------------------|
----------------------------|
----------------------------|
------------------5--5s--3--|
--2----------2----3--3s--1--|
--0--0-0-0-0-0----3--3s--1--|


  S S S S E  S S S S E  S S E     H         H
-------------------------------|----------------------|
-------------------------------|----------------------|
-------------------------------|----------------------|
----------------------------7--|--L-------------------|
----------2----------2------5--|--L-------------------|
--0-0-0-0-0--0-0-0-0-0--0-0-5--|--L--------12\--------|


  H.           E  E     W
---------------------|-------------------|
---------------------|-------------------|
--4------------L-----|-------------------|
--4------------L--5--|--L----------------|
--2------------L--5--|--L----------------|
------------------3--|--L----------------|


  H.           E  E     W
---------------------|-------------------|
---------------------|-------------------|
---------------------|-------------------|
--2------------L--4--|--L----------------|
------------------4--|--L----------------|
--0------------L--2--|--L----------------|


  H.           E  E     W
---------------------|-------------------|
---------------------|-------------------|
--4------------L-----|-------------------|
--4------------L--5--|--L----------------|
--2------------L--5--|--L----------------|
------------------3--|--L----------------|


  W                   E  E  E  E  E  E   Q
-------------------|---------------------------|
-------------------|---------------------------|
-------------------|---------------------------|
--2----------------|---------------------------|
--2----------------|--3--3--3--3--3--3---------|
--0----------------|--1--1--1--1--1--1--12\----|


  S S S S Q    S S E  S S E
-----------------------------|
-----------------------------|
-----------------------------|
----------3--------7------9--|
----------1--------5------7--|
--0-0-0-0------0-0----0-0----|


  E  S S E  S S E  S S E  S S
------------------------------|
------------------------------|
------------------------------|
------------------------------|
--2---------------------------|
--0--0-0-0--0-0-0--0-0-0--0-0-|


   H         E   Q      E      H.           Q
--11b--------L--13b----15b--|--L------------L\----|
--13b--------L--15b----16b--|--L------------L\----|
----------------------------|---------------------|
----------------------------|---------------------|
----------------------------|---------------------|
----------------------------|---------------------|


  S S S S Q    S S E  S S E
-----------------------------|
-----------------------------|
-----------------------------|
----------3--------7------9--|
----------1--------5------7--|
--0-0-0-0------0-0----0-0----|


  E  S S E  S S E  S S E  S S    H.           E  E
------------------------------|---------------------|
------------------------------|---------------------|
------------------------------|---------------------|
------------------------------|--5------------L--3--|
--2---------------------------|--5------------L--3--|
--0--0-0-0--0-0-0--0-0-0--0-0-|--3------------L--1--|


  H.            Q        E  E  E  E  E  E  E  E
----------------------|--------------------------|
----------------------|--------------------------|
----------------------|--------------------------|
----------------------|--------------------------|
----------------------|--2--2--2--2--2--2--2--2--|
---------------12\----|--0--0--0--0--0--0--0--0--|


  Q     E   Q     E   Q         H         E  Q     E
----------------------------|--/9~--------L--7~----9~--|
----------------------------|--------------------------|
----------------------------|--------------------------|
--9\------------------------|--------------------------|
--7\------------------------|--------------------------|
--------0--12\----0--12\----|--------------------------|


  H         E  Q      E      H         E.  E.   E
---------------------/7~--|--7~--------L---5~---4~--|
--9~--------L--9~---------|-------------------------|
--------------------------|-------------------------|
--------------------------|-------------------------|
--------------------------|-------------------------|
--------------------------|-------------------------|


  W                    Q.     Q.     Q
--------------------|---------------------|
--5~----------------|----------------9----|
--------------------|---------6-----------|
--------------------|--7------------------|
--------------------|---------------------|
--------------------|---------------------|


  E    Q.      Q     E   E
-----/12------17----21------|
--L---------------------21--|
----------------------------|
----------------------------|
----------------------------|
----------------------------|


  Q     Q     S  S    S  S  S  S  S  S
-------12b----L-12pb-12----------------|
--L---------------------14-12-14-12----|
------------------------------------14-|
---------------------------------------|
---------------------------------------|
---------------------------------------|


   S  S  S  S  H.
-----------------------------|
--10----12----10~------------|
-----11----11----------------|
-----------------------------|
-----------------------------|
-----------------------------|


   |-----3-----|      |-------3------|
   Q     Q     Q      Q        Q     Q
--14----16----17----/21----19g17----16----|
------------------------------------------|
------------------------------------------|
------------------------------------------|
------------------------------------------|
------------------------------------------|


   Q.        H         E
--15br------17~-----------|
--------------------------|
--------------------------|
--------------------------|
--------------------------|
--------------------------|


        |---3---|       |---3---|       |---3---|
   E    S   S   S  E    S   S   S  E    S   S   S  E
-------16h-17p-16------16h-17p-16------16h-17p-16------1-|
--17b-------------17b-------------17b-------------17b----|
---------------------------------------------------------|
---------------------------------------------------------|
---------------------------------------------------------|
---------------------------------------------------------|


        |---3---|       |---3---|
   E    S   S   S  E    S   S   S  E    S  S  S  S  S  S
-------16h-17p-16------16h-17p-16------16-19-17-16-14-16-|
--17b-------------17b-------------17b--------------------|
---------------------------------------------------------|
---------------------------------------------------------|
---------------------------------------------------------|
---------------------------------------------------------|


   S  S S  S S S S S S S S S S S S S
--12-10-9-10-9-7-5-------------------|
-------------------9-7-5-7-5---------|
-----------------------------7-6-----|
---------------------------------9-7-|
-------------------------------------|
-------------------------------------|


                  W
  S S S S S S S S H           W
---------------------------|-------------------|
---------------------------|-------------------|
--6------------------------|-------------------|
----9-7-6-9-7-6---7--------|--L----------------|
----------------9----------|-------------------|
---------------------------|-------------------|


                              W         W
  W                   E  E    Q    E    Q    E
-------------------|------------------------------|
-------------------|------------------------------|
-------------------|------------------------------|
--L----------------|------------------------------|
-------------------|--2--2--8-------7-------------|
-------------------|--0--0---------0---------0----|


    W
    Q    E    Q    E  Q
-----------------------------|
-----------------------------|
-----------------------------|
-----------------------------|
--3-------2-------3----------|
---------0---------0--1------|


          W         W
  E  E    Q    E    Q    E
------------------------------|
------------------------------|
------------------------------|
------------------------------|
--2--2--8-------7-------------|
--0--0---------0---------0----|


    W
    Q    E    Q    E  E   E
-------------------------------|
-------------------------------|
-------------------------------|
-------------------------------|
--3-------2-------5s--7--------|
---------0---------0--5s--7----|


          W         W
  E  E    Q    E    Q    E     W
----------------------------|---------------------|
----------------------------|---------------------|
----------------------------|---------------------|
-------------------------3--|--L------------------|
--2--2--8-------7----1--|--L----------------------|
--0--0---------0------------|---------------------|


  S S S S Q    S S E  S S E
-----------------------------|
-----------------------------|
-----------------------------|
----------3--------7------9--|
----------1--------5------7--|
--0-0-0-0------0-0----0-0----|


  E  S S E  S S E  S S E  S S
------------------------------|
------------------------------|
------------------------------|
------------------------------|
--2---------------------------|
--0--0-0-0--0-0-0--0-0-0--0-0-|


   H         E   Q      E      H.           Q
--11b--------L--13b----15b--|--L------------L\----|
--13b--------L--15b----16b--|--L------------L\----|
----------------------------|---------------------|
----------------------------|---------------------|
----------------------------|---------------------|
----------------------------|---------------------|


  S S S S Q    S S E  S S E
-----------------------------|
-----------------------------|
-----------------------------|
----------3--------7------9--|
----------1--------5------7--|
--0-0-0-0------0-0----0-0----|


  E  S S E  S S E  S S E  S S    H.           E  E
------------------------------|---------------------|
------------------------------|---------------------|
------------------------------|---------------------|
------------------------------|--5------------L--3--|
--2---------------------------|--5------------L--3--|
--0--0-0-0--0-0-0--0-0-0--0-0-|--3------------L--1--|


  W                   S S S S Q    S S E  S S E
-------------------|-----------------------------|
-------------------|-----------------------------|
-------------------|-----------------------------|
--L----------------|----------3--------7------9--|
--L----------------|----------1--------5------7--|
--L----------------|--0-0-0-0------0-0----0-0----|


  E  S S E  S S E  S S E  S S
------------------------------|
------------------------------|
------------------------------|
------------------------------|
--2---------------------------|
--0--0-0-0--0-0-0--0-0-0--0-0-|


   H         E   Q      E      H.           Q
--11b--------L--13b----15b--|--L------------L\----|
--13b--------L--15b----16b--|--L------------L\----|
----------------------------|---------------------|
----------------------------|---------------------|
----------------------------|---------------------|
----------------------------|---------------------|


  S S S S Q    S S E  S S E
-----------------------------|
-----------------------------|
-----------------------------|
----------3--------7------9--|
----------1--------5------7--|
--0-0-0-0------0-0----0-0----|


  E  S S E  S S E  S S E  S S    H.           E  E
------------------------------|---------------------|
------------------------------|---------------------|
------------------------------|---------------------|
------------------------------|--5------------L--3--|
--2---------------------------|--5------------L--3--|
--0--0-0-0--0-0-0--0-0-0--0-0-|--3------------L--1--|


  W
-------------------||
-------------------||
-------------------||
-------------------||
-------------------||
-------------------||
comments
We did not receive enough feedback on this tab! Please rate:
print report bad tab
1 2 3 4 5
I want to post or [tab]
guest
You may want to rate the tab now too:
select rating
Please do not post tabs as comments. Select "correction" instead!