Oops, an error
Loading. Please wait.

Bello Abril Tab

2,265 views 1 this week
no commentswrite comment
1 2 3 4 5
excellent!
x 1
Autoscroll
+/-
esc
set tempo
stop
Contributor
Difficulty
intermediate
Hey! There's an official Ultimate Guitar app which is ideal
for learning songs when you're away from computer. Get the app
WARNING: You are trying to view
                                    content from Ultimate-Guitar.com
                                    in an unauthorized application,
                                    which is prohibited.

                                    Please use an official Ultimate
                                    Guitar Tabs application for iPhone,
                                    iPad or Android to access legitimate
                                    chords, guitar, bass, and drum tabs
                                    from Ultimate-Guitar.com database.

                                    Type "ultimate guitar tabs" in Apple
                                    App Store's or Android Market's
                                    search to find the application.
Fito Páez
Bello Abril

Capo on 4th Fret

Well this works pretty good for me, hear the song to check the timing of the notes.


Intro & Part 1

|-----------3-------------------3--|-------------------2--------------|
|---------------3------------------|---3-------------------0----------|
|-------0-----------0-------0------|-------0-------2-----------2------|
|----------------------------------|-----------2-------------------1--|
|----------------------------------|----------------------------------|
|---3-------------------3----------|----------------------------------|


|-------2-------------------3------|---------------3------------------|
|-----------0-------------------0--|-------------------0--------------|
|---2-----------2-------0----------|---0-------0----------------------|
|-------------------2--------------|-------0--------------------------|
|----------------------------------|-----------------------0---2---3--|
|----------------------------------|----------------------------------|


|-------0-------------------0------|---------------3------------------|
|-----------1-------------------1--|-------------------3--------------|
|---------------0------------------|---0-------0-----------0-------0--|
|---2-------------------2----------|-------0-------------------0------|
|-------------------3--------------|----------------------------------|
|----------------------------------|----------------------------------|

                                             
|---3-------------------0---2------|-------3-\-2-----------0---2------|
|-------3-----------------------3--|---------------3---------------3--|
|-----------0-------2--------------|---2---------------2--------------|
|---------------0------------------|----------------------------------|
|----------------------------------|----------------------------------|
|----------------------------------|----------------------------------|

                                       2:
|----------------------------------|   |---3---------------3--------------|
|---------------------------1---0--|   |---3-------------------0----------|
|---2-----------0------------------|x2 |---0-----------0-----------0------|
|-----------2-----------0----------|   |---0-------2-------------------2--|
|-------3-----------2--------------|   |---2------------------------------|
|----------------------------------|   |---3------------------------------|


|-------3-------------------2------|---------------2------------------|
|-----------0-------------------0--|-------------------0--------------|
|---0-----------0-------2----------|---2-------2-----------2-------0--|
|-------------------1--------------|-------1-------------------2------|
|----------------------------------|----------------------------------|
|----------------------------------|----------------------------------|


|---3-------------------3----------|-----------0-------------------0--|
|-------0-------------------0------|---------------0------------------|
|-----------0-------0-----------0--|-------0-----------0-------0------|
|---------------2------------------|----------------------------------|
|----------------------------------|---1-------------------1----------|
|----------------------------------|----------------------------------|


|-------------------3--------------|-------3-------------------0---2--|
|---0-------------------3----------|-----------3----------------------|
|-------0-------0-----------0------|---0-----------0-------2----------|
|-----------0-------------------0--|-------------------0--------------|
|----------------------------------|----------------------------------|
|----------------------------------|----------------------------------|


|-----------3-\-2-----------0---2--|--------------------------------------|
|---3---------------3--------------|---3---------------------------1---1--|
|-------2---------------2----------|-------2-----------0------------------|
|----------------------------------|---------------2-----------0-------2--|
|----------------------------------|-----------3-----------2--------------|
|----------------------------------|--------------------------------------|

Chorus:
|---3---------------3--------------|-------3-------------------2------|
|---3-------------------3----------|-----------3-------------------0--|
|---0-----------0-----------0------|---0-----------0-------2----------|
|---0------------------------------|-------------------2--------------|
|---2------------------------------|----------------------------------|
|---3-------3-------------------3--|----------------------------------|


|---------------2------------------|---3-------------------3----------|
|-------------------0--------------|-------0-------------------0------|
|---2-------2-----------2-------0--|-----------0-------0--------------|
|-------1-------------------2------|---------------0------------------|
|----------------------------------|-------------------------------0--|
|----------------------------------|----------------------------------|


|---------------0------------------|---0-------------------3----------|
|-------------------1--------------|-------1-------------------3------|
|-----------------------0----------|-----------0-------0-----------0--|
|-----------2-------------------2--|---------------0------------------|
|---2---3-------------------3------|----------------------------------|
|----------------------------------|----------------------------------|


|-----------3-------------------0--|---2-----------3---2-----------0--|
|---------------3------------------|-------3---------------3----------|
|-------0-----------0-------2------|-----------2---------------2------|
|---0-------------------0----------|----------------------------------|
|----------------------------------|----------------------------------|
|----------------------------------|----------------------------------|

                                         3:
|---2----------------------------------|-------3--------------------------|
|-------3---------------------------1--|---1---3---------------0----------|
|-----------2-----------0--------------|-------0-----------0-------0------|
|-------------------2-----------0------|---2---0-----------------------0--|
|---------------3-----------2----------|-------2--------------------------|
|--------------------------------------|-------3-------3------------------|


|----------------------------------|----------------------------------|
|-----------0-------------------3--|-------------------3--------------|
|-------0-------0-----------0------|---0-----------0-------0----------|
|-------------------0--------------|-------0-------------------0------|
|----------------------------------|----------------------------------|
|---3-------------------2----------|-----------2-------------------1--|


|----------------------------------|----------------------------------|
|-------3-------------------3------|---------------1------------------|
|---0-------0-----------0-------0--|-------------------0--------------|
|---------------0------------------|---0-------2-----------2-------2--|
|----------------------------------|----------------------------------|
|-------------------1--------------|-------0-------------------0------|


|-----------------------3----------|-----------3-------------------3--|
|---1-----------------------3------|---------------3------------------|
|-------0-----------0-----------0--|-------0-----------0-------0------|
|-----------2---1------------------|---1-------------------0----------|
|----------------------------------|----------------------------------|
|----------------------------------|----------------------------------|


|-------------------3------------------|---5-------------------5----------|
|---3-------------------3--------------|-------5-------------------5------|
|-------0-------0-----------0-------2--|-----------2-------2-----------2--|
|-----------0-------------------2------|---------------2------------------|
|--------------------------------------|----------------------------------|
|--------------------------------------|----------------------------------|


|----------------------------------|-------------------3--------------|
|-----------3-------------------3--|-----------------------3----------|
|---------------0------------------|---0-----------0-----------0------|
|-------0-----------0-------0------|-------0---1-------------------1--|
|---5-------------------5----------|----------------------------------|
|----------------------------------|----------------------------------|


|-------3-------------------3------|---------------3------------------|
|-----------3-------------------3--|-------------------3--------------|
|---0-----------0-------0----------|---0-------0-----------0-------2--|
|-------------------0--------------|-------0-------------------2------|
|----------------------------------|----------------------------------|
|----------------------------------|----------------------------------|


|---5-------------------5----------|----------------------------------|
|-------5-------------------5------|-----------3-------------------3--|
|-----------2-------2-----------2--|---------------0------------------|
|---------------2------------------|-------0-----------0-------0------|
|----------------------------------|---5-------------------5----------|
|----------------------------------|----------------------------------|

              Chorus / End
|-------------------3--------------|-------3-------------------2------|
|-----------------------3----------|-----------3-------------------0--|
|---0-----------0-----------0------|---0-----------0-------2----------|
|-------0--------------------------|-------------------2--------------|
|----------------------------------|----------------------------------|
|-----------3-------------------3--|----------------------------------|


|---------------2------------------|---3-------------------3----------|
|-------------------0--------------|-------0-------------------0------|
|---2-------2-----------2-------0--|-----------0-------0--------------|
|-------1-------------------2------|---------------0------------------|
|----------------------------------|-------------------------------0--|
|----------------------------------|----------------------------------|


|---------------0------------------|---0-------------------3----------|
|-------------------1--------------|-------1-------------------3------|
|-----------------------0----------|-----------0-------0-----------0--|
|-----------2-------------------2--|---------------0------------------|
|---2---3-------------------3------|----------------------------------|
|----------------------------------|----------------------------------|


|-----------3-------------------0------|---------------0------------------|
|---------------3-------------------0--|-------------------0--------------|
|-------0-----------0-------0----------|---0-------0-----------0-------0--|
|---0-------------------1--------------|-------1-------------------0------|
|--------------------------------------|----------------------------------|
|--------------------------------------|----------------------------------|


|---3-------------------3----------|-----------2-------------------2--|
|-------3-------------------3------|---------------3------------------|
|-----------0-------0-----------0--|-------2-----------2-------2------|
|---------------0------------------|---0-------------------0----------|
|----------------------------------|----------------------------------|
|----------------------------------|----------------------------------|


|----------------------------------|-----------3-------3--------------|
|---3------------------------------|---1---0---3-----------3----------|
|-----------------------0----------|-----------0---------------0------|
|-------------------2-----------0--|-----------0----------------------|
|-------0---2---3-----------2------|-----------2----------------------|
|----------------------------------|-----------3-------------------3--|


|-------3--------------------------|---------------------------3-----|
|-----------3----------------------|-------------1------1------3-----|
|---0-----------0-----------0------|---------------------------0-----|
|-----------------------2----------|------0-------------2------0-----|
|-------------------3-----------2--|---------------------------2-----|
|----------------------------------|---------------------------3-----|
comments
We did not receive enough feedback on this tab! Please rate:
print report bad tab
1 2 3 4 5
I want to post or [tab]
guest
You may want to rate the tab now too:
select rating
Please do not post tabs as comments. Select "correction" instead!