Oops, an error
Loading. Please wait.

Back For More Tab

ver1
ver1

Whole song

Interactive

More versions @911Tabs.com
11,415 views 12 this week
2 commentsread comments
1 2 3 4 5
worth learning
x 4
Autoscroll
+/-
esc
set tempo
stop
Contributor
Difficulty
Tuning
intermediate
B F# B E G# C#
Hey! There's an official Ultimate Guitar app which is ideal
for learning songs when you're away from computer. Get the app
WARNING: You are trying to view
                                    content from Ultimate-Guitar.com
                                    in an unauthorized application,
                                    which is prohibited.

                                    Please use an official Ultimate
                                    Guitar Tabs application for iPhone,
                                    iPad or Android to access legitimate
                                    chords, guitar, bass, and drum tabs
                                    from Ultimate-Guitar.com database.

                                    Type "ultimate guitar tabs" in Apple
                                    App Store's or Android Market's
                                    search to find the application.
----------------------------------------------------------------------------
                                Back for More
                          Five Finger Death Punch
----------------------------------------------------------------------------

Hi, I think this is my new favorite song from Five Finger Death Punch. It just gets you 
so pumped up, and is so powerful. I’m not too crazy about the first part of the solo, 
but it is very fun to play. The third guitar is just the harmony in the guitar solo. Enjoy!

Username: dkm817 (same on X box live)
Youtube Cover: http://www.youtube.com/watch?v=zKM2DDsshDE
Email: guitardrums@rockfan.com

Guitar 1 Rhythmic (B F# B E G# C#)
Guitar 2 Lead     (B F# B E G# C#)
Guitar 2 Harmony  (B F# B E G# C#) - Only in Guitar Solo Part 2


Tab Guide...

===================================================================
(end of measures)

===================================================================
===================================================================
(end of parts)

===================================================================
===================================================================
===================================================================
(end of song)

(If there is a “continued” it is because the numbers could not
fit on 1 line.)


Intro 1 (Start off with a slide)

(x2)

Guitar 1 & 2                                           (small bend)
C#-----------------------------------------------------------------|
G#-----------------------------------------------------------------|
E ---------7~~~~~~-5~~~~~~-----------------------------------------|
B -0-------7~~~~~~-5~~~~~~-0---0---5~~~~~~-3~~~~~~-0---0---3b~~~~~-|
F#-0-------5~~~~~~-3~~~~~~-0---0---5~~~~~~-3~~~~~~-0---0---3b~~~~~-|
B -0-----------------------0---0---5~~~~~~-3~~~~~~-0---0---3b~~~~~-|
pm .                       .   .                   .   .

===================================================================

Guitar 1 & 2
C#-----------------------------------------------------------------|
G#-----------------------------------------------------------------|
E -----------------------------------------------------------------|
B ---------0---0---0---0---0~~~~~~---------0---0---0---0---0~~~~~~-|
F#---------0---0---0---0---0~~~~~~---------0---0---0---0---0~~~~~~-|
B ---------0---0---0---0---0~~~~~~---------0---0---0---0---0~~~~~~-|
pm         .   .   .   .                   .   .   .   .

===================================================================

Guitar 1 & 2
C#-----------------------------------------------------------------|
G#-----------------------------------------------------------------|
E ---------7~~~~~~-5~~~~~~-----------------------------------------|
B -0---0---7~~~~~~-5~~~~~~-0---0---5~~~~~~-3~~~~~~-0---0---3b~~~~~-|
F#-0---0---5~~~~~~-3~~~~~~-0---0---5~~~~~~-3~~~~~~-0---0---3b~~~~~-|
B -0---0-------------------0---0---5~~~~~~-3~~~~~~-0---0---3b~~~~~-|
pm .   .                   .   .                   .   .

===================================================================

Guitar 1 & 2
C#-----------------------------------------------------------------|
G#-----------------------------------------------------------------|
E -----------------------------------------------------------------|
B ---------0---0---0---0---3~~~~~~---------------------------------|
F#---------0---0---0---0-------------------3---5-----------3---5---|
B ---------0---0---0---0-----------0---0-----------0---0-----------|
pm         .   .   .   .           .   .           .   .

===================================================================
===================================================================


Verse

(x2)

Guitar 1 & 2
C#-----------------------------------------------------------------|
G#-----------------------------------------------------------------|
E ---------7~~~~~~-5~~~~~~-----------------------------------------|
B -0-------7~~~~~~-5~~~~~~-0---0---5~~~~~~-3~~~~~~-0---0---3b~~~~~-|
F#-0-------5~~~~~~-3~~~~~~-0---0---5~~~~~~-3~~~~~~-0---0---3b~~~~~-|
B -0-----------------------0---0---5~~~~~~-3~~~~~~-0---0---3b~~~~~-|
pm .                       .   .                   .   .

===================================================================

Guitar 1 & 2
C#-----------------------------------------------------------------|
G#-----------------------------------------------------------------|
E -----------------------------------------------------------------|
B ---------0---0---0---0---0~~~~~~---------0---0---0---0---0~~~~~~-|
F#---------0---0---0---0---0~~~~~~---------0---0---0---0---0~~~~~~-|
B ---------0---0---0---0---0~~~~~~---------0---0---0---0---0~~~~~~-|
pm         .   .   .   .                   .   .   .   .

===================================================================

Guitar 1 & 2
C#-----------------------------------------------------------------|
G#-----------------------------------------------------------------|
E ---------7~~~~~~-5~~~~~~-----------------------------------------|
B -0---0---7~~~~~~-5~~~~~~-0---0---5~~~~~~-3~~~~~~-0---0---3b~~~~~-|
F#-0---0---5~~~~~~-3~~~~~~-0---0---5~~~~~~-3~~~~~~-0---0---3b~~~~~-|
B -0---0-------------------0---0---5~~~~~~-3~~~~~~-0---0---3b~~~~~-|
pm .   .                   .   .                   .   .

===================================================================

Guitar 1 & 2
C#-----------------------------------------------------------------|
G#-----------------------------------------------------------------|
E -----------------------------------------------------------------|
B ---------0---0---0---0---3~~~~~~---------------------------------|
F#---------0---0---0---0-------------------3---5-----------3---5---|
B ---------0---0---0---0-----------0---0-----------0---0-----------|
pm         .   .   .   .           .   .           .   .

===================================================================
===================================================================


Pre Chorus

(x3)

Guitar 1
C#-----------------------------------------------------------------|
G#-----------------------------------------------------------------|
E -----------------------------------------------------------------|
B -----------------------------------------------------------------|
F#-3---5-------------------3---5-------------------3---5-----------|
B ---------0---0---0---0-----------0---0---0---0-----------0---0---|
pm         .   .   .   .           .   .   .   .           .   .

Guitar 2
C#-----------------------------------------------------------------|
G#-----------------------------------------------------------------|
E -----------------------------------------------------------------|
B -----------------------------------------------------------------|
F#-5---5---5---5---5---5---5---5---5---5---5---5---5---5---5---5---|
B -----------------------------------------------------------------|

===================================================================

Guitar 1
C#-----------------------------------------------------------------|
G#-----------------------------------------------------------------|
E -----------------------------------------------------------------|
B -----------------------------------------------------------------|
F#-5---6-------------------5---6-------------------5---6-----------|
B ---------0---0---0---0-----------0---0---0---0-----------0---0---|
pm         .   .   .   .           .   .   .   .           .   .

Guitar 2 (either bend or play 6th fret)
C#-----------------------------------------------------------------|
G#-----------------------------------------------------------------|
E -----------------------------------------------------------------|
B -----------------------------------------------------------------|
F#-5b--5b--5b--5b--5b--5b--5b--5b--5b--5b--5b--5b--5b--5b--5b--5b--|
B -----------------------------------------------------------------|

===================================================================

Guitar 1 & 2
C#-----------------------------------------------------------------|
G#-----------------------------------------------------------------|
E -----------------------------------------------------------------|
B -----------------------------------------------------------------|
F#-3---5-------------------5---6-------------------6---8-----------|
B ---------0---0---0---0-----------0---0---0---0-----------0---0---|
pm         .   .   .   .           .   .   .   .           .   .

===================================================================

Guitar 1 & 2
C#-----------------------------------------------------------------|
G#-----------------------------------------------------------------|
E -----------------------------------------------------------------|
B ---------------------------------8-------------------------------|
F#---------8---10--------------------------------------12--10--8---|
B -0---0-----------0---0---0---0-------0---0---0---0---------------|
pm .   .           .   .   .   .       .   .   .   .

===================================================================
===================================================================


Chorus

Guitar 1
C#-----------------------------------------------------------------|
G#-----------------------------------------------------------------|
E -----------------------------------------------------------------|
B -5~~~~~~~~~~~~~~~~~~~~~~~~~~~~~~~~~~~~~~~~~~~~~~~~~~~~~~-0---0---|
F#-5~~~~~~~~~~~~~~~~~~~~~~~~~~~~~~~~~~~~~~~~~~~~~~~~~~~~~~-0---0---|
B -5~~~~~~~~~~~~~~~~~~~~~~~~~~~~~~~~~~~~~~~~~~~~~~~~~~~~~~-0---0---|
pm                                                         .   .

Guitar 2
C#-----------------------------------------------------------------|
G#-----------------------------------------------------15--13------|
E -12~~~~~~~~~~~~~~~~~~~~~~~~~~~~~~~~~~~~~~~~~~~~~~~~~---------12--|
B -----------------------------------------------------------------|
F#-----------------------------------------------------------------|
B -----------------------------------------------------------------|

===================================================================

Guitar 1
C#-----------------------------------------------------------------|
G#-----------------------------------------------------------------|
E -----------------------------------------------------------------|
B -1~~~~~~~~~~~~~~~~~~~~~~~~~~~~~~-8~~~~~~~~~~-7~~~~~~~~~~-3~~~~~~-|
F#-1~~~~~~~~~~~~~~~~~~~~~~~~~~~~~~-8~~~~~~~~~~-7~~~~~~~~~~-3~~~~~~-|
B -1~~~~~~~~~~~~~~~~~~~~~~~~~~~~~~-8~~~~~~~~~~-7~~~~~~~~~~-3~~~~~~-|

Guitar 2
C#-----------------------------------------------------------------|
G#-------------------------15--15~~~~~-13--11--13~~~~~-------------|
E -12~~~~~~~~~~~~~~~~~~~~~-----------------------------15--14--15--|
B -----------------------------------------------------------------|
F#-----------------------------------------------------------------|
B -----------------------------------------------------------------|

===================================================================

Guitar 1
C#-----------------------------------------------------------------|
G#-----------------------------------------------------------------|
E -----------------------------------------------------------------|
B -5~~~~~~~~~~~~~~~~~~~~~~~~~~~~~~~~~~~~~~~~~~~~~~~~~~~~~~~~~~~~~~-
F#-5~~~~~~~~~~~~~~~~~~~~~~~~~~~~~~~~~~~~~~~~~~~~~~~~~~~~~~~~~~~~~~-
B -5~~~~~~~~~~~~~~~~~~~~~~~~~~~~~~~~~~~~~~~~~~~~~~~~~~~~~~~~~~~~~~-

Guitar 2
C#-----------------------------------------------------------------|
G#-----------------------------------------------------------------|
E -12~~~~~~~~~~~~~~~~~~~~~~~~~~~~~~~~~~~~~~~~~~~~~~~~~-12--10--12--|
B -----------------------------------------------------------------|
F#-----------------------------------------------------------------|
B -----------------------------------------------------------------|

===================================================================

Guitar 1
C#-----------------------------------------------------------------|
G#-------------------------------------11~~~~~~~~~-10~~~~~-6~~~~~~-|
E -------------------------------------x-----------x-------x-------|
B -1~~~~~~~~~~~~~~~~~~~~~~~~~~-8~~~~~~-8~~~~~~~~~~-7~~~~~~-3~~~~~~-|
F#-1~~~~~~~~~~~~~~~~~~~~~~~~~~-8~~~~~~-----------------------------|
B -1~~~~~~~~~~~~~~~~~~~~~~~~~~-8~~~~~~-----------------------------|

Guitar 2
C#-----------------------------------------------------------------|
G#-----------------------------------------------------------------|
E -12~~~~~-12--14~~~~~-14--14--15~~~~~-19~~~~~-19--17~~~~~-15~~~~~-|
B -----------------------------------------------------------------|
F#-----------------------------------------------------------------|
B -----------------------------------------------------------------|

===================================================================

Guitar 1
C#-----------------------------------------------------------------|
G#-----------------------------------------------------------------|
E -----------------------------------------------------------------|
B -5~~~~~~~~~~~~~~~~~~~~~~~~~~~~~~~~~~~~~~~~~~~~~~~~~~~~~~-0---0---|
F#-5~~~~~~~~~~~~~~~~~~~~~~~~~~~~~~~~~~~~~~~~~~~~~~~~~~~~~~-0---0---|
B -5~~~~~~~~~~~~~~~~~~~~~~~~~~~~~~~~~~~~~~~~~~~~~~~~~~~~~~-0---0---|
pm                                                         .   .

Guitar 2
C#-----------------------------------------------------------------|
G#-----------------------------------------------------------------|
E -12~~~~~~~~~~~~~~~~~~~~~~~~~-15--15--14--14--14--14--12--12~~~~~-|
B -----------------------------------------------------------------|
F#-----------------------------------------------------------------|
B -----------------------------------------------------------------|

Guitar 1
C#-----------------------------------------------------------------|
G#-----------------------------------------------------------------|
E -----------------------------------------------------------------|
B -1~~~~~~~~~~~~~~~~~~~~~~~~~~~~~~-8~~~~~~~~~~-7~~~~~~~~~~-3~~~~~~-|
F#-1~~~~~~~~~~~~~~~~~~~~~~~~~~~~~~-8~~~~~~~~~~-7~~~~~~~~~~-3~~~~~~-|
B -1~~~~~~~~~~~~~~~~~~~~~~~~~~~~~~-8~~~~~~~~~~-7~~~~~~~~~~-3~~~~~~-|

Guitar 2
C#-----------------------------------------------------------------|
G#-------------------------15--15~~~~~-13--11--13~~~~~-------------|
E -12~~~~~~~~~~~~~~~~~~~~~-----------------------------15--14--15--|
B -----------------------------------------------------------------|
F#-----------------------------------------------------------------|
B -----------------------------------------------------------------|

===================================================================

Guitar 1
C#-----------------------------------------------------------------|
G#-----------------------------------------------------------------|
E -----------------------------------------------------------------|
B -5~~~~~~~~~~~~~~~~~~~~~~~~~~~~~~~~~~~~~~~~~~~~~~~~~~~~~~~~~~~~~~-
F#-5~~~~~~~~~~~~~~~~~~~~~~~~~~~~~~~~~~~~~~~~~~~~~~~~~~~~~~~~~~~~~~-
B -5~~~~~~~~~~~~~~~~~~~~~~~~~~~~~~~~~~~~~~~~~~~~~~~~~~~~~~~~~~~~~~-

Guitar 2
C#-----------------------------------------------------------------|
G#-----------------------------------------------------------------|
E -12~~~~~~~~~~~~~~~~~~~~~~~~~-12--15~~~~~-14--12~~~~~-12--10~~~~~-|
B -----------------------------------------------------------------|
F#-----------------------------------------------------------------|
B -----------------------------------------------------------------|

===================================================================

Guitar 1
C#-----------------------------------------------------------------|
G#---------------------------------11~~~~~~~~~-10~~~~~~~~~-6~~~~~~-|
E ---------------------------------x-----------x-----------x-------|
B ---------------------------------8~~~~~~~~~~-7~~~~~~~~~~-3~~~~~~-|
F#-5-----------6-----------8---------------------------------------|
B ---3-3-3-3-3---3-3-3-3-3---3-3-3---------------------------------|
pm   . . . . .   . . . . .   . . .

Guitar 2
C#-----------------------------------------------------------------|
G#-----------------------------------------------------------------|
E -12~~~~~~~~~-14~~~~~~~~~-15~~~~~-19~~~~~~~~~-17~~~~~~~~~-15~~~~~-|
B -----------------------------------------------------------------|
F#-----------------------------------------------------------------|
B -----------------------------------------------------------------|

===================================================================
===================================================================


Bridge

Guitar 1 & 2
C#-----------------------------------------------------------------|
G#-----------------------------------------------------------------|
E ---------7~~~~~~-5~~~~~~-----------------------------------------|
B -0-------7~~~~~~-5~~~~~~-0---0---5~~~~~~-3~~~~~~-0---0---3b~~~~~-|
F#-0-------5~~~~~~-3~~~~~~-0---0---5~~~~~~-3~~~~~~-0---0---3b~~~~~-|
B -0-----------------------0---0---5~~~~~~-3~~~~~~-0---0---3b~~~~~-|
pm .                       .   .                   .   .

===================================================================

Guitar 1 & 2
C#-----------------------------------------------------------------|
G#-----------------------------------------------------------------|
E -----------------------------------------------------------------|
B ---------0---0---0---0---0~~~~~~---------0---0---0---0---0~~~~~~-|
F#---------0---0---0---0---0~~~~~~---------0---0---0---0---0~~~~~~-|
B ---------0---0---0---0---0~~~~~~---------0---0---0---0---0~~~~~~-|
pm         .   .   .   .                   .   .   .   .

===================================================================

Guitar 1 & 2
C#-----------------------------------------------------------------|
G#-----------------------------------------------------------------|
E ---------7~~~~~~-5~~~~~~-----------------------------------------|
B -0---0---7~~~~~~-5~~~~~~-0---0---5~~~~~~-3~~~~~~-0---0---3b~~~~~-|
F#-0---0---5~~~~~~-3~~~~~~-0---0---5~~~~~~-3~~~~~~-0---0---3b~~~~~-|
B -0---0-------------------0---0---5~~~~~~-3~~~~~~-0---0---3b~~~~~-|
pm .   .                   .   .                   .   .

===================================================================

Guitar 1 & 2
C#-----------------------------------------------------------------|
G#-----------------------------------------------------------------|
E -----------------------------------------------------------------|
B ---------0---0---0---0---3~~~~~~---------------------------------|
F#---------0---0---0---0-------------------3---5-----------3---5---|
B ---------0---0---0---0-----------0---0-----------0---0-----------|
pm         .   .   .   .           .   .           .   .

===================================================================
===================================================================


Verse

(x2)

Guitar 1 & 2
C#-----------------------------------------------------------------|
G#-----------------------------------------------------------------|
E ---------7~~~~~~-5~~~~~~-----------------------------------------|
B -0-------7~~~~~~-5~~~~~~-0---0---5~~~~~~-3~~~~~~-0---0---3b~~~~~-|
F#-0-------5~~~~~~-3~~~~~~-0---0---5~~~~~~-3~~~~~~-0---0---3b~~~~~-|
B -0-----------------------0---0---5~~~~~~-3~~~~~~-0---0---3b~~~~~-|
pm .                       .   .                   .   .

===================================================================

Guitar 1 & 2
C#-----------------------------------------------------------------|
G#-----------------------------------------------------------------|
E -----------------------------------------------------------------|
B ---------0---0---0---0---0~~~~~~---------0---0---0---0---0~~~~~~-|
F#---------0---0---0---0---0~~~~~~---------0---0---0---0---0~~~~~~-|
B ---------0---0---0---0---0~~~~~~---------0---0---0---0---0~~~~~~-|
pm         .   .   .   .                   .   .   .   .

===================================================================

Guitar 1 & 2
C#-----------------------------------------------------------------|
G#-----------------------------------------------------------------|
E ---------7~~~~~~-5~~~~~~-----------------------------------------|
B -0---0---7~~~~~~-5~~~~~~-0---0---5~~~~~~-3~~~~~~-0---0---3b~~~~~-|
F#-0---0---5~~~~~~-3~~~~~~-0---0---5~~~~~~-3~~~~~~-0---0---3b~~~~~-|
B -0---0-------------------0---0---5~~~~~~-3~~~~~~-0---0---3b~~~~~-|
pm .   .                   .   .                   .   .

===================================================================

Guitar 1 & 2
C#-----------------------------------------------------------------|
G#-----------------------------------------------------------------|
E -----------------------------------------------------------------|
B ---------0---0---0---0---3~~~~~~---------------------------------|
F#---------0---0---0---0-------------------3---5-----------3---5---|
B ---------0---0---0---0-----------0---0-----------0---0-----------|
pm         .   .   .   .           .   .           .   .

===================================================================
===================================================================


Pre Chorus

(x3)

Guitar 1
C#-----------------------------------------------------------------|
G#-----------------------------------------------------------------|
E -----------------------------------------------------------------|
B -----------------------------------------------------------------|
F#-3---5-------------------3---5-------------------3---5-----------|
B ---------0---0---0---0-----------0---0---0---0-----------0---0---|
pm         .   .   .   .           .   .   .   .           .   .

Guitar 2
C#-----------------------------------------------------------------|
G#-----------------------------------------------------------------|
E -----------------------------------------------------------------|
B -----------------------------------------------------------------|
F#-5---5---5---5---5---5---5---5---5---5---5---5---5---5---5---5---|
B -----------------------------------------------------------------|

===================================================================

Guitar 1
C#-----------------------------------------------------------------|
G#-----------------------------------------------------------------|
E -----------------------------------------------------------------|
B -----------------------------------------------------------------|
F#-5---6-------------------5---6-------------------5---6-----------|
B ---------0---0---0---0-----------0---0---0---0-----------0---0---|
pm         .   .   .   .           .   .   .   .           .   .

Guitar 2 (either bend or play 6th fret)
C#-----------------------------------------------------------------|
G#-----------------------------------------------------------------|
E -----------------------------------------------------------------|
B -----------------------------------------------------------------|
F#-5b--5b--5b--5b--5b--5b--5b--5b--5b--5b--5b--5b--5b--5b--5b--5b--|
B -----------------------------------------------------------------|

===================================================================

Guitar 1 & 2
C#-----------------------------------------------------------------|
G#-----------------------------------------------------------------|
E -----------------------------------------------------------------|
B -----------------------------------------------------------------|
F#-3---5-------------------5---6-------------------6---8-----------|
B ---------0---0---0---0-----------0---0---0---0-----------0---0---|
pm         .   .   .   .           .   .   .   .           .   .

===================================================================

Guitar 1 & 2
C#-----------------------------------------------------------------|
G#-----------------------------------------------------------------|
E -----------------------------------------------------------------|
B ---------------------------------8-------------------------------|
F#---------8---10--------------------------------------12--10--8---|
B -0---0-----------0---0---0---0-------0---0---0---0---------------|
pm .   .           .   .   .   .       .   .   .   .

===================================================================
===================================================================


Chorus

Guitar 1
C#-----------------------------------------------------------------|
G#-----------------------------------------------------------------|
E -----------------------------------------------------------------|
B -5~~~~~~~~~~~~~~~~~~~~~~~~~~~~~~~~~~~~~~~~~~~~~~~~~~~~~~-0---0---|
F#-5~~~~~~~~~~~~~~~~~~~~~~~~~~~~~~~~~~~~~~~~~~~~~~~~~~~~~~-0---0---|
B -5~~~~~~~~~~~~~~~~~~~~~~~~~~~~~~~~~~~~~~~~~~~~~~~~~~~~~~-0---0---|
pm                                                         .   .

Guitar 2
C#-----------------------------------------------------------------|
G#-----------------------------------------------------15--13------|
E -12~~~~~~~~~~~~~~~~~~~~~~~~~~~~~~~~~~~~~~~~~~~~~~~~~---------12--|
B -----------------------------------------------------------------|
F#-----------------------------------------------------------------|
B -----------------------------------------------------------------|

===================================================================

Guitar 1
C#-----------------------------------------------------------------|
G#-----------------------------------------------------------------|
E -----------------------------------------------------------------|
B -1~~~~~~~~~~~~~~~~~~~~~~~~~~~~~~-8~~~~~~~~~~-7~~~~~~~~~~-3~~~~~~-|
F#-1~~~~~~~~~~~~~~~~~~~~~~~~~~~~~~-8~~~~~~~~~~-7~~~~~~~~~~-3~~~~~~-|
B -1~~~~~~~~~~~~~~~~~~~~~~~~~~~~~~-8~~~~~~~~~~-7~~~~~~~~~~-3~~~~~~-|

Guitar 2
C#-----------------------------------------------------------------|
G#-------------------------15--15~~~~~-13--11--13~~~~~-------------|
E -12~~~~~~~~~~~~~~~~~~~~~-----------------------------15--14--15--|
B -----------------------------------------------------------------|
F#-----------------------------------------------------------------|
B -----------------------------------------------------------------|

===================================================================

Guitar 1
C#-----------------------------------------------------------------|
G#-----------------------------------------------------------------|
E -----------------------------------------------------------------|
B -5~~~~~~~~~~~~~~~~~~~~~~~~~~~~~~~~~~~~~~~~~~~~~~~~~~~~~~~~~~~~~~-
F#-5~~~~~~~~~~~~~~~~~~~~~~~~~~~~~~~~~~~~~~~~~~~~~~~~~~~~~~~~~~~~~~-
B -5~~~~~~~~~~~~~~~~~~~~~~~~~~~~~~~~~~~~~~~~~~~~~~~~~~~~~~~~~~~~~~-

Guitar 2
C#-----------------------------------------------------------------|
G#-----------------------------------------------------------------|
E -12~~~~~~~~~~~~~~~~~~~~~~~~~~~~~~~~~~~~~~~~~~~~~~~~~-12--10--12--|
B -----------------------------------------------------------------|
F#-----------------------------------------------------------------|
B -----------------------------------------------------------------|

===================================================================

Guitar 1
C#-----------------------------------------------------------------|
G#-------------------------------------11~~~~~~~~~-10~~~~~-6~~~~~~-|
E -------------------------------------x-----------x-------x-------|
B -1~~~~~~~~~~~~~~~~~~~~~~~~~~-8~~~~~~-8~~~~~~~~~~-7~~~~~~-3~~~~~~-|
F#-1~~~~~~~~~~~~~~~~~~~~~~~~~~-8~~~~~~-----------------------------|
B -1~~~~~~~~~~~~~~~~~~~~~~~~~~-8~~~~~~-----------------------------|

Guitar 2
C#-----------------------------------------------------------------|
G#-----------------------------------------------------------------|
E -12~~~~~-12--14~~~~~-14--14--15~~~~~-19~~~~~-19--17~~~~~-15~~~~~-|
B -----------------------------------------------------------------|
F#-----------------------------------------------------------------|
B -----------------------------------------------------------------|

===================================================================

Guitar 1
C#-----------------------------------------------------------------|
G#-----------------------------------------------------------------|
E -----------------------------------------------------------------|
B -5~~~~~~~~~~~~~~~~~~~~~~~~~~~~~~~~~~~~~~~~~~~~~~~~~~~~~~-0---0---|
F#-5~~~~~~~~~~~~~~~~~~~~~~~~~~~~~~~~~~~~~~~~~~~~~~~~~~~~~~-0---0---|
B -5~~~~~~~~~~~~~~~~~~~~~~~~~~~~~~~~~~~~~~~~~~~~~~~~~~~~~~-0---0---|
pm                                                         .   .

Guitar 2
C#-----------------------------------------------------------------|
G#-----------------------------------------------------------------|
E -12~~~~~~~~~~~~~~~~~~~~~~~~~-15--15--14--14--14--14--12--12~~~~~-|
B -----------------------------------------------------------------|
F#-----------------------------------------------------------------|
B -----------------------------------------------------------------|

Guitar 1
C#-----------------------------------------------------------------|
G#-----------------------------------------------------------------|
E -----------------------------------------------------------------|
B -1~~~~~~~~~~~~~~~~~~~~~~~~~~~~~~-8~~~~~~~~~~-7~~~~~~~~~~-3~~~~~~-|
F#-1~~~~~~~~~~~~~~~~~~~~~~~~~~~~~~-8~~~~~~~~~~-7~~~~~~~~~~-3~~~~~~-|
B -1~~~~~~~~~~~~~~~~~~~~~~~~~~~~~~-8~~~~~~~~~~-7~~~~~~~~~~-3~~~~~~-|

Guitar 2
C#-----------------------------------------------------------------|
G#-------------------------15--15~~~~~-13--11--13~~~~~-------------|
E -12~~~~~~~~~~~~~~~~~~~~~-----------------------------15--14--15--|
B -----------------------------------------------------------------|
F#-----------------------------------------------------------------|
B -----------------------------------------------------------------|

===================================================================

Guitar 1
C#-----------------------------------------------------------------|
G#-----------------------------------------------------------------|
E -----------------------------------------------------------------|
B -5~~~~~~~~~~~~~~~~~~~~~~~~~~~~~~~~~~~~~~~~~~~~~~~~~~~~~~~~~~~~~~-
F#-5~~~~~~~~~~~~~~~~~~~~~~~~~~~~~~~~~~~~~~~~~~~~~~~~~~~~~~~~~~~~~~-
B -5~~~~~~~~~~~~~~~~~~~~~~~~~~~~~~~~~~~~~~~~~~~~~~~~~~~~~~~~~~~~~~-

Guitar 2
C#-----------------------------------------------------------------|
G#-----------------------------------------------------------------|
E -12~~~~~~~~~~~~~~~~~~~~~~~~~-12--15~~~~~-14--12~~~~~-12--10~~~~~-|
B -----------------------------------------------------------------|
F#-----------------------------------------------------------------|
B -----------------------------------------------------------------|

===================================================================

Guitar 1
C#-----------------------------------------------------------------|
G#---------------------------------11~~~~~~~~~-10~~~~~~~~~-6~~~~~~-|
E ---------------------------------x-----------x-----------x-------|
B ---------------------------------8~~~~~~~~~~-7~~~~~~~~~~-3~~~~~~-|
F#-5-----------6-----------8---------------------------------------|
B ---3-3-3-3-3---3-3-3-3-3---3-3-3---------------------------------|
pm   . . . . .   . . . . .   . . .

Guitar 2
C#-----------------------------------------------------------------|
G#-----------------------------------------------------------------|
E -12~~~~~~~~~-14~~~~~~~~~-15~~~~~-19~~~~~~~~~-17~~~~~~~~~-15~~~~~-|
B -----------------------------------------------------------------|
F#-----------------------------------------------------------------|
B -----------------------------------------------------------------|

===================================================================
===================================================================


Breakdown

Guitar 1 & 2 (x3)
C#-----------------------------------------------------------------|
G#-----------------------------------------------------------------|
E -7~~~~~~---------------------------------------------------------|
B -7~~~~~~-0-------3-------5-------5~~~~~~-0~~~~~~---------0-------|
F#-5~~~~~~-0-------3-------5-------5~~~~~~-0~~~~~~---------0-------|
B ---------0-------3-------5-------5~~~~~~-0~~~~~~---------0-------|
pm         .       .       .                               .

===================================================================

Guitar 1
C#-----------------------------------------------------------------|
G#-----------------------------------------------------------------|
E -7~~~~~~-7~~~~~~-7~~~~~~~--------8~~~~~~-8~~~~~~-5~~~~~~-5~~~~~~-|
B -7~~~~~~-7~~~~~~-7~~~~~~~--------8~~~~~~-8~~~~~~-5~~~~~~-5~~~~~~-|
F#-5~~~~~~-5~~~~~~-5~~~~~~~--------6~~~~~~-6~~~~~~-3~~~~~~-3~~~~~~-|
B -----------------------------------------------------------------|

Guitar 1
C#-----------------------------------------------------------------|
G#--------------------------------/13b~~~~~~~~-13b~~~~~~~~-13b~~~~-|
E -7~~~~~~-7~~~~~~-7~~~~~~~-------/16b~~~~~~~~-16b~~~~~~~~-16b~~~~-|
B -7~~~~~~-7~~~~~~-7~~~~~~~----------------------------------------|
F#-5~~~~~~-5~~~~~~-5~~~~~~~----------------------------------------|
B -----------------------------------------------------------------|

===================================================================
===================================================================


Guitar Solo Part 1 (This part basically ignores pentatonic scale)

Guitar 1
C#-----------------------------------------------------------------|
G#-----------------------------------------------------------------|
E -7~~~~~~---------------------------------------------------------|
B -7~~~~~~-0-------3-------5-------5~~~~~~-0~~~~~~---------0-------|
F#-5~~~~~~-0-------3-------5-------5~~~~~~-0~~~~~~---------0-------|
B ---------0-------3-------5-------5~~~~~~-0~~~~~~---------0-------|
pm         .       .       .                               .

Guitar 2
C#-----------------------------------------------------------------|
G#-13b~~~~~~~~~~~~~~~~~~~~~^~~~^~~~^~~~^~~~^~~~^~~~^~~~\~~-/13h-15-|
E -16b~~~~~~~~-~~~~~~~~~~~~^~~~^~~~^~~~^~~~^~~~^~~~^~~~\~~---------|
B -----------------------------------------------------------------|
F#-----------------------------------------------------------------|
B -----------------------------------------------------------------|

===================================================================

Guitar 1
C#-----------------------------------------------------------------|
G#-----------------------------------------------------------------|
E -7~~~~~~---------------------------------------------------------|
B -7~~~~~~-0-------3-------5-------5~~~~~~-0~~~~~~---------0-------|
F#-5~~~~~~-0-------3-------5-------5~~~~~~-0~~~~~~---------0-------|
B ---------0-------3-------5-------5~~~~~~-0~~~~~~---------0-------|
pm         .       .       .                               .

Guitar 2
C#-----------------------------------------------------------------|
G#t21p13h15--t21p13h15--t21p13h15--t21p13h15--t21p13h15--t21p13h15-|
E -----------------------------------------------------------------|
B -----------------------------------------------------------------|
F#-----------------------------------------------------------------|
B -----------------------------------------------------------------|

===================================================================

Guitar 1
C#-----------------------------------------------------------------|
G#-----------------------------------------------------------------|
E -7~~~~~~---------------------------------------------------------|
B -7~~~~~~-0-------3-------5-------5~~~~~~-0~~~~~~---------0-------|
F#-5~~~~~~-0-------3-------5-------5~~~~~~-0~~~~~~---------0-------|
B ---------0-------3-------5-------5~~~~~~-0~~~~~~---------0-------|
pm         .       .       .                               .

Guitar 2
C#-----------------------------------------------------------------|
G#t20p13h15--t20p13h15--t20p13h15--t20p13h15--t20p13h15--t20p13h15-|
E -----------------------------------------------------------------|
B -----------------------------------------------------------------|
F#-----------------------------------------------------------------|
B -----------------------------------------------------------------|

===================================================================

Guitar 1
C#-----------------------------------------------------------------|
G#-----------------------------------------------------------------|
E -7~~~~~~-7~~~~~~-7~~~~~~~--------8~~~~~~-8~~~~~~-5~~~~~~-5~~~~~~-|
B -7~~~~~~-7~~~~~~-7~~~~~~~--------8~~~~~~-8~~~~~~-5~~~~~~-5~~~~~~-|
F#-5~~~~~~-5~~~~~~-5~~~~~~~--------6~~~~~~-6~~~~~~-3~~~~~~-3~~~~~~-|
B -----------------------------------------------------------------|

Guitar 2
C#---------------------------------12b~~~~-12b~~~~-12b~~~~-12b~~~~-|
G#t18p13h15--t18p13h15--t18p13h15--15b~~~~-15b~~~~-15b~~~~-15b~~~~-|
E -----------------------------------------------------------------|
B -----------------------------------------------------------------|
F#-----------------------------------------------------------------|
B -----------------------------------------------------------------|

===================================================================

Guitar 1
C#-----------------------------------------------------------------|
G#-----------------------------------------------------------------|
E -7~~~~~~---------------------------------------------------------|
B -7~~~~~~-0-------3-------5-------5~~~~~~-0~~~~~~---------0-------|
F#-5~~~~~~-0-------3-------5-------5~~~~~~-0~~~~~~---------0-------|
B ---------0-------3-------5-------5~~~~~~-0~~~~~~---------0-------|
pm         .       .       .                               .

Guitar 2
C#-----------------------------------------------------------------|
G#--------------14b~~~~~~~~~~~~~~~~~~~~~~~~~~~~~~~~~-14~~~b~~~r~~~-|
E -15p14-----------------------------------------------------------|
B -------12~~------------------------------------------------------|
F#-----------------------------------------------------------------|
B -----------------------------------------------------------------|

===================================================================

Guitar 1
C#-----------------------------------------------------------------|
G#-----------------------------------------------------------------|
E -7~~~~~~---------------------------------------------------------|
B -7~~~~~~-0-------3-------5-------5~~~~~~-0~~~~~~---------0-------|
F#-5~~~~~~-0-------3-------5-------5~~~~~~-0~~~~~~---------0-------|
B ---------0-------3-------5-------5~~~~~~-0~~~~~~---------0-------|
pm         .       .       .                               .

Guitar 2
C#-----------------------------------------------------------------|
G#-14h15h17-14h15h17-14h15----14h15----14h15p14--------------------|
E -------------------------17-------17-----------17p-15------------|
B -------------------------------------------------------17p-15----|
F#-----------------------------------------------------------------|
B -----------------------------------------------------------------|

===================================================================

Guitar 1
C#-----------------------------------------------------------------|
G#-----------------------------------------------------------------|
E -7~~~~~~---------------------------------------------------------|
B -7~~~~~~-0-------3-------5-------5~~~~~~-0~~~~~~---------0-------|
F#-5~~~~~~-0-------3-------5-------5~~~~~~-0~~~~~~---------0-------|
B ---------0-------3-------5-------5~~~~~~-0~~~~~~---------0-------|
pm         .       .       .                               .

Guitar 2
C#-----------------------------------------------------------------|
G#---------------------------------------------------------13--12--|
E -13b~~~~~~~~~~~~~r~~~~~~~b~~~~~~~~~~~~~~~~~~~~~~~~~~-14----------|
B -----------------------------------------------------------------|
F#-----------------------------------------------------------------|
B -----------------------------------------------------------------|

===================================================================

Guitar 1
C#-----------------------------------------------------------------|
G#-----------------------------------------------------------------|
E -7~~~~~~-7~~~~~~-7~~~~~~~--------8~~~~~~-8~~~~~~-5~~~~~~-5~~~~~~-|
B -7~~~~~~-7~~~~~~-7~~~~~~~--------8~~~~~~-8~~~~~~-5~~~~~~-5~~~~~~-|
F#-5~~~~~~-5~~~~~~-5~~~~~~~--------6~~~~~~-6~~~~~~-3~~~~~~-3~~~~~~-|
B -----------------------------------------------------------------|

Guitar 2
C#-----------------------------------------------------------------|
G#-------------------------15--------------------------------------|
E -15--14--13--14--12--13------13--12--------------9~~/~~14~~\~~9--|
B -------------------------------------15--15--12------------------|
F#-----------------------------------------------------------------|
B -----------------------------------------------------------------|

===================================================================

Guitar 1
C#-----------------------------------------------------------------|
G#-----------------------------------------------------------------|
E -7~~~~~~---------------------------------------------------------|
B -7~~~~~~-0-------3-------5-------5~~~~~~-0~~~~~~---------0-------|
F#-5~~~~~~-0-------3-------5-------5~~~~~~-0~~~~~~---------0-------|
B ---------0-------3-------5-------5~~~~~~-0~~~~~~---------0-------|
pm         .       .       .                               .

Guitar 2
C#-----------------------------------------------------------------|
G#-----------------/13~~~~~~~~~~~~~~~~~~~~~~~~~\~~~----------------|
E -12p-10--------------------------------------------10-11-10------|
B ---------12p-10----------------------------------------------12--|
F#-----------------------------------------------------------------|
B -----------------------------------------------------------------|

===================================================================

Guitar 1
C#-----------------------------------------------------------------|
G#-----------------------------------------------------------------|
E -7~~~~~~---------------------------------------------------------|
B -7~~~~~~-0-------3-------5-------5~~~~~~-0~~~~~~---------0-------|
F#-5~~~~~~-0-------3-------5-------5~~~~~~-0~~~~~~---------0-------|
B ---------0-------3-------5-------5~~~~~~-0~~~~~~---------0-------|
pm         .       .       .                               .

Guitar 2
C#-/17~~~~~~~~~~~~~~~~~\~~~~~~-------------------------------------|
G#-----------------------------11--13--15--15--13--16--18--15--13--|
E -----------------------------------------------------------------|
B -----------------------------------------------------------------|
F#-----------------------------------------------------------------|
B -----------------------------------------------------------------|

===================================================================

Guitar 1
C#-----------------------------------------------------------------|
G#-----------------------------------------------------------------|
E -7~~~~~~-7~~~~~~-7~~~~~~~----------------------------------------|
B -7~~~~~~-7~~~~~~-7~~~~~~~----------------------------------------|
F#-5~~~~~~-5~~~~~~-5~~~~~~~----------------------------------------|
B -----------------------------------------------------------------|

Guitar 2
C#-16~b~r~-----17--18------17h-18p-17----------17---18---20--------|
G#---------15----------15--------------18--20-----------------18---|
E -----------------------------------------------------------------|
B -----------------------------------------------------------------|
F#-----------------------------------------------------------------|
B -----------------------------------------------------------------|

===================================================================
===================================================================


Guitar Solo Part 2

Guitar 1
C#-----------------------------------------------------------------|
G#-----------------------------------------------------------------|
E -----------------------------------------------------------------|
B -8~~~~~~~~~~~~~~~~~~~~~~~~~~~~~~~~~~~~~~~~~~~~~~~~~~~~~~~~~~~~~~-
F#-8~~~~~~~~~~~~~~~~~~~~~~~~~~~~~~~~~~~~~~~~~~~~~~~~~~~~~~~~~~~~~~-
B -8~~~~~~~~~~~~~~~~~~~~~~~~~~~~~~~~~~~~~~~~~~~~~~~~~~~~~~~~~~~~~~-

Guitar 2
C#-21b~~~~~~~~~~~~~~~~~~~~~~~~~~~~~~~~~~~~~~~~~~~~~-22b~~~~~~~r~~~-|
G#-----------------------------------------------------------------|
E -----------------------------------------------------------------|
B -----------------------------------------------------------------|
F#-----------------------------------------------------------------|
B -----------------------------------------------------------------|

Guitar 3
C#-17b~~~~~~~~~~~~~~~~~~~~~~~~~~~~~~~~~~~~~~~~~~~~~-19b~~~~~~~r~~~-|
G#-----------------------------------------------------------------|
E -----------------------------------------------------------------|
B -----------------------------------------------------------------|
F#-----------------------------------------------------------------|
B -----------------------------------------------------------------|

===================================================================

Guitar 1
C#-----------------------------------------------------------------|
G#-----------------------------------------------------------------|
E -----------------------------------------------------------------|
B -----------------------------------------------------------------|
F#-----------------------------------------------------------------|
B -7-5-5-5-5-5-7-5-5-5-5-5-7-5-5-5-5-5-7-5-5-5-5-5-7-5-5-5-7-5-5-5-|
pm   . . . . .   . . . . .   . . . . .   . . . . .   . . .   . . .

Guitar 2
C#-20~~~~~~~~~-21b~~~~~~~~-20~~~~~~~~~-17~~~~~~~~~-----------------|
G#-------------------------------------------------18~~~~~-15~~~~~-|
E -----------------------------------------------------------------|
B -----------------------------------------------------------------|
F#-----------------------------------------------------------------|
B -----------------------------------------------------------------|

Guitar 3
C#-17~~~~~~~~~-17b~~~~~~~~-17~~~~~~~~~-13~~~~~~~~~-----------------|
G#-------------------------------------------------13~~~~~---------|
E ---------------------------------------------------------15~~~~~-|
B -----------------------------------------------------------------|
F#-----------------------------------------------------------------|
B -----------------------------------------------------------------|

===================================================================

Guitar 1
C#-----------------------------------------------------------------|
G#-----------------------------------------------------------------|
E -----------------------------------------------------------------|
B -8~~~~~~~~~~~~~~~~~~~~~~~~~~~~~~~~~~~~~~~~~~~~~~~~~~~~~~~~~~~~~~-
F#-8~~~~~~~~~~~~~~~~~~~~~~~~~~~~~~~~~~~~~~~~~~~~~~~~~~~~~~~~~~~~~~-
B -8~~~~~~~~~~~~~~~~~~~~~~~~~~~~~~~~~~~~~~~~~~~~~~~~~~~~~~~~~~~~~~-

Guitar 2
C#-----------------------------------------------------------------|
G#-----------------------------------------------------------------|
E -17~~~~~~~~~~~b~~~r~~~~~~~~~~~~b~r~b~r~b~r~~-17--19--17--15--14--|
B -----------------------------------------------------------------|
F#-----------------------------------------------------------------|
B -----------------------------------------------------------------|

Guitar 3
C#-----------------------------------------------------------------|
G#-----------------------------------------------------------------|
E -14~~~~~~~~~~~b~~~r~~~~~~~~~~~~b~r~b~r~b~r~~-14--15--14--12--10--|
B -----------------------------------------------------------------|
F#-----------------------------------------------------------------|
B -----------------------------------------------------------------|

===================================================================

Guitar 1
C#-----------------------------------------------------------------|
G#-----------------------------------------------------------------|
E -----------------------------------------------------------------|
B -----------------------------------------------------------------|
F#-----------------------------------------------------------------|
B -5-5-5-5-5-5-5-5-5-5-5-5-5-5-5-5-5-5-5-5-5-5-5-5-5-5-5-5-5-5-5-5-|
pm   . . . . .   . . . . .   . . . . .   . . . . .   . . .   . . .

Guitar 2
C#-----------------------------------------------------------------|
G#-----------------------------------------------------------------|
E -17~~~~~~~~~~~b~~~r~~~~~-15~~~~~~~~~~-14~~~~~~~-15--15~~~~~~~~~~-|
B -----------------------------------------------------------------|
F#-----------------------------------------------------------------|
B -----------------------------------------------------------------|

Guitar 3
C#-----------------------------------------------------------------|
G#-----------------------------------------------------------------|
E -14~~~~~~~~~~~b~~~r~~~~~-12~~~~~~~~~~-10~~~~~~~-12--12~~~~~~~~~~-|
B -----------------------------------------------------------------|
F#-----------------------------------------------------------------|
B -----------------------------------------------------------------|

===================================================================

Guitar 1
C#-----------------------------------------------------------------|
G#-----------------------------------------------------------------|
E -----------------------------------------------------------------|
B -8~~~~~~~~~~~~~~~~~~~~~~~~~~~~~~~~~~~~~~~~~~~~~~~~~~~~~~~~~~~~~~-
F#-8~~~~~~~~~~~~~~~~~~~~~~~~~~~~~~~~~~~~~~~~~~~~~~~~~~~~~~~~~~~~~~-
B -8~~~~~~~~~~~~~~~~~~~~~~~~~~~~~~~~~~~~~~~~~~~~~~~~~~~~~~~~~~~~~~-

Guitar 2
C#-----------------------------------------------------------------|
G#-17b~r~~~17b~~~~~~~~~~~~~~~~~~~~~~~~~~~~-17b~~~~-16~~~~~---------|
E ---------------------------------------------------------19~~~~~-|
B -----------------------------------------------------------------|
F#-----------------------------------------------------------------|
B -----------------------------------------------------------------|

Guitar 2
C#-----------------------------------------------------------------|
G#-----------------14b~r~~~14b~~~~~~~~~~~~-14b~~~~-13~~~~~---------|
E ---------------------------------------------------------15~~~~~-|
B -----------------------------------------------------------------|
F#-----------------------------------------------------------------|
B -----------------------------------------------------------------|

===================================================================

Guitar 1
C#-----------------------------------------------------------------|
G#-----------------------------------------------------------------|
E -----------------------------------------------------------------|
B -----------------------------------------------------------------|
F#-----------------------------------------------------------------|
B -7-5-5-5-5-5-7-5-5-5-5-5-7-5-5-5-5-5-7-5-5-5-5-5-7-5-5-5-7-5-5-5-|
pm   . . . . .   . . . . .   . . . . .   . . . . .   . . .   . . .

Guitar 2
C#-----------------------------------------------------------15-17-|
G#-----------------------------------------------------------------|
E -17~~~~~~~~~~~b~~~r~~~~~-15~~~~~~~~~~-14~~~~~~~~~~~--------------|
B ----------------------------------------------------17~~~~-------|
F#-----------------------------------------------------------------|
B -----------------------------------------------------------------|

Guitar 3
C#-----------------------------------------------------------------|
G#-----------------------------------------------------------------|
E -14~~~~~~~~~~~b~~~r~~~~~-12~~~~~~~~~~-10~~~~~~~~~~~--------------|
B ----------------------------------------------------12~~~~-------|
F#-----------------------------------------------------------------|
B -----------------------------------------------------------------|

===================================================================

Guitar 1
C#-----------------------------------------------------------------|
G#-----------------------------------------------------------------|
E -----------------------------------------------------------------|
B ---------------------------------1~~~--------------------10\~~~~-|
F#---------------------------------1~~~--------------------10\~~~~-|
B -3-3-3-3-3-3-3-3-3-3-3-3-3-3-3-3-1~~~--------------------10\~~~~-|
pm   . . . . .   . . . . .   . . .

Guitar 2
C#-18-15h17-13h15--------------------------------|
G#----------------16h18-15h16-13h15h16-13-15b~r~-|
E -----------------------------------------------|
B -----------------------------------------------|
F#-----------------------------------------------|
B -----------------------------------------------|

Guitar 2 continued
C#----------------------------------------------------------------------|
G#----------------------------------13-15-16-13-15-16-15-16-18-15-16-18-|
E ----------14-15-17-15-14-12-14-15-------------------------------------|
B -15-17-18-------------------------------------------------------------|
F#----------------------------------------------------------------------|
B ----------------------------------------------------------------------|

===================================================================
===================================================================

Chorus

Guitar 1
C#-----------------------------------------------------------------|
G#-----------------------------------------------------------------|
E -----------------------------------------------------------------|
B -5~~~~~~~~~~~~~~~~~~~~~~~~~~~~~~~~~~~~~~~~~~~~~~~~~~~~~~-0---0---|
F#-5~~~~~~~~~~~~~~~~~~~~~~~~~~~~~~~~~~~~~~~~~~~~~~~~~~~~~~-0---0---|
B -5~~~~~~~~~~~~~~~~~~~~~~~~~~~~~~~~~~~~~~~~~~~~~~~~~~~~~~-0---0---|
pm                                                         .   .

Guitar 2
C#-15~~~~~~~~~~~~~~~~~~~~~~~~~^~~~^~~~^~~~^~~~^~~~^~~~-------------|
G#-----------------------------------------------------15--13------|
E -------------------------------------------------------------12--|
B -----------------------------------------------------------------|
F#-----------------------------------------------------------------|
B -----------------------------------------------------------------|

===================================================================

Guitar 1
C#-----------------------------------------------------------------|
G#-----------------------------------------------------------------|
E -----------------------------------------------------------------|
B -1~~~~~~~~~~~~~~~~~~~~~~~~~~~~~~-8~~~~~~~~~~-7~~~~~~~~~~-3~~~~~~-|
F#-1~~~~~~~~~~~~~~~~~~~~~~~~~~~~~~-8~~~~~~~~~~-7~~~~~~~~~~-3~~~~~~-|
B -1~~~~~~~~~~~~~~~~~~~~~~~~~~~~~~-8~~~~~~~~~~-7~~~~~~~~~~-3~~~~~~-|

Guitar 2
C#-----------------------------------------------------------------|
G#-------------------------15--15~~~~~-13--11--13~~~~~-------------|
E -12~~~~~~~~~~~~~~~~~~~~~-----------------------------15--14--15--|
B -----------------------------------------------------------------|
F#-----------------------------------------------------------------|
B -----------------------------------------------------------------|

===================================================================

Guitar 1
C#-----------------------------------------------------------------|
G#-----------------------------------------------------------------|
E -----------------------------------------------------------------|
B -5~~~~~~~~~~~~~~~~~~~~~~~~~~~~~~~~~~~~~~~~~~~~~~~~~~~~~~~~~~~~~~-
F#-5~~~~~~~~~~~~~~~~~~~~~~~~~~~~~~~~~~~~~~~~~~~~~~~~~~~~~~~~~~~~~~-
B -5~~~~~~~~~~~~~~~~~~~~~~~~~~~~~~~~~~~~~~~~~~~~~~~~~~~~~~~~~~~~~~-

Guitar 2
C#-----------------------------------------------------------------|
G#-----------------------------------------------------------------|
E -12~~~~~~~~~~~~~~~~~~~~~~~~~~~~~~~~~~~~~~~~~~~~~~~~~-12--10--12--|
B -----------------------------------------------------------------|
F#-----------------------------------------------------------------|
B -----------------------------------------------------------------|

===================================================================

Guitar 1
C#-----------------------------------------------------------------|
G#-------------------------------------11~~~~~~~~~-10~~~~~-6~~~~~~-|
E -------------------------------------x-----------x-------x-------|
B -1~~~~~~~~~~~~~~~~~~~~~~~~~~-8~~~~~~-8~~~~~~~~~~-7~~~~~~-3~~~~~~-|
F#-1~~~~~~~~~~~~~~~~~~~~~~~~~~-8~~~~~~-----------------------------|
B -1~~~~~~~~~~~~~~~~~~~~~~~~~~-8~~~~~~-----------------------------|

Guitar 2
C#-----------------------------------------------------------------|
G#-----------------------------------------------------------------|
E -12~~~~~-12--14~~~~~-14--14--15~~~~~-19~~~~~-19--17~~~~~-15~~~~~-|
B -----------------------------------------------------------------|
F#-----------------------------------------------------------------|
B -----------------------------------------------------------------|

===================================================================

Guitar 1
C#-----------------------------------------------------------------|
G#-----------------------------------------------------------------|
E -----------------------------------------------------------------|
B -5~~~~~~~~~~~~~~~~~~~~~~~~~~~~~~~~~~~~~~~~~~~~~~~~~~~~~~-0---0---|
F#-5~~~~~~~~~~~~~~~~~~~~~~~~~~~~~~~~~~~~~~~~~~~~~~~~~~~~~~-0---0---|
B -5~~~~~~~~~~~~~~~~~~~~~~~~~~~~~~~~~~~~~~~~~~~~~~~~~~~~~~-0---0---|
pm                                                         .   .

Guitar 2
C#-----------------------------------------------------------------|
G#-----------------------------------------------------------------|
E -12~~~~~~~~~~~~~~~~~~~~~~~~~-15--15--14--14--14--14--12--12~~~~~-|
B -----------------------------------------------------------------|
F#-----------------------------------------------------------------|
B -----------------------------------------------------------------|

Guitar 1
C#-----------------------------------------------------------------|
G#-----------------------------------------------------------------|
E -----------------------------------------------------------------|
B -1~~~~~~~~~~~~~~~~~~~~~~~~~~~~~~-8~~~~~~~~~~-7~~~~~~~~~~-3~~~~~~-|
F#-1~~~~~~~~~~~~~~~~~~~~~~~~~~~~~~-8~~~~~~~~~~-7~~~~~~~~~~-3~~~~~~-|
B -1~~~~~~~~~~~~~~~~~~~~~~~~~~~~~~-8~~~~~~~~~~-7~~~~~~~~~~-3~~~~~~-|

Guitar 2
C#-----------------------------------------------------------------|
G#-------------------------15--15~~~~~-13--11--13~~~~~-------------|
E -12~~~~~~~~~~~~~~~~~~~~~-----------------------------15--14--15--|
B -----------------------------------------------------------------|
F#-----------------------------------------------------------------|
B -----------------------------------------------------------------|

===================================================================

Guitar 1
C#-----------------------------------------------------------------|
G#-----------------------------------------------------------------|
E -----------------------------------------------------------------|
B -5~~~~~~~~~~~~~~~~~~~~~~~~~~~~~~~~~~~~~~~~~~~~~~~~~~~~~~~~~~~~~~-
F#-5~~~~~~~~~~~~~~~~~~~~~~~~~~~~~~~~~~~~~~~~~~~~~~~~~~~~~~~~~~~~~~-
B -5~~~~~~~~~~~~~~~~~~~~~~~~~~~~~~~~~~~~~~~~~~~~~~~~~~~~~~~~~~~~~~-

Guitar 2
C#-----------------------------------------------------------------|
G#-----------------------------------------------------------------|
E -12~~~~~~~~~~~~~~~~~~~~~~~~~-12--15~~~~~-14--12~~~~~-12--10~~~~~-|
B -----------------------------------------------------------------|
F#-----------------------------------------------------------------|
B -----------------------------------------------------------------|

===================================================================

Guitar 1
C#-----------------------------------------------------------------|
G#---------------------------------11~~~~~~~~~-10~~~~~~~~~-6~~~~~~-|
E ---------------------------------x-----------x-----------x-------|
B ---------------------------------8~~~~~~~~~~-7~~~~~~~~~~-3~~~~~~-|
F#-5-----------6-----------8---------------------------------------|
B ---3-3-3-3-3---3-3-3-3-3---3-3-3---------------------------------|
pm   . . . . .   . . . . .   . . .

Guitar 2
C#-----------------------------------------------------------------|
G#-----------------------------------------------------------------|
E -12~~~~~~~~~-14~~~~~~~~~-15~~~~~-19~~~~~~~~~-17~~~~~~~~~-15~~~~~-|
B -----------------------------------------------------------------|
F#-----------------------------------------------------------------|
B -----------------------------------------------------------------|

===================================================================
===================================================================


Outro

Guitar 1 & 2 (x3)
C#-----------------------------------------------------------------|
G#-----------------------------------------------------------------|
E -7~~~~~~---------------------------------------------------------|
B -7~~~~~~-0-------3-------5-------5~~~~~~-0~~~~~~---------0-------|
F#-5~~~~~~-0-------3-------5-------5~~~~~~-0~~~~~~---------0-------|
B ---------0-------3-------5-------5~~~~~~-0~~~~~~---------0-------|
pm         .       .       .                               .

===================================================================

Guitar 1 & 2
C#-----------------------------------------------------------------|
G#-----------------------------------------------------------------|
E -7~~~~~~-7~~~~~~-7~~~~~~~----------------------------------------|
B -7~~~~~~-7~~~~~~-7~~~~~~~----------------------------------------|
F#-5~~~~~~-5~~~~~~-5~~~~~~~----------------------------------------|
B -----------------------------------------------------------------|

===================================================================
===================================================================
===================================================================

Tab Legend
h  -  hammer-on
p  -  pull-off
/  -  slide up
\  -  slide down
ps/-  pickslide up
ps\-  pickslide down
~  -  let ring
pm.-  palm mute
b  -  bend
r  -  return from bend
*  -  harmonic
x  -  dead note
^  -  Whammy bar
^\ -  Whammy bar (hold down)

That’s the last of it. I hope this helped, and if you’ve got any problems, check out my 
cover. Also tell me how I did, and let me know what I could improve on. Thanks, oh and 
one last thing... ROCK OUT!!!!
comments
print report bad tab
2 comments total.
+1 reply
xMCH_0720x wrote on October 21 2011, 01:26 pm

Looks pretty solid. Only thing is they play B standard, not drop B. So technically it could be 100% right note-wise, but it won't be how they play it.

0 reply
d3ath punch wrote on January 31 2012, 08:00 pm

you know I think they play both but i dont know

I want to post or [tab]
guest
You may want to rate the tab now too:
select rating
Please do not post tabs as comments. Select "correction" instead!