Oops, an error
Loading. Please wait.

Bleeding Tab

ver8
ver8
More versions @911Tabs.com
7,839 views 9 this week
2 commentsread comments
1 2 3 4 5
accurate
x 4
Autoscroll
+/-
esc
set tempo
stop
Difficulty
novice
Hey! There's an official Ultimate Guitar app which is ideal
for learning songs when you're away from computer. Get the app
WARNING: You are trying to view
                                    content from Ultimate-Guitar.com
                                    in an unauthorized application,
                                    which is prohibited.

                                    Please use an official Ultimate
                                    Guitar Tabs application for iPhone,
                                    iPad or Android to access legitimate
                                    chords, guitar, bass, and drum tabs
                                    from Ultimate-Guitar.com database.

                                    Type "ultimate guitar tabs" in Apple
                                    App Store's or Android Market's
                                    search to find the application.
The Bleeding
by Five Finger Death Punch
on The Way of the Fist
Tuning: Drop C (dAFCGC)

This is 100% correct. If you’re like me and you’re too lazy to go to Drop C, you can 
play at Drop D and play everything 2 frets lower :)

Also, listen to the song as you play, it helps to get all the notes correct. Enjoy!

 [Intro/Verse]
 Guitar 1
 d|-----------------------------------------------|
 A|-----------------------------------------------|
 F|----14------15-------14-------12-------12h14---|
 C|-12----12-12---12-12----12-12----12-12---------|
 G|-----------------------------------------------|
 C|-----------------------------------------------|

 d|--------------------------------------------------|
 A|--------------------------------------------------|
 F|----14------15-------14-------12-------12h14/10---|
 C|-12----12-12---12-12----12-12----12-12------------|
 G|--------------------------------------------------|
 C|--------------------------------------------------|


 d|----------------------------------------------------------------------------------------|
 A|----------------------------------------------------------------------------------------|
 F|-----10-----10-----10-----10-----10------12-------12-------12-------12-------12---------|
 C|-8-8----8-8----8-8----8-8----8-8----8/10-----10-10----10-10----10-10----10-10----10/12--| 
 G|----------------------------------------------------------------------------------------|
 C|----------------------------------------------------------------------------------------|
 Guitar 1 repeats that 4 times.


 After the third time, Guitar 2 plays this:
 [Pre-chorus]
 d|-------------------------------------------------------|
 A|-------------------------------------------------------|
 F|-------------------------------------------------------|
 C|-7-77-7-77-7-77-7-77-7-7---7-77-7-77-7-77-7-77-7-7-----|
 G|-7-77-7-77-7-77-7-77-7-7---7-77-7-77-7-77-7-77-7-7-----|
 C|-7-77-7-77-7-77-7-77-7-7---7-77-7-77-7-77-7-77-7-7-----|
 P.M  ..   ..   ..   ..         ..   ..   ..   .. 

 d|-----------------------------------------------------|
 A|-----------------------------------------------------|
 F|-----------------------------------------------------|
 C|-3-33-3-33-3-33-3-33-3-3----5-55-5-55-5-55-5-55-5-5--|
 G|-3-33-3-33-3-33-3-33-3-3----5-55-5-55-5-55-5-55-5-5--|
 C|-3-33-3-33-3-33-3-33-3-3----5-55-5-55-5-55-5-55-5-5--|
 P.M  ..   ..   ..   ..         ..   ..   ..   .. 


 [Solo]
 Guitar 1
 d|-17b~~-17-15-14-12---------------------------------------|
 A|--------------------13~---13-13-11-----------------------|
 F|------------------------------------14~---14-14-12-12~~--|
 C|---------------------------------------------------------|
 G|---------------------------------------------------------|
 C|---------------------------------------------------------|

 d|-------------17b~~-17-15-13-11--21~----------------15-17--/22~~--22-22-20-20~~--|
 A|-------15-17---------------------------------15-17------------------------------|
 F|-12-14---------------------------------12-14------------------------------------|
 C|--------------------------------------------------------------------------------|
 G|--------------------------------------------------------------------------------|
 C|--------------------------------------------------------------------------------|


 [Chorus]
 d|------------------------------------|
 A|------------------------------------|
 F|------------------------------------|
 C|------------------------------------|
 G|-00-0-00-00-0-00-00-0-00-033335555--|
 C|-00-0-00-00-0-00-00-0-00-033335555--|
 P.M     ..      ..      ..
(This is also after the Solo when he screams "the lies!")

And that's it for the whole song! its a lot easier than it seems, shouldn't give you too 
trouble. This is a great song for beginners to learn, and just a fun song to play all around!

Lyrics:

(scream) THE LIES!!

[Intro/verse]
I remember when all the games began
Remember every little lie and every last goodbye
Promises you broke, words you choked on
and I never walked away,
it's still a mystery to me

[Pre-chorus]
Well I'm so empty
I'm better off without you and you're better off without me
Well you're so unclean
I'm better off without you and you're better off without me

[Chorus]
The lying, the bleeding, the screaming
Was tearing me apart
The hatred (deceiving), the beatings; it's over

[Intro/Verse]
Paint the mirrors black to forget you
I still picture your face and the way you used to taste
Roses in a glass, dead and wilted
To you this all was nothing
Everything to you is nothing

[Pre-Chorus]
Well you're so filthy
I'm better off without you and you're better off without me
Well I'm so ugly
You're better off without me and I'm better off alone

[Chorus]
The lying, the bleeding, the screaming
Was tearing me apart
The hatred, the beatings (disaster); it's over

As wicked as you are, you're beautiful to me
You're the darkest burning star, you're my perfect disease

[Chorus]
The lying, the bleeding, the screaming
Was tearing me apart
The hatred, the beatings; it's over
Disaster
The lying, the bleeding, the screaming
Was tearing me apart
The hatred, the beatings; it's over
Disaster

[Intro/Verse 1x]
It's over now...
comments
print report bad tab
2 comments total.
+1 reply
kurtcobainsucks wrote on August 4 2008, 02:26 pm

um that one part is
c----------------
g-000-xx--------------
c-000-xx--------------

+1 reply
Neil_Rawson wrote on August 25 2008, 04:13 pm

This is definitely not 100%. I have no idea how it has 5 stars. The key is C, and yet you have the main chord listed on the 7th fret (G.) And the intro is wrong, if you bend 17, it is way too high. Try tuning to drop C, and then play to the actual song and you will realize that this is not right. Also, you are missing the second guitar in the intro. Good attempt nonetheless.

I want to post or [tab]
guest
You may want to rate the tab now too:
select rating
Please do not post tabs as comments. Select "correction" instead!