Oops, an error
Loading. Please wait.
ver1
ver1

Whole song

Interactive

More versions @911Tabs.com
3,993 views 92 this week
no commentswrite comment
1 2 3 4 5
excellent!
x 2
Autoscroll
+/-
esc
set tempo
stop
Contributor
Difficulty
Tuning
novice
B F# B E G# C#
Hey! There's an official Ultimate Guitar app which is ideal
for learning songs when you're away from computer. Get the app
WARNING: You are trying to view
                                    content from Ultimate-Guitar.com
                                    in an unauthorized application,
                                    which is prohibited.

                                    Please use an official Ultimate
                                    Guitar Tabs application for iPhone,
                                    iPad or Android to access legitimate
                                    chords, guitar, bass, and drum tabs
                                    from Ultimate-Guitar.com database.

                                    Type "ultimate guitar tabs" in Apple
                                    App Store's or Android Market's
                                    search to find the application.
----------------------------------------------------------------------------
                               Cold
                        Five Finger Death Punch
----------------------------------------------------------------------------

Cold. It might be an overused song title, but if anyone deserves respect it would be 
Five Finger Death Punch. This is a slower, heartwarming, and powerful song. The guitar solo 
isn’t extremely difficult so it is “novice” friendly. Enjoy!

Username: dkm817 (same on X box live)
Youtube Cover: http://www.youtube.com/watch?v=Fd50cwnu_r0
Email: guitardrums@rockfan.com

Guitar 1 Rhythmic (B  F#  B  E  G# C#)
Guitar 2 Lead     (B  F#  B  E  G# C#)

NOTE: This was exported off of guitar pro.


Guitar 1


Start at (01:00)


                                                          H.           Q
-------|-------|-------|-------|-------|-------|-------|--------------------|
-------|-------|-------|-------|-------|-------|-------|--------------------|
-------|-------|-------|-------|-------|-------|-------|--------------------|
-------|-------|-------|-------|-------|-------|-------|--4------------2----|
-------|-------|-------|-------|-------|-------|-------|--4------------2----|
-------|-------|-------|-------|-------|-------|-------|--4------------2----|


  W                   Q    Q    Q    Q       W
-------------------|----------------------|-------------------|
-------------------|----------------------|-------------------|
-------------------|-------2----L----L----|--L----------------|
--L----------------|------------4----L----|--L----------------|
--L----------------|--4----L----L----5----|--L----------------|
--L----------------|----------------------|-------------------|


       PM
  Q    E  Q    E  Q       Q    Q    Q    Q       Q.     Q.     Q
-----------------------|----------------------|---------------------|
-----------------------|----------------------|---------------------|
-----------------------|----------------------|--6------6------7----|
--4----4--4----4--2----|--L----2----2----2----|--6------6------7----|
--4----4--4----4--2----|--L----2----2----2----|--4------4------5----|
--4----4--4----4--2----|--L----2----2----2----|---------------------|


               PM
  E  Q.     E  Q.        H.           Q       W
----------------------|--------------------|-------------------|
----------------------|--------------------|-------------------|
--L--7------x---------|--------------------|-------------------|
--L--7------x--2------|--4-----------------|-------------------|
--L--5------x--2------|--4------------7----|--L----------------|
---------------2------|--4------------6----|--L----------------|


                                   PM PM              PM      PM
   Q.      Q.     Q       H        E  E  Q       Q    E  Q    E  Q
-----------------------|----------------------|-----------------------|
-----------------------|----------------------|-----------------------|
-----------------------|----------------------|-----------------------|
--11------11-----------|-----------9--7--6----|--4----4--4----4--2----|
---7-------7-----------|-----------9--7--6----|--4----4--4----4--2----|
---7-------7------9----|--L--------9--7--6----|--4----4--4----4--2----|


                                                          PM PM
  Q    Q      H           Q.     Q.     Q       E  Q.     E  E  Q
-----------------------|---------------------|-----------------------|
-----------------------|---------------------|-----------------------|
-----------------------|--6------6------7----|--L--------------------|
--L----2---------------|--6------6------7----|--L--0------7--6--2----|
--L----2---------------|--4------4------5----|--L--0------7--6--2----|
--L----2----/14--------|---------------------|-----0------7--6--2----|


                  PM PM PM PM    PM         PM PM PM PM
  Q    E  E  Q    S  S  S  S     E  Q    E  E  E  E  E
------------------------------|-------------------------|
------------------------------|-------------------------|
------------------------------|-------------7--6--4--6--|
--4----4--4--4----4--4--4--4--|--4--4----4--7--6--4--6--|
--4----4--4--4----4--4--4--4--|--4--4----4--5--4--2--4--|
--4----4--4--4----4--4--4--4--|--4--4----4--------------|


                  PM PM PM PM    PM         PM PM PM PM
  Q    E  E  Q    S  S  S  S     E  Q    E  E  E  E  E
------------------------------|-------------------------|
------------------------------|-------------------------|
------------------------------|-------------7--6--4--6--|
--2----2--2--2----2--2--2--2--|--2--2----2--7--6--4--6--|
--2----2--2--2----2--2--2--2--|--2--2----2--5--4--2--4--|
--2----2--2--2----2--2--2--2--|--2--2----2--------------|


                  PM PM PM PM    PM    PM PM PM
  Q    E  E  Q    S  S  S  S     E  E  E  E  E  Q.        Q.     Q.     Q
------------------------------|------------------------|---------------------|
------------------------------|------------------------|---------------------|
--4----4--4--4----4--4--4--4--|--4--4--4--4--4--6------|--7------7-----------|
--4----4--4--4----4--4--4--4--|--4--4--4--4--4--6------|--7------7-----------|
--2----2--2--2----2--2--2--2--|--2--2--2--2--2--4------|--5------5-----------|
------------------------------|------------------------|----------------6----|


            PM PM PM PM PM PM PM PM                    PM PM PM PM
  E  Q.     S  S  S  S  S  S  S  S     Q    E  E  Q    S  S  S  S
------------------------------------|------------------------------|
------------------------------------|------------------------------|
------------------------------------|------------------------------|
------------------------------------|--4----4--4--4----4--4--4--4--|
------------5--4--2--0--4--2--0-----|--4----4--4--4----4--4--4--4--|
--L--6---------------------------6--|--4----4--4--4----4--4--4--4--|


  PM         PM PM PM PM                    PM PM PM PM
  E  Q    E  E  E  E  E     Q    E  E  Q    S  S  S  S
-------------------------|------------------------------|
-------------------------|------------------------------|
-------------7--6--4--6--|------------------------------|
--4--4----4--7--6--4--6--|--2----2--2--2----2--2--2--2--|
--4--4----4--5--4--2--4--|--2----2--2--2----2--2--2--2--|
--4--4----4--------------|--2----2--2--2----2--2--2--2--|


  PM         PM PM PM PM                    PM PM PM PM
  E  Q    E  E  E  E  E     Q    E  E  Q    S  S  S  S
-------------------------|------------------------------|
-------------------------|------------------------------|
-------------7--6--4--6--|--4----4--4--4----4--4--4--4--|
--2--2----2--7--6--4--6--|--4----4--4--4----4--4--4--4--|
--2--2----2--5--4--2--4--|--2----2--2--2----2--2--2--2--|
--2--2----2--------------|------------------------------|


  PM    PM PM PM
  E  E  E  E  E  Q.        Q.     Q.     Q
------------------------|---------------------|
------------------------|---------------------|
--4--4--4--4--4--6------|--7------7-----------|
--4--4--4--4--4--6------|--7------7-----------|
--2--2--2--2--2--4------|--5------5-----------|
------------------------|----------------6----|


            PM PM PM PM PM PM PM PM         PM      PM
  E  Q.     S  S  S  S  S  S  S  S     Q    E  Q    E  Q
------------------------------------|-----------------------|
------------------------------------|-----------------------|
------------------------------------|-----------------------|
------------------------------------|--4----4--4----4--2----|
------------5--4--2--0--4--2--0-----|--4----4--4----4--2----|
--L--6---------------------------6--|--4----4--4----4--2----|


                                                         PM PM PM
  Q    Q    Q    Q       Q.     Q.     Q       E  Q.     E  E  Q
----------------------|---------------------|-----------------------|
----------------------|---------------------|-----------------------|
----------------------|--6------6------7----|--L--------------------|
--L----2----2----2----|--6------6------7----|--L--0------7--6--2----|
--L----2----2----2----|--4------4------5----|--L--0------7--6--2----|
--L----2----2----2----|---------------------|-----0------7--6--2----|


       PM      PM
  Q    E  Q    E  Q       Q    Q    Q    Q       Q.     Q.     Q
-----------------------|----------------------|---------------------|
-----------------------|----------------------|---------------------|
-----------------------|----------------------|--6------6------7----|
--4----4--4----4--2----|--L----2----2----2----|--6------6------7----|
--4----4--4----4--2----|--L----2----2----2----|--4------4------5----|
--4----4--4----4--2----|--L----2----2----2----|---------------------|


            PM PM PM           PM      PM
  E  Q.     E  E  Q       Q    E  Q    E  Q       Q    Q    Q    Q
-----------------------|-----------------------|----------------------|
-----------------------|-----------------------|----------------------|
--L---------7--6--4----|-----------------------|----------------------|
--L--0------7--6--4----|--4----4--4----4-------|----------------------|
--L--0------5--4--2----|--4----4--4----4--7----|--L----7----7----7----|
-----0-----------------|--4----4--4----4--6----|--L----6----6----6----|


                                      PM PM PM           PM      PM
   Q.      Q.      Q       E   Q.     E  E  Q       Q    E  Q    E  Q
------------------------|------------------------|-----------------------|
------------------------|------------------------|-----------------------|
------------------------|------------------------|-----------------------|
--11------11------12----|--L--12------7--6--2----|--4----4--4----4--2----|
---7-------7-------9----|--L---9------7--6--2----|--4----4--4----4--2----|
---7-------7-------9----|--L---9------7--6--2----|--4----4--4----4--2----|


  Q    Q      H           Q.     Q.     Q       W
-----------------------|---------------------|-------------------|
-----------------------|---------------------|-------------------|
-----------------------|--6------6-----------|-------------------|
--L----2---------------|--6------6------0----|--L----------------|
--L----2---------------|--4------4------0----|--L----------------|
--L----2----/14--------|----------------0----|--L----------------|


  W                   H
-------------------|-----------|-------------------|-------------------|
-------------------|-----------|-------------------|-------------------|
-------------------|-----------|-------------------|-------------------|
--L----------------|--L--------|-------------------|-------------------|
--L----------------|--L--------|-------------------|-------------------|
--L----------------|--L--------|-------------------|-------------------|


(02:39)


                                                          PM PM PM PM
                                          Q    E  E  Q    S  S  S  S
-------------------|-------------------|------------------------------|
-------------------|-------------------|------------------------------|
-------------------|-------------------|------------------------------|
-------------------|-------------------|--4----4--4--4----4--4--4--4--|
-------------------|-------------------|--4----4--4--4----4--4--4--4--|
-------------------|-------------------|--4----4--4--4----4--4--4--4--|


  PM         PM PM PM PM                    PM PM PM PM
  E  Q    E  E  E  E  E     Q    E  E  Q    S  S  S  S
-------------------------|------------------------------|
-------------------------|------------------------------|
-------------7--6--4--6--|------------------------------|
--4--4----4--7--6--4--6--|--2----2--2--2----2--2--2--2--|
--4--4----4--5--4--2--4--|--2----2--2--2----2--2--2--2--|
--4--4----4--------------|--2----2--2--2----2--2--2--2--|


  PM         PM PM PM PM                    PM PM PM PM
  E  Q    E  E  E  E  E     Q    E  E  Q    S  S  S  S
-------------------------|------------------------------|
-------------------------|------------------------------|
-------------7--6--4--6--|--4----4--4--4----4--4--4--4--|
--2--2----2--7--6--4--6--|--4----4--4--4----4--4--4--4--|
--2--2----2--5--4--2--4--|--2----2--2--2----2--2--2--2--|
--2--2----2--------------|------------------------------|


  PM    PM PM PM
  E  E  E  E  E  Q.        Q.     Q.     Q
------------------------|---------------------|
------------------------|---------------------|
--4--4--4--4--4--6------|--7------7-----------|
--4--4--4--4--4--6------|--7------7-----------|
--2--2--2--2--2--4------|--5------5-----------|
------------------------|----------------6----|


            PM PM PM PM PM PM PM PM                    PM PM PM PM
  E  Q.     S  S  S  S  S  S  S  S     Q    E  E  Q    S  S  S  S
------------------------------------|------------------------------|
------------------------------------|------------------------------|
------------------------------------|------------------------------|
------------------------------------|--4----4--4--4----4--4--4--4--|
------------5--4--2--0--4--2--0-----|--4----4--4--4----4--4--4--4--|
--L--6---------------------------6--|--4----4--4--4----4--4--4--4--|


  PM         PM PM PM PM                    PM PM PM PM
  E  Q    E  E  E  E  E     Q    E  E  Q    S  S  S  S
-------------------------|------------------------------|
-------------------------|------------------------------|
-------------7--6--4--6--|------------------------------|
--4--4----4--7--6--4--6--|--2----2--2--2----2--2--2--2--|
--4--4----4--5--4--2--4--|--2----2--2--2----2--2--2--2--|
--4--4----4--------------|--2----2--2--2----2--2--2--2--|


  PM         PM PM PM PM                    PM PM PM PM
  E  Q    E  E  E  E  E     Q    E  E  Q    S  S  S  S
-------------------------|------------------------------|
-------------------------|------------------------------|
-------------7--6--4--6--|--4----4--4--4----4--4--4--4--|
--2--2----2--7--6--4--6--|--4----4--4--4----4--4--4--4--|
--2--2----2--5--4--2--4--|--2----2--2--2----2--2--2--2--|
--2--2----2--------------|------------------------------|


  PM    PM PM PM
  E  E  E  E  E  Q.        Q.     Q.     Q
------------------------|---------------------|
------------------------|---------------------|
--4--4--4--4--4--6------|--7------7-----------|
--4--4--4--4--4--6------|--7------7-----------|
--2--2--2--2--2--4------|--5------5-----------|
------------------------|----------------6----|


            PM PM PM PM PM PM PM PM         PM      PM
  E  Q.     S  S  S  S  S  S  S  S     Q    E  Q    E  Q
------------------------------------|-----------------------|
------------------------------------|-----------------------|
------------------------------------|-----------------------|
------------------------------------|--4----4--4----4--2----|
------------5--4--2--0--4--2--0-----|--4----4--4----4--2----|
--L--6---------------------------6--|--4----4--4----4--2----|


                                                         PM PM PM
  Q    Q    Q    Q       Q.     Q.     Q       E  Q.     E  E  Q
----------------------|---------------------|-----------------------|
----------------------|---------------------|-----------------------|
----------------------|--6------6------7----|--L--------------------|
--L----2----2----2----|--6------6------7----|--L--0------7--6--2----|
--L----2----2----2----|--4------4------5----|--L--0------7--6--2----|
--L----2----2----2----|---------------------|-----0------7--6--2----|


       PM      PM
  Q    E  Q    E  Q       Q    Q    Q    Q       Q.     Q.     Q
-----------------------|----------------------|---------------------|
-----------------------|----------------------|---------------------|
-----------------------|----------------------|--6------6------7----|
--4----4--4----4--2----|--L----2----2----2----|--6------6------7----|
--4----4--4----4--2----|--L----2----2----2----|--4------4------5----|
--4----4--4----4--2----|--L----2----2----2----|---------------------|


            PM PM PM           PM      PM
  E  Q.     E  E  Q       Q    E  Q    E  Q       Q    Q    Q    Q
-----------------------|-----------------------|----------------------|
-----------------------|-----------------------|----------------------|
--L---------7--6--4----|-----------------------|----------------------|
--L--0------7--6--4----|--4----4--4----4--2----|--L----2----2----2----|
--L--0------5--4--2----|--4----4--4----4--2----|--L----2----2----2----|
-----0-----------------|--4----4--4----4--2----|--L----2----2----2----|


                                  PM PM PM           PM      PM
  Q.     Q.     Q       E  Q.     E  E  Q       Q    E  Q    E  Q
---------------------|-----------------------|-----------------------|
---------------------|-----------------------|-----------------------|
--6------6------7----|--L--------------------|-----------------------|
--6------6------7----|--L--0------7--6--2----|--4----4--4----4--2----|
--4------4------5----|--L--0------7--6--2----|--4----4--4----4--2----|
---------------------|-----0------7--6--2----|--4----4--4----4--2----|


                                                         PM PM PM
  Q    Q    Q    Q       Q.     Q.     Q       E  Q.     E  E  Q
----------------------|---------------------|-----------------------|-------|
----------------------|---------------------|-----------------------|-------|
----------------------|--6------6------7----|--L---------7--6--4----|-------|
--L----2----2----2----|--6------6------7----|--L--0------7--6--4----|-------|
--L----2----2----2----|--4------4------5----|--L--0------5--4--2----|-------|
--L----2----2----2----|---------------------|-----0-----------------|-------|


Guitar 2


(Piano)

      E  E  E  E  E  E  Q       E  E  E  E  E  E  E  E
C#||-----------9--------7----|--L--------4--5--7--5--4--|
G#||--------7-----7----------|--------5-----------------|
E ||-----6-----------9-------|-----4--------------------|
B ||-------------------------|--------------------------|
F#||--9-----------------7----|--L-----------------------|
B ||-------------------------|--------------------------|


  E  E  E  Q    E  Q       Q    Q    E  E  E  E     E  E  E  E  E  E  Q
-----------5------------|---------------4--L-----|-----------9--------7----|
--------5-------5--7----|--L---------7--L--7--5--|--------7-----7----------|
-----6------------------|------------------------|-----6-----------9-------|
------------------------|------------------------|-------------------------|
--4----------------5----|--L----5----------------|--9-----------------7----|
------------------------|------------------------|-------------------------|


  Q    E  E  E  E  E  E     Q.     Q.     Q       W
--L----------4--5--7--5--|---------------------|-------------------|
----------5--------------|--5------5------7----|--L----------------|
-------4-----------------|---------------------|-------------------|
-------------------------|---------------------|-------------------|
--L----------------------|--4------4------5----|--L----------------|
-------------------------|---------------------|-------------------|


  Q.     Q.     Q       H        E  E  E  E     Q.     Q.     Q
--5------L------4----|--L--------4--5--4-----|---------------------|
---------------------|--------------------7--|--5------L------7----|
---------------------|-----------------------|---------------------|
--4------4------2----|--L--------------------|---------------------|
---------------------|-----------------------|--4------4------5----|
---------------------|-----------------------|---------------------|


  Q    Q    E  E  Q       Q.     Q.     Q       H        E  E  E  E
-----------------------|--5------L------4----|--L--------4--5--4-----|
--L--------------------|---------------------|--------------------7--|
-----------------------|---------------------|-----------------------|
-----------------------|--4------4------2----|--L--------------------|
--L----5----5--4--2----|---------------------|-----------------------|
-----------------------|---------------------|-----------------------|


  Q.     Q.     Q       E  Q.     Q    Q       Q.     Q.     Q
---------5-----------|------------5----L----|--5------L------4----|
--5------L------7----|--L--L------L----L----|--7------L------5----|
---------------------|----------------------|---------------------|
---------------------|----------------------|--4------4------2----|
--4------4------5----|--L--5------5----5----|---------------------|
---------------------|----------------------|---------------------|


  H        Q    E  E     H.           Q       H        E  E  Q
--L-------------------|--5------------7----|--L-------------------|
-------------------5--|--2------------3----|--L-------------------|
----------------4-----|--------------------|-----------4--2--1----|
--L--------6----------|--------------------|----------------------|
----------------------|--------------------|----------------------|
----------------------|--------------------|----------------------|


  Q.     Q.     Q       H        H           Q.     Q.     Q
--5------L------4----|--L--------L--------|---------------------|
--7------L------5----|-----------L--------|--5------L------7----|
---------------------|--------------------|--6------L------7----|
--4------4------2----|--L--------L--------|---------------------|
---------------------|--------------------|--4------4------5----|
---------------------|-----------2--------|---------------------|


  W                   E  E  E  E  E  E  E  E     E  E  E  E  E  E  E  E
-------------------|--4-----4-----4-----5-----|--5-----5-----5-----5-----|
--L----------------|--7-----7-----7-----7-----|--7-----7-----7-----7-----|
--L----------------|--6-----6-----6-----6-----|--6-----6-----6-----6-----|
-------------------|--------------------------|--------------------------|
--L----------------|--------------------------|--------------------------|
-------------------|--------------------------|--------------------------|


  E  E  E  E  E  E  E  E     E  E  E  E  E  E  E  E
--4-----4-----4-----5-----|--5-----5-----5-----5-----|
--5-----5-----5-----5-----|--5-----5-----5-----5-----|
--4-----4-----4-----4-----|--4-----4-----4-----4-----|
--------------------------|--------------------------|
--------------------------|--------------------------|
--------------------------|--------------------------|


  E  E  E  E  E  E  E  E     E  E  E  E  E  E  E  E     H.           Q
--4-----4-----4-----5-----|--5-----5-----4-----4-----|--5------------4----|
--5-----5-----5-----5-----|--5-----5-----5-----5-----|--7------------7----|
--7-----7-----7-----7-----|--7-----7-----6-----6-----|--7------------6----|
--------------------------|--------------------------|--------------------|
--------------------------|--------------------------|--------------------|
--------------------------|--------------------------|--------------------|


  W                   E  E  E  E  E  E  Q       E  E  E  E  E  E  E  E
--L----------------|-----------9--------7----|--L--------4--5--7--5--4--|
--L----------------|--------7-----7----------|--------5-----------------|
--L----------------|-----6-----------9-------|-----4--------------------|
-------------------|-------------------------|--------------------------|
-------------------|--9-----------------7----|--L-----------------------|
-------------------|-------------------------|--------------------------|


  E  E  E  Q    E  Q       W                   Q.     Q.     Q
-----------5------------|-------------------|--5------L------4----|
--------5-------5--7----|--L----------------|---------------------|
-----6------------------|-------------------|---------------------|
------------------------|-------------------|--4------4------2----|
--4----------------5----|--L----------------|---------------------|
------------------------|-------------------|---------------------|


  H        E  E  E  E     Q.     Q.     Q       Q    Q    E  E  Q
--L--------4--5--4-----|---------------------|-----------------------|
--------------------7--|--5------L------7----|--L--------------------|
-----------------------|---------------------|-----------------------|
--L--------------------|---------------------|-----------------------|
-----------------------|--4------4------5----|--L----5----5--4--2----|
-----------------------|---------------------|-----------------------|


  Q.     Q.     Q       H        E  E  E  E     Q.     Q.     Q
--5------L------4----|--L--------4--5--4-----|---------5-----------|
---------------------|--------------------7--|--5------L------7----|
---------------------|-----------------------|---------------------|
--4------4------2----|--L--------------------|---------------------|
---------------------|-----------------------|--4------4------5----|
---------------------|-----------------------|---------------------|


  E  Q.     Q    Q       Q.     Q.     Q       H        Q    E  E
------------5----L----|--5------L------4----|--L-------------------|
--L--L------L----L----|--7------L------5----|-------------------5--|
----------------------|---------------------|----------------4-----|
----------------------|--4------4------2----|--L--------6----------|
--L--5------5----5----|---------------------|----------------------|
----------------------|---------------------|----------------------|


  H.           Q       H        E  E  Q       Q.     Q.     Q
--5------------7----|--L-------------------|--5------L------4----|
--2------------3----|--L-------------------|--7------L------5----|
--------------------|-----------4--2--1----|---------------------|
--------------------|----------------------|--4------4------2----|
--------------------|----------------------|---------------------|
--------------------|----------------------|---------------------|


  H        H           Q.     Q.     Q       W
--L--------L--------|---------------------|-------------------|
-----------L--------|--5------L------7----|--L----------------|
--------------------|--6------L------7----|--L----------------|
--L--------L--------|---------------------|-------------------|
--------------------|--4------4------5----|--L----------------|
-----------2--------|---------------------|-------------------|


(Electric Guitar)


  E  E  E  E  E  E  E  E     E  E  E  E  E  E  E  E
--------------------------|--------------------------|
--------------------------|--------------------------|
--6--6--6--6--6--6--6--6--|--7--6--6--6--7--6--6--6--|
--4--4--4--4--4--4--4--4--|--4--4--4--4--4--4--4--4--|
--------------------------|--------------------------|
--------------------------|--------------------------|


  E  E  E  E  E  E  E  E     E  E  E  E  E  E  E  E
--------------------------|--------------------------|
--------------------------|--------------------------|
--6--6--6--6--6--6--6--6--|--7--6--6--6--7--6--6--6--|
--4--4--4--4--4--4--4--4--|--4--4--4--4--4--4--4--4--|
--------------------------|--------------------------|
--------------------------|--------------------------|


  E  E  E  E  E  E  E  E     E  E  E  E  E  E  E  E     Q.     Q.     Q
--------------------------|--------------------------|---------------------|
--------------------------|--------------------------|---------------------|
--6--6--6--6--6--6--6--6--|--7--6--6--6--7--6--6--6--|--7------7------6----|
--7--7--7--7--7--7--7--7--|--7--7--7--7--7--7--7--7--|--7------7------6----|
--------------------------|--------------------------|---------------------|
--------------------------|--------------------------|---------------------|


  E  Q.     E  E  E  E     E  E  E  E  E  E  E  E     E  E  E  E  E  E  E  E
------------------------|--------------------------|--------------------------|
------------------------|--------------------------|--------------------------|
--L--6------6--6--6--6--|--6--6--6--6--6--6--6--6--|--7--6--6--6--7--6--6--6--|
--L--6------6--6--6--6--|--4--4--4--4--4--4--4--4--|--4--4--4--4--4--4--4--4--|
------------------------|--------------------------|--------------------------|
------------------------|--------------------------|--------------------------|


  E  E  E  E  E  E  E  E     E  E  E  E  E  E  E  E
--------------------------|--------------------------|
--------------------------|--------------------------|
--6--6--6--6--6--6--6--6--|--7--6--6--6--7--6--6--6--|
--4--4--4--4--4--4--4--4--|--4--4--4--4--4--4--4--4--|
--------------------------|--------------------------|
--------------------------|--------------------------|


  E  E  E  E  E  E  E  E     E  E  E  E  E  E  E  E     Q.     Q.     Q
--------------------------|--------------------------|---------------------|
--------------------------|--------------------------|---------------------|
--6--6--6--6--6--6--6--6--|--7--6--6--6--7--6--6--6--|--7------7------6----|
--7--7--7--7--7--7--7--7--|--7--7--7--7--7--7--7--7--|--7------7------6----|
--------------------------|--------------------------|---------------------|
--------------------------|--------------------------|---------------------|


                         (Piano)


  E  Q.     E  E  E  E     E  E  E  E  E  E  Q       E  E  E  E  E  E  E  E
------------------------|-----------9--------7----|--L--------4--5--7--5--4--|
------------------------|--------7-----7----------|--------5-----------------|
--L--6------6--6--6--6--|-----6-----------9-------|-----4--------------------|
--L--6------6--6--6--6--|-------------------------|--------------------------|
------------------------|--9-----------------7----|--L-----------------------|
------------------------|-------------------------|--------------------------|


                                  (Electric Guitar)

                                  ^  ^ ^  ^  ^        ^   ^       ^  ^ ^ ^
  E  E  E  Q    E  Q       Q.     S  S E  E  E  E     E   Q.      E  S S Q
-----------5------------|--------------------------|--------------------------|
--------5-------5--7----|--L-----------------------|--------------------------|
-----6------------------|--------------------2-----|--4b--4b------6--4-6-4----|
------------------------|---------2S-7-2--4--------|--------------------------|
--4----------------5----|--L-----------------------|--------------------------|
------------------------|--------------------------|--------------------------|


       ^          ^ ^ ^     ^  ^ ^ ^ ^  ^  ^  ^   ^
                               |-3-|
  Q    E  Q    E  S S E     E  S S S E  E  E  E   Q
-------------------------|------------------------------|
-------------------------|--------------------5b--5b----|
--L----2--------------2--|--6--4-6-4--------------------|
------------------2-4----|-----------7--4--7------------|
-------------------------|------------------------------|
-------------------------|------------------------------|


          ^  ^  ^   ^   ^   ^      ^    ^        ^  ^  ^  ^  ^
  Q.      S  S  E   E   E   E      E    Q.       S  S  S  S  Q
-------------------------------|----------------------------------|
--L--------------------14------|--18b--18b------------------------|
---------------14----------14--|----------------16-14-------16----|
---------14-16-----16----------|----------------------16-14-------|
-------------------------------|----------------------------------|
-------------------------------|----------------------------------|


        ^      ^      ^  ^  ^      ^   ^  ^  ^  ^   ^   ^   ^    ^
                                       |--3--|
  Q     E  E   Q      S  S  E      E   S  S  S  E   E   E   E    Q
-------------------------------|--------------------------------------|
-------------------------------|--------------------------------------|
--L----14-----16b----16-14-----|--16--16-18-16-------------16--/16----|
---------------------------16--|---------------19--16--19-------------|
-------------------------------|--------------------------------------|
-------------------------------|--------------------------------------|


           ^  ^  ^  ^   ^   ^    ^       ^          ^   ^   ^
           |--3--|
   Q.      S  S  S  E   E   S S  S S     H          E   E   Q
-------------------14------17---19---|--19b--------19------23b----|
-----------------------14------------|-----------------17---------|
---L------14-16-18-------------------|----------------------------|
-------------------------------------|----------------------------|
-------------------------------------|----------------------------|
-------------------------------------|----------------------------|


        ^             ^   ^      ^   ^  ^  ^  ^  ^   ^  ^  ^   ^
  Q     Q     E   E   E   E      E   S  S  S  S  E   S  S  E   Q
--L----23b----L\-------------|--------------------------------------|
---------------------10--12--|--14--12-14-12------------------------|
-----------------------------|---------------14-13--14-13-----------|
-----------------------------|----------------------------14--16----|
-----------------------------|--------------------------------------|
-----------------------------|--------------------------------------|


  Q    Q    Q    Q       Q    Q    Q     Q       Q     Q
----------------------|-----------------------|-------------|
----------------------|-----------------------|-------------|
----------------------|-----------------------|-------------|
--L----L----L----L----|--L----L----L-----L----|--L-----L----|
----------------------|-----------------------|-------------|
----------------------|-----------------------|-------------|


(Piano)


  Q.     Q.     Q       Q    Q    E  E  E  E     Q    E  E  E  E  Q
--5------L------4----|--L----L----4-----------|-------------4----------|
---------------------|---------------7--5-----|----------5-----5--7----|
---------------------|---------------------4--|-------6----------------|
--4------L------2----|--L----2----------------|------------------------|
---------------------|------------------------|--4----------------5----|
---------------------|------------------------|------------------------|


  Q.     E  E  E  E  E     E  E  E  E  E  E  Q       Q    Q    E  E  E  E
------------2--4--2-----|-----------9--------7----|--L----L----5--7--5--4--|
--L------3-----------3--|--------7-----7----------|------------------------|
------------------------|-----6-----------9-------|------------------------|
------------------------|-------------------------|------------------------|
--L---------------------|--9-----------------7----|--L----7----------------|
------------------------|-------------------------|------------------------|


                                          (Electric Guitar)


  Q.     Q.     Q       W                   E  E  E  E  E  E  E  E
---------------------|-------------------|--------------------------|
--5------5------7----|--L----------------|--------------------------|
---------------------|-------------------|--6--6--6--6--6--6--6--6--|
---------------------|-------------------|--4--4--4--4--4--4--4--4--|
--4------4------5----|--L----------------|--------------------------|
---------------------|-------------------|--------------------------|


  E  E  E  E  E  E  E  E     E  E  E  E  E  E  E  E
--------------------------|--------------------------|
--------------------------|--------------------------|
--7--6--6--6--7--6--6--6--|--6--6--6--6--6--6--6--6--|
--4--4--4--4--4--4--4--4--|--4--4--4--4--4--4--4--4--|
--------------------------|--------------------------|
--------------------------|--------------------------|


  E  E  E  E  E  E  E  E     E  E  E  E  E  E  E  E
--------------------------|--------------------------|
--------------------------|--------------------------|
--7--6--6--6--7--6--6--6--|--6--6--6--6--6--6--6--6--|
--4--4--4--4--4--4--4--4--|--7--7--7--7--7--7--7--7--|
--------------------------|--------------------------|
--------------------------|--------------------------|


  E  E  E  E  E  E  E  E     Q.     Q.     Q       E  Q.     E  E  E  E
--------------------------|---------------------|------------------------|
--------------------------|---------------------|------------------------|
--7--6--6--6--7--6--6--6--|--7------7------6----|--L--6------6--6--6--6--|
--7--7--7--7--7--7--7--7--|--7------7------6----|--L--6------6--6--6--6--|
--------------------------|---------------------|------------------------|
--------------------------|---------------------|------------------------|


  E  E  E  E  E  E  E  E     E  E  E  E  E  E  E  E
--------------------------|--------------------------|
--------------------------|--------------------------|
--6--6--6--6--6--6--6--6--|--7--6--6--6--7--6--6--6--|
--4--4--4--4--4--4--4--4--|--4--4--4--4--4--4--4--4--|
--------------------------|--------------------------|
--------------------------|--------------------------|


  E  E  E  E  E  E  E  E     E  E  E  E  E  E  E  E
--------------------------|--------------------------|
--------------------------|--------------------------|
--6--6--6--6--6--6--6--6--|--7--6--6--6--7--6--6--6--|
--4--4--4--4--4--4--4--4--|--4--4--4--4--4--4--4--4--|
--------------------------|--------------------------|
--------------------------|--------------------------|


  E  E  E  E  E  E  E  E     E  E  E  E  E  E  E  E     Q.     Q.     Q
--------------------------|--------------------------|---------------------|
--------------------------|--------------------------|---------------------|
--6--6--6--6--6--6--6--6--|--7--6--6--6--7--6--6--6--|--7------7------6----|
--7--7--7--7--7--7--7--7--|--7--7--7--7--7--7--7--7--|--7------7------6----|
--------------------------|--------------------------|---------------------|
--------------------------|--------------------------|---------------------|


                                PM      PM
  E  Q.     E  E  E  E     Q    E  Q    E  Q       Q    Q    Q    Q
------------------------|-----------------------|----------------------|
------------------------|-----------------------|----------------------|
--L--6------6--6--6--6--|-----------------------|----------------------|
--L--6------6--6--6--6--|--4----4--4----4--2----|--L----2----2----2----|
------------------------|--4----4--4----4--2----|--L----2----2----2----|
------------------------|--4----4--4----4--2----|--L----2----2----2----|


                                  PM PM PM           PM      PM
  Q.     Q.     Q       E  Q.     E  E  Q       Q    E  Q    E  Q
---------------------|-----------------------|-----------------------|
---------------------|-----------------------|-----------------------|
--6------6------7----|--L--------------------|-----------------------|
--6------6------7----|--L--0------7--6--2----|--4----4--4----4--2----|
--4------4------5----|--L--0------7--6--2----|--4----4--4----4--2----|
---------------------|-----0------7--6--2----|--4----4--4----4--2----|


                                                         PM PM PM
  Q    Q    Q    Q       Q.     Q.     Q       E  Q.     E  E  Q
----------------------|---------------------|-----------------------|
----------------------|---------------------|-----------------------|
----------------------|--6------6------7----|--L---------7--6--4----|
--L----2----2----2----|--6------6------7----|--L--0------7--6--4----|
--L----2----2----2----|--4------4------5----|--L--0------5--4--2----|
--L----2----2----2----|---------------------|-----0-----------------|


       PM      PM
  Q    E  Q    E  Q       Q    Q    Q    Q       Q.     Q.     Q
-----------------------|----------------------|---------------------|
-----------------------|----------------------|---------------------|
-----------------------|----------------------|--6------6------7----|
--4----4--4----4--2----|--L----2----2----2----|--6------6------7----|
--4----4--4----4--2----|--L----2----2----2----|--4------4------5----|
--4----4--4----4--2----|--L----2----2----2----|---------------------|


            PM PM PM           PM      PM
  E  Q.     E  E  Q       Q    E  Q    E  Q       Q    Q    Q    Q
-----------------------|-----------------------|----------------------|
-----------------------|-----------------------|----------------------|
--L--------------------|-----------------------|----------------------|
--L--0------7--6--2----|--4----4--4----4--2----|--L----2----2----2----|
--L--0------7--6--2----|--4----4--4----4--2----|--L----2----2----2----|
-----0------7--6--2----|--4----4--4----4--2----|--L----2----2----2----|


                                              (Piano)

                                  PM PM PM
  Q.     Q.     Q       E  Q.     E  E  Q       E  E  E  E  E  E  Q
---------------------|-----------------------|-----------9--------7----|
---------------------|-----------------------|--------7-----7----------|
--6------6------7----|--L---------7--6--4----|-----6-----------9-------|
--6------6------7----|--L--0------7--6--4----|-------------------------|
--4------4------5----|--L--0------5--4--2----|--9-----------------7----|
---------------------|-----0-----------------|-------------------------|


  Q    E  E  E  E  E  E     Q.     Q.     Q       W
--L----------4--5--7--5--|---------------------|-------------------|
----------5--------------|--5------5------7----|--L----------------|
-------4-----------------|---------------------|-------------------|
-------------------------|---------------------|-------------------|
--L----------------------|--4------4------5----|--L----------------|
-------------------------|---------------------|-------------------|


  W                   W                   W
-------------------|-------------------|-------------------|-------||
-------------------|-------------------|-------------------|-------||
-------------------|-------------------|-------------------|-------||
-------------------|-------------------|-------------------|-------||
-------------------|-------------------|-------------------|-------||
--4----------------|--L----------------|--L----------------|-------||




Duration Legend
---------------
W - whole
H - half
Q - quarter
E - 8th
S - 16th
T - 32nd
X - 64th
. - note dotted
|-n-|  - n-tuplets


Tablature Legend
----------------
L - tied note
x - dead note
g - grace note
(n) - ghost note
> - accentuded note
NH - natural harmonic
AH - artificial harmonic
TH - tapped harmonic
SH - semi harmonic
PH - pitch harmonic
h - hammer on
p - pull off
b - bend
br - bendRelease
pb - preBend
pbr - preBendRelease
brb - bendReleaseBend
\n/ - tremolo bar dip
\n - tremolo bar dive
-/n - tremolo bar Release up
/n\ - tremolo bar inverted dip
/n - tremolo bar return
-\n - tremolo bar Release down
S - shift slide
s - legato slide
/ -  slide into from below or out of upwards
\ -  slide into from above or out of downwards
~ - vibrato
W - wide vibrato
tr - trill
TP - tremolo picking
T - tapping
S - slap
P - pop
< - fade in
^ - brush up
v - brush down


That is all! I hope this helped, and be sure to check out my cover if you are
having problems with the tab. Thanks, oh and one last thing... ROCK OUT!!!!
comments
We did not receive enough feedback on this tab! Please rate:
print report bad tab
1 2 3 4 5
I want to post or [tab]
guest
You may want to rate the tab now too:
select rating
Please do not post tabs as comments. Select "correction" instead!