Oops, an error
Loading. Please wait.

The Way Of The Fist Tab

ver1
ver1

Album

Whole song

Interactive

More versions @911Tabs.com
8,907 views 3 this week
2 commentsread comments
1 2 3 4 5
not so good
x 5
Autoscroll
+/-
esc
set tempo
stop
Contributor
Hey! There's an official Ultimate Guitar app which is ideal
for learning songs when you're away from computer. Get the app
WARNING: You are trying to view
                                    content from Ultimate-Guitar.com
                                    in an unauthorized application,
                                    which is prohibited.

                                    Please use an official Ultimate
                                    Guitar Tabs application for iPhone,
                                    iPad or Android to access legitimate
                                    chords, guitar, bass, and drum tabs
                                    from Ultimate-Guitar.com database.

                                    Type "ultimate guitar tabs" in Apple
                                    App Store's or Android Market's
                                    search to find the application.
==========Ashes==========

Tuning: B E A D F# B

Lead Guitar

                          PM          PM          PM       
      W                   E   E    E  E   E    E  E   E    
B ||-------------------|----------------------------------|
F#||-------------------|----------------------------------|
D ||-------------------|-----12S--11-----11S--12-----12S--|
A ||-------------------|----------------------------------|
E ||-------------------|----------------------------------|
B ||-------------------|--0-----------0-----------0-------|


      PM                             PM          PM          PM       
   E  E   E    Q     E    E    E     E   E    E  E   E    E  E   E    
----------------------------------|----------------------------------|
----------------------------------|----------------------------------|
--11-----11S--14----14p--12p--11--|-----12S--11-----11S--12-----12S--|
----------------------------------|----------------------------------|
----------------------------------|----------------------------------|
------0---------------------------|--0-----------0-----------0-------|


      PM                             PM          PM          PM       
   E  E   E    Q     E    E    E     E   E    E  E   E    E  E   E    
----------------------------------|----------------------------------|
----------------------------------|----------------------------------|
--11-----11S--16----14p--12p--11--|-----12S--11-----11S--12-----12S--|
----------------------------------|----------------------------------|
----------------------------------|----------------------------------|
------0---------------------------|--0-----------0-----------0-------|


      PM                                                    
   E  E   E    Q     E    E    E      Q.      Q.      Q     
----------------------------------|------------------------|
----------------------------------|------------------------|
--11-----11S--12----14p--12p--11--|------------------------|
----------------------------------|------------------------|
----------------------------------|--15------14------12----|
------0---------------------------|------------------------|


                          PM          PM          PM       
   Q.      H        E     E   E    E  E   E    E  E   E    
-----------------------|----------------------------------|
-----------------------|----------------------------------|
-----------------------|-----12S--11-----11S--12-----12S--|
-----------------------|----------------------------------|
--14------15--------L--|----------------------------------|
-----------------------|--0-----------0-----------0-------|


      PM                             PM          PM          PM       
   E  E   E    Q     E    E    E     E   E    E  E   E    E  E   E    
----------------------------------|----------------------------------|
----------------------------------|----------------------------------|
--11-----11S--14----14p--12p--11--|-----12S--11-----11S--12-----12S--|
----------------------------------|----------------------------------|
----------------------------------|----------------------------------|
------0---------------------------|--0-----------0-----------0-------|


      PM                             PM          PM          PM       
   E  E   E    Q     E    E    E     E   E    E  E   E    E  E   E    
----------------------------------|----------------------------------|
----------------------------------|----------------------------------|
--11-----11S--16----14p--12p--11--|-----12S--11-----11S--12-----12S--|
----------------------------------|----------------------------------|
----------------------------------|----------------------------------|
------0---------------------------|--0-----------0-----------0-------|


      PM                                                                  
   E  E   E    Q     E    E    E      S  S  S  S  E   E   E   E   E   E   
----------------------------------|--------------------------------------|
----------------------------------|--------------17----------------------|
--11-----11S--12----14p--12p--11--|-----------17-----19--17--16----------|
----------------------------------|--------19--------------------19--17--|
----------------------------------|-----19-------------------------------|
------0---------------------------|--17----------------------------------|


                                         PM         PM         PM       
   S  S  S  S  E   E   E   E   E   E     E   E   E  E  E    E  E   E    
--------------------------------------|--------------------------------|
--------------------------------------|--------------------------------|
-----------16-17--16--14--------------|--------------------------------|
--------17----------------17--16--14--|--------------------------------|
-----17-------------------------------|-----10S--9-----9S--10-----10S--|
--15----------------------------------|--0----------0----------0-------|


     PM         PM PM PM PM       PM PM PM    PM PM PM    PM PM  
  E  E  E    E  E  E  E  E     E  S  S  E  E  S  S  E  E  S  S   
----------------------------|-----------------------------------|
----------------------------|-----------------------------------|
----------------------------|-----------------------------------|
----------------------------|--3-----------3-----------3--------|
--9-----9S--10--------------|--3-----------3-----------3--------|
-----0----------0--0--0--0--|--1--1--1--1--1--1--1--1--1--1--1--|


  PM    PM PM PM    PM              PM PM PM    PM PM PM    PM  
  E  E  S  S  E  E  E  E   E     E  S  S  E  E  S  S  E  E  E   
------------------------------|--------------------------------|
------------------------------|--------------------------------|
------------------------------|--------------------------------|
-----3-----------4-----3s--4--|--3-----------3-----------3-----|
-----3-----------4-----3s--4--|--3-----------3-----------3-----|
--1--1--1--1--1--2--1--1s--2--|--1--1--1--1--1--1--1--1--1--1--|


  PM PM PM PM                   PM PM PM    PM PM PM    PM PM  
  E  E  E  E  E  E  E  E     E  S  S  E  E  S  S  E  E  S  S   
--------------------------|-----------------------------------|
--------------------------|-----------------------------------|
--------------------------|-----------------------------------|
--------------5--4--------|--3-----------3-----------3--------|
-----0--2--3--------3--2--|--3-----------3-----------3--------|
--0-----------------------|--1--1--1--1--1--1--1--1--1--1--1--|


  PM    PM PM PM    PM              PM PM PM    PM PM PM    PM  
  E  E  S  S  E  E  E  E   E     E  S  S  E  E  S  S  E  E  E   
------------------------------|--------------------------------|
------------------------------|--------------------------------|
------------------------------|--------------------------------|
-----3-----------4-----3s--4--|--3-----------3-----------3-----|
-----3-----------4-----3s--4--|--3-----------3-----------3-----|
--1--1--1--1--1--2--1--1s--2--|--1--1--1--1--1--1--1--1--1--1--|


  PM PM PM PM                   PM PM PM    PM PM PM    PM PM  
  E  E  E  E  E  E  E  E     E  S  S  E  E  S  S  E  E  S  S   
--------------------------|-----------------------------------|
--------------------------|-----------------------------------|
--------------------------|-----------------------------------|
--------------5--4--------|--3-----------3-----------3--------|
-----0--2--3--------3--2--|--3-----------3-----------3--------|
--0-----------------------|--1--1--1--1--1--1--1--1--1--1--1--|


  PM    PM PM PM    PM              PM PM PM    PM PM PM    PM  
  E  E  S  S  E  E  E  E   E     E  S  S  E  E  S  S  E  E  E   
------------------------------|--------------------------------|
------------------------------|--------------------------------|
------------------------------|--------------------------------|
-----3-----------4-----3s--4--|--3-----------3-----------3-----|
-----3-----------4-----3s--4--|--3-----------3-----------3-----|
--1--1--1--1--1--2--1--1s--2--|--1--1--1--1--1--1--1--1--1--1--|


  PM PM PM PM                   PM PM PM    PM PM PM    PM PM  
  E  E  E  E  E  E  E  E     E  S  S  E  E  S  S  E  E  S  S   
--------------------------|-----------------------------------|
--------------------------|-----------------------------------|
--------------------------|-----------------------------------|
--------------5--4--------|--3-----------3-----------3--------|
-----0--2--3--------3--2--|--3-----------3-----------3--------|
--0-----------------------|--1--1--1--1--1--1--1--1--1--1--1--|


  PM    PM PM PM    PM              PM PM PM    PM PM PM    PM  
  E  E  S  S  E  E  E  E   E     E  S  S  E  E  S  S  E  E  E   
------------------------------|--------------------------------|
------------------------------|--------------------------------|
------------------------------|--------------------------------|
-----3-----------4-----3s--4--|--3-----------3-----------3-----|
-----3-----------4-----3s--4--|--3-----------3-----------3-----|
--1--1--1--1--1--2--1--1s--2--|--1--1--1--1--1--1--1--1--1--1--|


  PM PM PM PM                                                          
  E  E  E  E  E  E  E  E     Q.     Q.      Q       Q    H.            
--------------------------|----------------------|--------------------|
--------------------------|----------------------|--------------------|
--------------------------|----------------10----|--L----9------------|
--------------5--4--------|---------7------------|--------------------|
-----0--2--3--------3--2--|--7-------------------|--------------------|
--0-----------------------|----------------------|--------------------|


  Q.     Q.      Q       Q     Q    Q    Q       Q.     Q.     Q     
----------------------|-----------------------|---------------------|
----------------------|-------10----8---------|----------------6----|
----------------10----|--L---------------9----|---------------------|
---------7------------|-----------------------|---------5-----------|
--7-------------------|-----------------------|--5------------------|
----------------------|-----------------------|---------------------|


  Q    H.              Q.     Q.     Q       Q    Q    Q    Q     
--------------------|---------------------|----------------------|
--L----5------------|----------------6----|--L----8----6----5----|
--------------------|---------------------|----------------------|
--------------------|---------5-----------|----------------------|
--------------------|--5------------------|----------------------|
--------------------|---------------------|----------------------|


  Q.     Q.      Q       Q    H.              Q.     Q.      Q     
----------------------|--------------------|----------------------|
----------------------|--------------------|----------------------|
----------------10----|--L----9------------|----------------10----|
---------7------------|--------------------|---------7------------|
--7-------------------|--------------------|--7-------------------|
----------------------|--------------------|----------------------|


  Q     Q    Q    Q       Q.     Q.     Q       Q    H.            
-----------------------|---------------------|--------------------|
-------10----8---------|----------------6----|--L----5------------|
--L---------------9----|---------------------|--------------------|
-----------------------|---------5-----------|--------------------|
-----------------------|--5------------------|--------------------|
-----------------------|---------------------|--------------------|


                                               PM PM   PM PM PM   PM  
  Q.     Q.     Q       Q    Q    Q    Q       E  Q    E  E  Q    E   
---------------------|----------------------|------------------------|
----------------6----|--L----8----6----5----|------------------------|
---------------------|----------------------|------------------------|
---------5-----------|----------------------|------------------------|
--5------------------|----------------------|------------------------|
---------------------|----------------------|--0--0----0--0--0----0--|


  PM PM   PM PM PM   PM       PM PM     PM PM    PM  
  E  Q    E  E  Q    E     E  E  E   E  E  E  E  E   
------------------------|---------------------------|
------------------------|---------------------------|
------------------------|--8--------10--------8-----|
------------------------|--8--------10--------8-----|
------------------------|--6---------8--------6-----|
--0--0----0--0--0----0--|-----0--0------0--0-----0--|


  PM     PM PM    PM     PM        PM PM    PM PM     PM  
  E   E  E  E  E  E   E  E      E  E  E  E  E  E   E  E   
----------------------------|----------------------------|
----------------------------|----------------------------|
-----10--------8-----10-----|--10--------8--------10-----|
-----10--------8-----10-----|--10--------8--------10-----|
------8--------6------8-----|---8--------6---------8-----|
--0------0--0-----0------0--|------0--0-----0--0------0--|


  PM    PM PM     PM    PM       PM PM     PM PM    PM  
  E  E  E  E   E  E  E  E     E  E  E   E  E  E  E  E   
---------------------------|---------------------------|
---------------------------|---------------------------|
-----8--------10-----8-----|---------------------------|
-----8--------10-----8-----|--9--------10--------9-----|
-----6---------8-----6-----|--9--------10--------9-----|
--0-----0--0------0-----0--|--7--0--0---8--0--0--7--0--|


  PM     PM PM    PM     PM        PM PM    PM PM     PM  
  E   E  E  E  E  E   E  E      E  E  E  E  E  E   E  E   
----------------------------|----------------------------|
----------------------------|----------------------------|
----------------------------|----------------------------|
-----10--------9-----10-----|--10--------9--------10-----|
-----10--------9-----10-----|--10--------9--------10-----|
--0---8--0--0--7--0---8--0--|---8--0--0--7--0--0---8--0--|


  PM    PM PM     PM    PM       PM PM PM    PM PM PM    PM PM  
  E  E  E  E   E  E  E  E     E  S  S  E  E  S  S  E  E  S  S   
---------------------------|-----------------------------------|
---------------------------|-----------------------------------|
---------------------------|-----------------------------------|
-----9--------10-----9-----|--3-----------3-----------3--------|
-----9--------10-----9-----|--3-----------3-----------3--------|
--0--7--0--0---8--0--7--0--|--1--1--1--1--1--1--1--1--1--1--1--|


  PM    PM PM PM    PM              PM PM PM    PM PM PM    PM  
  E  E  S  S  E  E  E  E   E     E  S  S  E  E  S  S  E  E  E   
------------------------------|--------------------------------|
------------------------------|--------------------------------|
------------------------------|--------------------------------|
-----3-----------4-----3s--4--|--3-----------3-----------3-----|
-----3-----------4-----3s--4--|--3-----------3-----------3-----|
--1--1--1--1--1--2--1--1s--2--|--1--1--1--1--1--1--1--1--1--1--|


  PM PM PM PM                   PM PM PM    PM PM PM    PM PM  
  E  E  E  E  E  E  E  E     E  S  S  E  E  S  S  E  E  S  S   
--------------------------|-----------------------------------|
--------------------------|-----------------------------------|
--------------------------|-----------------------------------|
--------------5--4--------|--3-----------3-----------3--------|
-----0--2--3--------3--2--|--3-----------3-----------3--------|
--0-----------------------|--1--1--1--1--1--1--1--1--1--1--1--|


  PM    PM PM PM    PM              PM PM PM    PM PM PM    PM  
  E  E  S  S  E  E  E  E   E     E  S  S  E  E  S  S  E  E  E   
------------------------------|--------------------------------|
------------------------------|--------------------------------|
------------------------------|--------------------------------|
-----3-----------4-----3s--4--|--3-----------3-----------3-----|
-----3-----------4-----3s--4--|--3-----------3-----------3-----|
--1--1--1--1--1--2--1--1s--2--|--1--1--1--1--1--1--1--1--1--1--|


  PM PM PM PM                   PM PM PM    PM PM PM    PM PM  
  E  E  E  E  E  E  E  E     E  S  S  E  E  S  S  E  E  S  S   
--------------------------|-----------------------------------|
--------------------------|-----------------------------------|
--------------------------|-----------------------------------|
--------------5--4--------|--3-----------3-----------3--------|
-----0--2--3--------3--2--|--3-----------3-----------3--------|
--0-----------------------|--1--1--1--1--1--1--1--1--1--1--1--|


  PM    PM PM PM    PM              PM PM PM    PM PM PM    PM  
  E  E  S  S  E  E  E  E   E     E  S  S  E  E  S  S  E  E  E   
------------------------------|--------------------------------|
------------------------------|--------------------------------|
------------------------------|--------------------------------|
-----3-----------4-----3s--4--|--3-----------3-----------3-----|
-----3-----------4-----3s--4--|--3-----------3-----------3-----|
--1--1--1--1--1--2--1--1s--2--|--1--1--1--1--1--1--1--1--1--1--|


  PM PM PM PM                   PM PM PM    PM PM PM    PM PM  
  E  E  E  E  E  E  E  E     E  S  S  E  E  S  S  E  E  S  S   
--------------------------|-----------------------------------|
--------------------------|-----------------------------------|
--------------------------|-----------------------------------|
--------------5--4--------|--3-----------3-----------3--------|
-----0--2--3--------3--2--|--3-----------3-----------3--------|
--0-----------------------|--1--1--1--1--1--1--1--1--1--1--1--|


  PM    PM PM PM    PM              PM PM PM    PM PM PM    PM  
  E  E  S  S  E  E  E  E   E     E  S  S  E  E  S  S  E  E  E   
------------------------------|--------------------------------|
------------------------------|--------------------------------|
------------------------------|--------------------------------|
-----3-----------4-----3s--4--|--3-----------3-----------3-----|
-----3-----------4-----3s--4--|--3-----------3-----------3-----|
--1--1--1--1--1--2--1--1s--2--|--1--1--1--1--1--1--1--1--1--1--|


  PM PM PM PM                                                          
  E  E  E  E  E  E  E  E     Q.     Q.      Q       Q    H.            
--------------------------|----------------------|--------------------|
--------------------------|----------------------|--------------------|
--------------------------|----------------10----|--L----9------------|
--------------5--4--------|---------7------------|--------------------|
-----0--2--3--------3--2--|--7-------------------|--------------------|
--0-----------------------|----------------------|--------------------|


  Q.     Q.      Q       Q     Q    Q    Q       Q.     Q.     Q     
----------------------|-----------------------|---------------------|
----------------------|-------10----8---------|----------------6----|
----------------10----|--L---------------9----|---------------------|
---------7------------|-----------------------|---------5-----------|
--7-------------------|-----------------------|--5------------------|
----------------------|-----------------------|---------------------|


  Q    H.              Q.     Q.     Q       Q    Q    Q    Q     
--------------------|---------------------|----------------------|
--L----5------------|----------------6----|--L----8----6----5----|
--------------------|---------------------|----------------------|
--------------------|---------5-----------|----------------------|
--------------------|--5------------------|----------------------|
--------------------|---------------------|----------------------|


  Q.     Q.      Q       Q    H.              Q.     Q.      Q     
----------------------|--------------------|----------------------|
----------------------|--------------------|----------------------|
----------------10----|--L----9------------|----------------10----|
---------7------------|--------------------|---------7------------|
--7-------------------|--------------------|--7-------------------|
----------------------|--------------------|----------------------|


  Q     Q    Q    Q       Q.     Q.     Q       Q    H.            
-----------------------|---------------------|--------------------|
-------10----8---------|----------------6----|--L----5------------|
--L---------------9----|---------------------|--------------------|
-----------------------|---------5-----------|--------------------|
-----------------------|--5------------------|--------------------|
-----------------------|---------------------|--------------------|


                                               PM PM   PM PM PM   PM  
  Q.     Q.     Q       Q    Q    Q    Q       E  Q    E  E  Q    E   
---------------------|----------------------|------------------------|
----------------6----|--L----8----6----5----|------------------------|
---------------------|----------------------|------------------------|
---------5-----------|----------------------|------------------------|
--5------------------|----------------------|------------------------|
---------------------|----------------------|--0--0----0--0--0----0--|


  PM PM   PM PM PM   PM       PM PM     PM PM    PM  
  E  Q    E  E  Q    E     E  E  E   E  E  E  E  E   
------------------------|---------------------------|
------------------------|---------------------------|
------------------------|--8--------10--------8-----|
------------------------|--8--------10--------8-----|
------------------------|--6---------8--------6-----|
--0--0----0--0--0----0--|-----0--0------0--0-----0--|


  PM     PM PM    PM     PM        PM PM    PM PM     PM  
  E   E  E  E  E  E   E  E      E  E  E  E  E  E   E  E   
----------------------------|----------------------------|
----------------------------|----------------------------|
-----10--------8-----10-----|--10--------8--------10-----|
-----10--------8-----10-----|--10--------8--------10-----|
------8--------6------8-----|---8--------6---------8-----|
--0------0--0-----0------0--|------0--0-----0--0------0--|


  PM    PM PM     PM    PM       PM PM     PM PM    PM  
  E  E  E  E   E  E  E  E     E  E  E   E  E  E  E  E   
---------------------------|---------------------------|
---------------------------|---------------------------|
-----8--------10-----8-----|---------------------------|
-----8--------10-----8-----|--9--------10--------9-----|
-----6---------8-----6-----|--9--------10--------9-----|
--0-----0--0------0-----0--|--7--0--0---8--0--0--7--0--|


  PM     PM PM    PM     PM        PM PM    PM PM     PM  
  E   E  E  E  E  E   E  E      E  E  E  E  E  E   E  E   
----------------------------|----------------------------|
----------------------------|----------------------------|
----------------------------|----------------------------|
-----10--------9-----10-----|--10--------9--------10-----|
-----10--------9-----10-----|--10--------9--------10-----|
--0---8--0--0--7--0---8--0--|---8--0--0--7--0--0---8--0--|


  PM    PM PM     PM    PM       PM PM     PM PM    PM  
  E  E  E  E   E  E  E  E     E  E  E   E  E  E  E  E   
---------------------------|---------------------------|
---------------------------|---------------------------|
---------------------------|--8--------10--------8-----|
-----9--------10-----9-----|--8--------10--------8-----|
-----9--------10-----9-----|--6---------8--------6-----|
--0--7--0--0---8--0--7--0--|-----0--0------0--0-----0--|


  PM     PM PM    PM     PM        PM PM    PM PM     PM  
  E   E  E  E  E  E   E  E      E  E  E  E  E  E   E  E   
----------------------------|----------------------------|
----------------------------|----------------------------|
-----10--------8-----10-----|--10--------8--------10-----|
-----10--------8-----10-----|--10--------8--------10-----|
------8--------6------8-----|---8--------6---------8-----|
--0------0--0-----0------0--|------0--0-----0--0------0--|


  PM    PM PM     PM    PM       PM PM     PM PM    PM  
  E  E  E  E   E  E  E  E     E  E  E   E  E  E  E  E   
---------------------------|---------------------------|
---------------------------|---------------------------|
-----8--------10-----8-----|---------------------------|
-----8--------10-----8-----|--9--------10--------9-----|
-----6---------8-----6-----|--9--------10--------9-----|
--0-----0--0------0-----0--|--7--0--0---8--0--0--7--0--|


  PM     PM PM    PM     PM        PM PM    PM PM     PM  
  E   E  E  E  E  E   E  E      E  E  E  E  E  E   E  E   
----------------------------|----------------------------|
----------------------------|----------------------------|
----------------------------|----------------------------|
-----10--------9-----10-----|--10--------9--------10-----|
-----10--------9-----10-----|--10--------9--------10-----|
--0---8--0--0--7--0---8--0--|---8--0--0--7--0--0---8--0--|


  PM    PM PM     PM    PM    PM          PM          PM       
  E  E  E  E   E  E  E  E     E   E    E  E   E    E  E   E    
---------------------------|----------------------------------|
---------------------------|----------------------------------|
---------------------------|-----12S--11-----11S--12-----12S--|
-----9--------10-----9-----|----------------------------------|
-----9--------10-----9-----|----------------------------------|
--0--7--0--0---8--0--7--0--|--0-----------0-----------0-------|


      PM                             PM          PM          PM       
   E  E   E    Q     E    E    E     E   E    E  E   E    E  E   E    
----------------------------------|----------------------------------|
----------------------------------|----------------------------------|
--11-----11S--14----14p--12p--11--|-----12S--11-----11S--12-----12S--|
----------------------------------|----------------------------------|
----------------------------------|----------------------------------|
------0---------------------------|--0-----------0-----------0-------|


      PM                             PM          PM          PM       
   E  E   E    Q     E    E    E     E   E    E  E   E    E  E   E    
----------------------------------|----------------------------------|
----------------------------------|----------------------------------|
--11-----11S--16----14p--12p--11--|-----12S--11-----11S--12-----12S--|
----------------------------------|----------------------------------|
----------------------------------|----------------------------------|
------0---------------------------|--0-----------0-----------0-------|


      PM                                                    
   E  E   E    Q     E    E    E      Q.      Q.      Q     
----------------------------------|------------------------|
----------------------------------|------------------------|
--11-----11S--12----14p--12p--11--|------------------------|
----------------------------------|------------------------|
----------------------------------|--15------14------12----|
------0---------------------------|------------------------|


                          PM          PM          PM       
   Q.      H        E     E   E    E  E   E    E  E   E    
-----------------------|----------------------------------|
-----------------------|----------------------------------|
-----------------------|-----12S--11-----11S--12-----12S--|
-----------------------|----------------------------------|
--14------15--------L--|----------------------------------|
-----------------------|--0-----------0-----------0-------|


      PM                             PM          PM          PM       
   E  E   E    Q     E    E    E     E   E    E  E   E    E  E   E    
----------------------------------|----------------------------------|
----------------------------------|----------------------------------|
--11-----11S--14----14p--12p--11--|-----12S--11-----11S--12-----12S--|
----------------------------------|----------------------------------|
----------------------------------|----------------------------------|
------0---------------------------|--0-----------0-----------0-------|


      PM                             PM          PM          PM       
   E  E   E    Q     E    E    E     E   E    E  E   E    E  E   E    
----------------------------------|----------------------------------|
----------------------------------|----------------------------------|
--11-----11S--16----14p--12p--11--|-----12S--11-----11S--12-----12S--|
----------------------------------|----------------------------------|
----------------------------------|----------------------------------|
------0---------------------------|--0-----------0-----------0-------|


      PM                                                                  
   E  E   E    Q     E    E    E      S  S  S  S  E   E   E   E   E   E   
----------------------------------|--------------------------------------|
----------------------------------|--------------17----------------------|
--11-----11S--12----14p--12p--11--|-----------17-----19--17--16----------|
----------------------------------|--------19--------------------19--17--|
----------------------------------|-----19-------------------------------|
------0---------------------------|--17----------------------------------|


   S  S  S  S  E   E   E   E   E   E      H         H         
--------------------------------------|----------------------|
--------------------------------------|----------------------|
-----------16-17--16--14--------------|--12--------14--------|
--------17----------------17--16--14--|----------------------|
-----17-------------------------------|----------------------|
--15----------------------------------|----------------------|


  H         Q     Q        H         Q     Q       Q     Q     Q     Q     
-----------------------|------------------------|-------------------------|
-----------------------|------------------------|-------------------15----|
--L--------16----14----|--16--------17----14----|--L----16----17----------|
-----------------------|------------------------|-------------------------|
-----------------------|------------------------|-------------------------|
-----------------------|------------------------|-------------------------|


   H          E   E   Q        H         Q     E   E      Q.      Q.      Q     
---------------------13b----|--L--------17------------|--15------13------17----|
--15b--------15--13---------|-----------------17--15--|------------------------|
----------------------------|-------------------------|------------------------|
----------------------------|-------------------------|------------------------|
----------------------------|-------------------------|------------------------|
----------------------------|-------------------------|------------------------|


                            T           T           T           T           
                            |---3---|   |---3---|   |---3---|   |---3---|   
   Q.      Q.      Q        E   E   E   E   E   E   E   E   E   E   E   E   
--19------20------22----|--24--17--15--24--20--17--24--20--17--24--20--17--|
------------------------|--------------------------------------------------|
------------------------|--------------------------------------------------|
------------------------|--------------------------------------------------|
------------------------|--------------------------------------------------|
------------------------|--------------------------------------------------|


   T           T           T                       
   |---3---|   |---3---|   |---3---|   |---3---|   
   E   E   E   E   E   E   E   E   E   E   E   E   
--24--20--17--25--20--17--24--20--17--15--17--20--|
--------------------------------------------------|
--------------------------------------------------|
--------------------------------------------------|
--------------------------------------------------|
--------------------------------------------------|


   T           T           T           T           
   |---3---|   |---3---|   |---3---|   |---3---|   
   E   E   E   E   E   E   E   E   E   E   E   E   
--24--17--15--24--20--17--24--20--17--24--20--17--|
--------------------------------------------------|
--------------------------------------------------|
--------------------------------------------------|
--------------------------------------------------|
--------------------------------------------------|


   T           T           T                       
   |---3---|   |---3---|   |---3---|   |---3---|   
   E   E   E   E   E   E   E   E   E   E   E   E   
--24--20--17--25--20--17--24--20--17--15--17--20--|
--------------------------------------------------|
--------------------------------------------------|
--------------------------------------------------|
--------------------------------------------------|
--------------------------------------------------|


   E   Q     E   E   Q     E      E   Q     E   E   E   E   E   
--24--20----20--27--20----20--|--24--20----20--27--20--19--22--|
------------------------------|--------------------------------|
------------------------------|--------------------------------|
------------------------------|--------------------------------|
------------------------------|--------------------------------|
------------------------------|--------------------------------|


   H          E   E   Q         W                   Q.     Q.      Q     
--27b---------L--24--27~----|---L----------------|----------------------|
----------------------------|--------------------|----------------------|
----------------------------|--------------------|----------------10----|
----------------------------|--------------------|---------7------------|
----------------------------|--------------------|--7-------------------|
----------------------------|--------------------|----------------------|


  Q    H.              Q.     Q.      Q       Q     Q    Q    Q     
--------------------|----------------------|-----------------------|
--------------------|----------------------|-------10----8---------|
--L----9------------|----------------10----|--L---------------9----|
--------------------|---------7------------|-----------------------|
--------------------|--7-------------------|-----------------------|
--------------------|----------------------|-----------------------|


  Q.     Q.     Q       Q    H.              Q.     Q.     Q     
---------------------|--------------------|---------------------|
----------------6----|--L----5------------|----------------6----|
---------------------|--------------------|---------------------|
---------5-----------|--------------------|---------5-----------|
--5------------------|--------------------|--5------------------|
---------------------|--------------------|---------------------|


  Q    Q    Q    Q       Q.     Q.      Q       Q    H.            
----------------------|----------------------|--------------------|
--L----8----6----5----|----------------------|--------------------|
----------------------|----------------10----|--L----9------------|
----------------------|---------7------------|--------------------|
----------------------|--7-------------------|--------------------|
----------------------|----------------------|--------------------|


  Q.     Q.      Q       Q     Q    Q    Q       Q.     Q.     Q     
----------------------|-----------------------|---------------------|
----------------------|-------10----8---------|----------------6----|
----------------10----|--L---------------9----|---------------------|
---------7------------|-----------------------|---------5-----------|
--7-------------------|-----------------------|--5------------------|
----------------------|-----------------------|---------------------|


  Q    H.              Q.     Q.     Q       Q    Q    Q    Q     
--------------------|---------------------|----------------------|
--L----5------------|----------------6----|--L----8----6----5----|
--------------------|---------------------|----------------------|
--------------------|---------5-----------|----------------------|
--------------------|--5------------------|----------------------|
--------------------|---------------------|----------------------|


  PM         PM         PM            PM         PM PM PM PM  
  E   E   E  E  E    E  E   E      E  E  E    E  E  E  E  E   
--------------------------------|----------------------------|
--------------------------------|----------------------------|
--------------------------------|----------------------------|
--------------------------------|----------------------------|
-----10S--9-----9S--10-----10S--|--9-----9S--10--------------|
--0----------0----------0-------|-----0----------0--0--0--0--|


  Q    H.             
--------------------||
--------------------||
--------------------||
--------------------||
--2-----------------||
--0-----------------||

Rhythm Guitar
     
                          PM         PM         PM       
      W                   E   E   E  E  E    E  E   E    
B ||-------------------|--------------------------------|
F#||-------------------|--------------------------------|
D ||-------------------|--------------------------------|
A ||-------------------|--------------------------------|
E ||-------------------|-----10S--9-----9S--10-----10S--|
B ||-------------------|--0----------0----------0-------|


     PM           PM PM PM    PM         PM         PM       
  E  E  E    Q    E  E  E     E   E   E  E  E    E  E   E    
---------------------------|--------------------------------|
---------------------------|--------------------------------|
---------------------------|--------------------------------|
---------------------------|--------------------------------|
--9-----9S--10-------------|-----10S--9-----9S--10-----10S--|
-----0------------0--0--0--|--0----------0----------0-------|


     PM           PM PM PM    PM         PM         PM       
  E  E  E    Q    E  E  E     E   E   E  E  E    E  E   E    
---------------------------|--------------------------------|
---------------------------|--------------------------------|
---------------------------|--------------------------------|
---------------------------|--------------------------------|
--9-----9S--10-------------|-----10S--9-----9S--10-----10S--|
-----0------------0--0--0--|--0----------0----------0-------|


     PM           PM PM PM         PM PM        PM PM PM PM  
  E  E  E    Q    E  E  E     Q    S  S  Q.     S  S  S  S   
---------------------------|--------------------------------|
---------------------------|--------------------------------|
---------------------------|--------------------------------|
---------------------------|--------------------------------|
--9-----9S--10-------------|--7----------7------------------|
-----0------------0--0--0--|--5----5--5--5------5--5--5--5--|


       PM PM        PM PM PM PM    PM         PM         PM       
  Q    S  S  Q.     S  S  S  S     E   E   E  E  E    E  E   E    
--------------------------------|--------------------------------|
--------------------------------|--------------------------------|
--------------------------------|--------------------------------|
--------------------------------|--------------------------------|
--5----------5------------------|-----10S--9-----9S--10-----10S--|
--3----3--3--3------3--3--3--3--|--0----------0----------0-------|


     PM           PM PM PM    PM         PM         PM       
  E  E  E    Q    E  E  E     E   E   E  E  E    E  E   E    
---------------------------|--------------------------------|
---------------------------|--------------------------------|
---------------------------|--------------------------------|
---------------------------|--------------------------------|
--9-----9S--10-------------|-----10S--9-----9S--10-----10S--|
-----0------------0--0--0--|--0----------0----------0-------|


     PM           PM PM PM    PM         PM         PM       
  E  E  E    Q    E  E  E     E   E   E  E  E    E  E   E    
---------------------------|--------------------------------|
---------------------------|--------------------------------|
---------------------------|--------------------------------|
---------------------------|--------------------------------|
--9-----9S--10-------------|-----10S--9-----9S--10-----10S--|
-----0------------0--0--0--|--0----------0----------0-------|


     PM           PM PM PM         PM PM        PM PM PM PM  
  E  E  E    Q    E  E  E     Q    S  S  Q.     S  S  S  S   
---------------------------|--------------------------------|
---------------------------|--------------------------------|
---------------------------|--------------------------------|
---------------------------|--------------------------------|
--9-----9S--10-------------|--7----------7------------------|
-----0------------0--0--0--|--5----5--5--5------5--5--5--5--|


       PM PM        PM PM PM PM    PM         PM         PM       
  Q    S  S  Q.     S  S  S  S     E   E   E  E  E    E  E   E    
--------------------------------|--------------------------------|
--------------------------------|--------------------------------|
--------------------------------|--------------------------------|
--------------------------------|--------------------------------|
--5----------5------------------|-----10S--9-----9S--10-----10S--|
--3----3--3--3------3--3--3--3--|--0----------0----------0-------|


     PM         PM PM PM PM       PM PM PM    PM PM PM    PM PM  
  E  E  E    E  E  E  E  E     E  S  S  E  E  S  S  E  E  S  S   
----------------------------|-----------------------------------|
----------------------------|-----------------------------------|
----------------------------|-----------------------------------|
----------------------------|--3-----------3-----------3--------|
--9-----9S--10--------------|--3-----------3-----------3--------|
-----0----------0--0--0--0--|--1--1--1--1--1--1--1--1--1--1--1--|


  PM    PM PM PM    PM              PM PM PM    PM PM PM    PM  
  E  E  S  S  E  E  E  E   E     E  S  S  E  E  S  S  E  E  E   
------------------------------|--------------------------------|
------------------------------|--------------------------------|
------------------------------|--------------------------------|
-----3-----------4-----3s--4--|--3-----------3-----------3-----|
-----3-----------4-----3s--4--|--3-----------3-----------3-----|
--1--1--1--1--1--2--1--1s--2--|--1--1--1--1--1--1--1--1--1--1--|


  PM PM PM PM                   PM PM PM    PM PM PM    PM PM  
  E  E  E  E  E  E  E  E     E  S  S  E  E  S  S  E  E  S  S   
--------------------------|-----------------------------------|
--------------------------|-----------------------------------|
--------------------------|-----------------------------------|
--------------5--4--------|--3-----------3-----------3--------|
-----0--2--3--------3--2--|--3-----------3-----------3--------|
--0-----------------------|--1--1--1--1--1--1--1--1--1--1--1--|


  PM    PM PM PM    PM              PM PM PM    PM PM PM    PM  
  E  E  S  S  E  E  E  E   E     E  S  S  E  E  S  S  E  E  E   
------------------------------|--------------------------------|
------------------------------|--------------------------------|
------------------------------|--------------------------------|
-----3-----------4-----3s--4--|--3-----------3-----------3-----|
-----3-----------4-----3s--4--|--3-----------3-----------3-----|
--1--1--1--1--1--2--1--1s--2--|--1--1--1--1--1--1--1--1--1--1--|


  PM PM PM PM                   PM PM PM    PM PM PM    PM PM  
  E  E  E  E  E  E  E  E     E  S  S  E  E  S  S  E  E  S  S   
--------------------------|-----------------------------------|
--------------------------|-----------------------------------|
--------------------------|-----------------------------------|
--------------5--4--------|--3-----------3-----------3--------|
-----0--2--3--------3--2--|--3-----------3-----------3--------|
--0-----------------------|--1--1--1--1--1--1--1--1--1--1--1--|


  PM    PM PM PM    PM              PM PM PM    PM PM PM    PM  
  E  E  S  S  E  E  E  E   E     E  S  S  E  E  S  S  E  E  E   
------------------------------|--------------------------------|
------------------------------|--------------------------------|
------------------------------|--------------------------------|
-----3-----------4-----3s--4--|--3-----------3-----------3-----|
-----3-----------4-----3s--4--|--3-----------3-----------3-----|
--1--1--1--1--1--2--1--1s--2--|--1--1--1--1--1--1--1--1--1--1--|


  PM PM PM PM                   PM PM PM    PM PM PM    PM PM  
  E  E  E  E  E  E  E  E     E  S  S  E  E  S  S  E  E  S  S   
--------------------------|-----------------------------------|
--------------------------|-----------------------------------|
--------------------------|-----------------------------------|
--------------5--4--------|--3-----------3-----------3--------|
-----0--2--3--------3--2--|--3-----------3-----------3--------|
--0-----------------------|--1--1--1--1--1--1--1--1--1--1--1--|


  PM    PM PM PM    PM              PM PM PM    PM PM PM    PM  
  E  E  S  S  E  E  E  E   E     E  S  S  E  E  S  S  E  E  E   
------------------------------|--------------------------------|
------------------------------|--------------------------------|
------------------------------|--------------------------------|
-----3-----------4-----3s--4--|--3-----------3-----------3-----|
-----3-----------4-----3s--4--|--3-----------3-----------3-----|
--1--1--1--1--1--2--1--1s--2--|--1--1--1--1--1--1--1--1--1--1--|


  PM PM PM PM                                                 PM PM  
  E  E  E  E  E  E  E  E     W                   H.           E  E   
--------------------------|-------------------|---------------------|
--------------------------|-------------------|---------------------|
--------------------------|-------------------|---------------------|
--------------5--4--------|--7----------------|--L------------7--7--|
-----0--2--3--------3--2--|--7----------------|--L------------7--7--|
--0-----------------------|--5----------------|--L------------5--5--|


                                   PM PM                      
  W                   H.           E  E     W                 
-------------------|---------------------|-------------------|
-------------------|---------------------|-------------------|
-------------------|---------------------|-------------------|
--7----------------|--L------------7--7--|--5----------------|
--7----------------|--L------------7--7--|--5----------------|
--5----------------|--L------------5--5--|--3----------------|


               PM PM                                            
  H.           E  E     W                   H.           Q      
---------------------|-------------------|---------------------|
---------------------|-------------------|---------------------|
---------------------|-------------------|---------------------|
--L------------5--5--|--5----------------|--L------------L\----|
--L------------5--5--|--5----------------|--L------------L\----|
--L------------3--3--|--3----------------|--L------------L\----|


                                   PM PM                      
  W                   H.           E  E     W                 
-------------------|---------------------|-------------------|
-------------------|---------------------|-------------------|
-------------------|---------------------|-------------------|
--7----------------|--L------------7--7--|--7----------------|
--7----------------|--L------------7--7--|--7----------------|
--5----------------|--L------------5--5--|--5----------------|


               PM PM                                     PM PM  
  H.           E  E     W                   H.           E  E   
---------------------|-------------------|---------------------|
---------------------|-------------------|---------------------|
---------------------|-------------------|---------------------|
--L------------7--7--|--5----------------|--L------------5--5--|
--L------------7--7--|--5----------------|--L------------5--5--|
--L------------5--5--|--3----------------|--L------------3--3--|


                                            PM PM   PM PM PM   PM  
  W                   H.           Q        E  Q    E  E  Q    E   
-------------------|---------------------|------------------------|
-------------------|---------------------|------------------------|
-------------------|---------------------|------------------------|
--5----------------|--L------------L\----|------------------------|
--5----------------|--L------------L\----|------------------------|
--3----------------|--L------------L\----|--0--0----0--0--0----0--|


  PM PM   PM PM PM   PM       PM PM     PM PM    PM  
  E  Q    E  E  Q    E     E  E  E   E  E  E  E  E   
------------------------|---------------------------|
------------------------|---------------------------|
------------------------|--8--------10--------8-----|
------------------------|--8--------10--------8-----|
------------------------|--6---------8--------6-----|
--0--0----0--0--0----0--|-----0--0------0--0-----0--|


  PM     PM PM    PM     PM        PM PM    PM PM     PM  
  E   E  E  E  E  E   E  E      E  E  E  E  E  E   E  E   
----------------------------|----------------------------|
----------------------------|----------------------------|
-----10--------8-----10-----|--10--------8--------10-----|
-----10--------8-----10-----|--10--------8--------10-----|
------8--------6------8-----|---8--------6---------8-----|
--0------0--0-----0------0--|------0--0-----0--0------0--|


  PM    PM PM     PM    PM       PM PM     PM PM    PM  
  E  E  E  E   E  E  E  E     E  E  E   E  E  E  E  E   
---------------------------|---------------------------|
---------------------------|---------------------------|
-----8--------10-----8-----|---------------------------|
-----8--------10-----8-----|--9--------10--------9-----|
-----6---------8-----6-----|--9--------10--------9-----|
--0-----0--0------0-----0--|--7--0--0---8--0--0--7--0--|


  PM     PM PM    PM     PM        PM PM    PM PM     PM  
  E   E  E  E  E  E   E  E      E  E  E  E  E  E   E  E   
----------------------------|----------------------------|
----------------------------|----------------------------|
----------------------------|----------------------------|
-----10--------9-----10-----|--10--------9--------10-----|
-----10--------9-----10-----|--10--------9--------10-----|
--0---8--0--0--7--0---8--0--|---8--0--0--7--0--0---8--0--|


  PM    PM PM     PM    PM       PM PM PM    PM PM PM    PM PM  
  E  E  E  E   E  E  E  E     E  S  S  E  E  S  S  E  E  S  S   
---------------------------|-----------------------------------|
---------------------------|-----------------------------------|
---------------------------|-----------------------------------|
-----9--------10-----9-----|--3-----------3-----------3--------|
-----9--------10-----9-----|--3-----------3-----------3--------|
--0--7--0--0---8--0--7--0--|--1--1--1--1--1--1--1--1--1--1--1--|


  PM    PM PM PM    PM              PM PM PM    PM PM PM    PM  
  E  E  S  S  E  E  E  E   E     E  S  S  E  E  S  S  E  E  E   
------------------------------|--------------------------------|
------------------------------|--------------------------------|
------------------------------|--------------------------------|
-----3-----------4-----3s--4--|--3-----------3-----------3-----|
-----3-----------4-----3s--4--|--3-----------3-----------3-----|
--1--1--1--1--1--2--1--1s--2--|--1--1--1--1--1--1--1--1--1--1--|


  PM PM PM PM                   PM PM PM    PM PM PM    PM PM  
  E  E  E  E  E  E  E  E     E  S  S  E  E  S  S  E  E  S  S   
--------------------------|-----------------------------------|
--------------------------|-----------------------------------|
--------------------------|-----------------------------------|
--------------5--4--------|--3-----------3-----------3--------|
-----0--2--3--------3--2--|--3-----------3-----------3--------|
--0-----------------------|--1--1--1--1--1--1--1--1--1--1--1--|


  PM    PM PM PM    PM              PM PM PM    PM PM PM    PM  
  E  E  S  S  E  E  E  E   E     E  S  S  E  E  S  S  E  E  E   
------------------------------|--------------------------------|
------------------------------|--------------------------------|
------------------------------|--------------------------------|
-----3-----------4-----3s--4--|--3-----------3-----------3-----|
-----3-----------4-----3s--4--|--3-----------3-----------3-----|
--1--1--1--1--1--2--1--1s--2--|--1--1--1--1--1--1--1--1--1--1--|


  PM PM PM PM                   PM PM PM    PM PM PM    PM PM  
  E  E  E  E  E  E  E  E     E  S  S  E  E  S  S  E  E  S  S   
--------------------------|-----------------------------------|
--------------------------|-----------------------------------|
--------------------------|-----------------------------------|
--------------5--4--------|--3-----------3-----------3--------|
-----0--2--3--------3--2--|--3-----------3-----------3--------|
--0-----------------------|--1--1--1--1--1--1--1--1--1--1--1--|


  PM    PM PM PM    PM              PM PM PM    PM PM PM    PM  
  E  E  S  S  E  E  E  E   E     E  S  S  E  E  S  S  E  E  E   
------------------------------|--------------------------------|
------------------------------|--------------------------------|
------------------------------|--------------------------------|
-----3-----------4-----3s--4--|--3-----------3-----------3-----|
-----3-----------4-----3s--4--|--3-----------3-----------3-----|
--1--1--1--1--1--2--1--1s--2--|--1--1--1--1--1--1--1--1--1--1--|


  PM PM PM PM                   PM PM PM    PM PM PM    PM PM  
  E  E  E  E  E  E  E  E     E  S  S  E  E  S  S  E  E  S  S   
--------------------------|-----------------------------------|
--------------------------|-----------------------------------|
--------------------------|-----------------------------------|
--------------5--4--------|--3-----------3-----------3--------|
-----0--2--3--------3--2--|--3-----------3-----------3--------|
--0-----------------------|--1--1--1--1--1--1--1--1--1--1--1--|


  PM    PM PM PM    PM              PM PM PM    PM PM PM    PM  
  E  E  S  S  E  E  E  E   E     E  S  S  E  E  S  S  E  E  E   
------------------------------|--------------------------------|
------------------------------|--------------------------------|
------------------------------|--------------------------------|
-----3-----------4-----3s--4--|--3-----------3-----------3-----|
-----3-----------4-----3s--4--|--3-----------3-----------3-----|
--1--1--1--1--1--2--1--1s--2--|--1--1--1--1--1--1--1--1--1--1--|


  PM PM PM PM                                                 PM PM  
  E  E  E  E  E  E  E  E     W                   H.           E  E   
--------------------------|-------------------|---------------------|
--------------------------|-------------------|---------------------|
--------------------------|-------------------|---------------------|
--------------5--4--------|--7----------------|--L------------7--7--|
-----0--2--3--------3--2--|--7----------------|--L------------7--7--|
--0-----------------------|--5----------------|--L------------5--5--|


                                   PM PM                      
  W                   H.           E  E     W                 
-------------------|---------------------|-------------------|
-------------------|---------------------|-------------------|
-------------------|---------------------|-------------------|
--7----------------|--L------------7--7--|--5----------------|
--7----------------|--L------------7--7--|--5----------------|
--5----------------|--L------------5--5--|--3----------------|


               PM PM                                            
  H.           E  E     W                   H.           Q      
---------------------|-------------------|---------------------|
---------------------|-------------------|---------------------|
---------------------|-------------------|---------------------|
--L------------5--5--|--5----------------|--L------------L\----|
--L------------5--5--|--5----------------|--L------------L\----|
--L------------3--3--|--3----------------|--L------------L\----|


                                   PM PM                      
  W                   H.           E  E     W                 
-------------------|---------------------|-------------------|
-------------------|---------------------|-------------------|
-------------------|---------------------|-------------------|
--7----------------|--L------------7--7--|--7----------------|
--7----------------|--L------------7--7--|--7----------------|
--5----------------|--L------------5--5--|--5----------------|


               PM PM                                     PM PM  
  H.           E  E     W                   H.           E  E   
---------------------|-------------------|---------------------|
---------------------|-------------------|---------------------|
---------------------|-------------------|---------------------|
--L------------7--7--|--5----------------|--L------------5--5--|
--L------------7--7--|--5----------------|--L------------5--5--|
--L------------5--5--|--3----------------|--L------------3--3--|


                                            PM PM   PM PM PM   PM  
  W                   H.           Q        E  Q    E  E  Q    E   
-------------------|---------------------|------------------------|
-------------------|---------------------|------------------------|
-------------------|---------------------|------------------------|
--5----------------|--L------------L\----|------------------------|
--5----------------|--L------------L\----|------------------------|
--3----------------|--L------------L\----|--0--0----0--0--0----0--|


  PM PM   PM PM PM   PM        PM PM     PM PM     PM  
  E  Q    E  E  Q    E      E  E  E   E  E  E   E  E   
------------------------|-----------------------------|
------------------------|-----------------------------|
------------------------|-----------------------------|
------------------------|--13--------15--------13-----|
------------------------|--13--------15--------13-----|
--0--0----0--0--0----0--|--11--0--0--13--0--0--11--0--|


  PM     PM PM     PM     PM        PM PM     PM PM     PM  
  E   E  E  E   E  E   E  E      E  E  E   E  E  E   E  E   
-----------------------------|-----------------------------|
-----------------------------|-----------------------------|
-----------------------------|-----------------------------|
-----15--------13-----15-----|--15--------13--------15-----|
-----15--------13-----15-----|--15--------13--------15-----|
--0--13--0--0--11--0--13--0--|--13--0--0--11--0--0--13--0--|


  PM     PM PM     PM     PM       PM PM     PM PM    PM  
  E   E  E  E   E  E   E  E     E  E  E   E  E  E  E  E   
-----------------------------|---------------------------|
-----------------------------|---------------------------|
-----------------------------|---------------------------|
-----13--------15-----13-----|--9--------10--------9-----|
-----13--------15-----13-----|--9--------10--------9-----|
--0--11--0--0--13--0--11--0--|--7--0--0---8--0--0--7--0--|


  PM     PM PM    PM     PM        PM PM    PM PM     PM  
  E   E  E  E  E  E   E  E      E  E  E  E  E  E   E  E   
----------------------------|----------------------------|
----------------------------|----------------------------|
----------------------------|----------------------------|
-----10--------9-----10-----|--10--------9--------10-----|
-----10--------9-----10-----|--10--------9--------10-----|
--0---8--0--0--7--0---8--0--|---8--0--0--7--0--0---8--0--|


  PM    PM PM     PM    PM        PM PM     PM PM     PM  
  E  E  E  E   E  E  E  E      E  E  E   E  E  E   E  E   
---------------------------|-----------------------------|
---------------------------|-----------------------------|
---------------------------|-----------------------------|
-----9--------10-----9-----|--13--------15--------13-----|
-----9--------10-----9-----|--13--------15--------13-----|
--0--7--0--0---8--0--7--0--|--11--0--0--13--0--0--11--0--|


  PM     PM PM     PM     PM        PM PM     PM PM     PM  
  E   E  E  E   E  E   E  E      E  E  E   E  E  E   E  E   
-----------------------------|-----------------------------|
-----------------------------|-----------------------------|
-----------------------------|-----------------------------|
-----15--------13-----15-----|--15--------13--------15-----|
-----15--------13-----15-----|--15--------13--------15-----|
--0--13--0--0--11--0--13--0--|--13--0--0--11--0--0--13--0--|


  PM     PM PM     PM     PM       PM PM     PM PM    PM  
  E   E  E  E   E  E   E  E     E  E  E   E  E  E  E  E   
-----------------------------|---------------------------|
-----------------------------|---------------------------|
-----------------------------|---------------------------|
-----13--------15-----13-----|--9--------10--------9-----|
-----13--------15-----13-----|--9--------10--------9-----|
--0--11--0--0--13--0--11--0--|--7--0--0---8--0--0--7--0--|


  PM     PM PM    PM     PM        PM PM    PM PM     PM  
  E   E  E  E  E  E   E  E      E  E  E  E  E  E   E  E   
----------------------------|----------------------------|
----------------------------|----------------------------|
----------------------------|----------------------------|
-----10--------9-----10-----|--10--------9--------10-----|
-----10--------9-----10-----|--10--------9--------10-----|
--0---8--0--0--7--0---8--0--|---8--0--0--7--0--0---8--0--|


  PM    PM PM     PM    PM    PM         PM         PM       
  E  E  E  E   E  E  E  E     E   E   E  E  E    E  E   E    
---------------------------|--------------------------------|
---------------------------|--------------------------------|
---------------------------|--------------------------------|
-----9--------10-----9-----|--------------------------------|
-----9--------10-----9-----|-----10S--9-----9S--10-----10S--|
--0--7--0--0---8--0--7--0--|--0----------0----------0-------|


     PM           PM PM PM    PM         PM         PM       
  E  E  E    Q    E  E  E     E   E   E  E  E    E  E   E    
---------------------------|--------------------------------|
---------------------------|--------------------------------|
---------------------------|--------------------------------|
---------------------------|--------------------------------|
--9-----9S--10-------------|-----10S--9-----9S--10-----10S--|
-----0------------0--0--0--|--0----------0----------0-------|


     PM           PM PM PM    PM         PM         PM       
  E  E  E    Q    E  E  E     E   E   E  E  E    E  E   E    
---------------------------|--------------------------------|
---------------------------|--------------------------------|
---------------------------|--------------------------------|
---------------------------|--------------------------------|
--9-----9S--10-------------|-----10S--9-----9S--10-----10S--|
-----0------------0--0--0--|--0----------0----------0-------|


     PM           PM PM PM         PM PM        PM PM PM PM  
  E  E  E    Q    E  E  E     Q    S  S  Q.     S  S  S  S   
---------------------------|--------------------------------|
---------------------------|--------------------------------|
---------------------------|--------------------------------|
---------------------------|--------------------------------|
--9-----9S--10-------------|--7----------7------------------|
-----0------------0--0--0--|--5----5--5--5------5--5--5--5--|


       PM PM        PM PM PM PM    PM         PM         PM       
  Q    S  S  Q.     S  S  S  S     E   E   E  E  E    E  E   E    
--------------------------------|--------------------------------|
--------------------------------|--------------------------------|
--------------------------------|--------------------------------|
--------------------------------|--------------------------------|
--5----------5------------------|-----10S--9-----9S--10-----10S--|
--3----3--3--3------3--3--3--3--|--0----------0----------0-------|


     PM           PM PM PM    PM         PM         PM       
  E  E  E    Q    E  E  E     E   E   E  E  E    E  E   E    
---------------------------|--------------------------------|
---------------------------|--------------------------------|
---------------------------|--------------------------------|
---------------------------|--------------------------------|
--9-----9S--10-------------|-----10S--9-----9S--10-----10S--|
-----0------------0--0--0--|--0----------0----------0-------|


     PM           PM PM PM    PM         PM         PM       
  E  E  E    Q    E  E  E     E   E   E  E  E    E  E   E    
---------------------------|--------------------------------|
---------------------------|--------------------------------|
---------------------------|--------------------------------|
---------------------------|--------------------------------|
--9-----9S--10-------------|-----10S--9-----9S--10-----10S--|
-----0------------0--0--0--|--0----------0----------0-------|


     PM           PM PM PM         PM PM        PM PM PM PM  
  E  E  E    Q    E  E  E     Q    S  S  Q.     S  S  S  S   
---------------------------|--------------------------------|
---------------------------|--------------------------------|
---------------------------|--------------------------------|
---------------------------|--------------------------------|
--9-----9S--10-------------|--7----------7------------------|
-----0------------0--0--0--|--5----5--5--5------5--5--5--5--|


       PM PM        PM PM PM PM                                     PM PM  
  Q    S  S  Q.     S  S  S  S     W                   H.           E  E   
--------------------------------|-------------------|---------------------|
--------------------------------|-------------------|---------------------|
--------------------------------|-------------------|---------------------|
--------------------------------|--7----------------|--L------------7--7--|
--5----------5------------------|--7----------------|--L------------7--7--|
--3----3--3--3------3--3--3--3--|--5----------------|--L------------5--5--|


                                   PM PM                      
  W                   H.           E  E     W                 
-------------------|---------------------|-------------------|
-------------------|---------------------|-------------------|
-------------------|---------------------|-------------------|
--7----------------|--L------------7--7--|--5----------------|
--7----------------|--L------------7--7--|--5----------------|
--5----------------|--L------------5--5--|--3----------------|


               PM PM                                            
  H.           E  E     W                   H.           Q      
---------------------|-------------------|---------------------|
---------------------|-------------------|---------------------|
---------------------|-------------------|---------------------|
--L------------5--5--|--5----------------|--L------------L\----|
--L------------5--5--|--5----------------|--L------------L\----|
--L------------3--3--|--3----------------|--L------------L\----|


                                   PM PM                      
  W                   H.           E  E     W                 
-------------------|---------------------|-------------------|
-------------------|---------------------|-------------------|
-------------------|---------------------|-------------------|
--7----------------|--L------------7--7--|--7----------------|
--7----------------|--L------------7--7--|--7----------------|
--5----------------|--L------------5--5--|--5----------------|


               PM PM                                     PM PM  
  H.           E  E     W                   H.           E  E   
---------------------|-------------------|---------------------|
---------------------|-------------------|---------------------|
---------------------|-------------------|---------------------|
--L------------7--7--|--5----------------|--L------------5--5--|
--L------------7--7--|--5----------------|--L------------5--5--|
--L------------5--5--|--3----------------|--L------------3--3--|


  W                   H.           Q        W                 
-------------------|---------------------|-------------------|
-------------------|---------------------|-------------------|
-------------------|---------------------|-------------------|
--5----------------|--L------------L\----|--7----------------|
--5----------------|--L------------L\----|--7----------------|
--3----------------|--L------------L\----|--5----------------|


               PM PM                                     PM PM  
  H.           E  E     W                   H.           E  E   
---------------------|-------------------|---------------------|
---------------------|-------------------|---------------------|
---------------------|-------------------|---------------------|
--L------------7--7--|--7----------------|--L------------7--7--|
--L------------7--7--|--7----------------|--L------------7--7--|
--L------------5--5--|--5----------------|--L------------5--5--|


                                   PM PM                      
  W                   H.           E  E     W                 
-------------------|---------------------|-------------------|
-------------------|---------------------|-------------------|
-------------------|---------------------|-------------------|
--5----------------|--L------------5--5--|--5----------------|
--5----------------|--L------------5--5--|--5----------------|
--3----------------|--L------------3--3--|--3----------------|


                                                         PM PM  
  H.           Q        W                   H.           E  E   
---------------------|-------------------|---------------------|
---------------------|-------------------|---------------------|
---------------------|-------------------|---------------------|
--L------------L\----|--7----------------|--L------------7--7--|
--L------------L\----|--7----------------|--L------------7--7--|
--L------------L\----|--5----------------|--L------------5--5--|


                                   PM PM                      
  W                   H.           E  E     W                 
-------------------|---------------------|-------------------|
-------------------|---------------------|-------------------|
-------------------|---------------------|-------------------|
--7----------------|--L------------7--7--|--5----------------|
--7----------------|--L------------7--7--|--5----------------|
--5----------------|--L------------5--5--|--3----------------|


               PM PM                                            
  H.           E  E     W                   H.           Q      
---------------------|-------------------|---------------------|
---------------------|-------------------|---------------------|
---------------------|-------------------|---------------------|
--L------------5--5--|--5----------------|--L------------L\----|
--L------------5--5--|--5----------------|--L------------L\----|
--L------------3--3--|--3----------------|--L------------L\----|


  PM         PM         PM            PM         PM PM PM PM  
  E   E   E  E  E    E  E   E      E  E  E    E  E  E  E  E   
--------------------------------|----------------------------|
--------------------------------|----------------------------|
--------------------------------|----------------------------|
--------------------------------|----------------------------|
-----10S--9-----9S--10-----10S--|--9-----9S--10--------------|
--0----------0----------0-------|-----0----------0--0--0--0--|


  Q    H.             
--------------------||
--------------------||
--------------------||
--------------------||
--2-----------------||
--0-----------------||

Bass Guitar

     W                   E   E   E  E  E    E  E   E    
G||-------------------|--------------------------------|
D||-------------------|--------------------------------|
A||-------------------|--------------------------------|
E||-------------------|-----10S--9-----9S--10-----10S--|
B||-------------------|--0----------0----------0-------|


  E  E  E    Q    E  E  E     E   E   E  E  E    E  E   E    
---------------------------|--------------------------------|
---------------------------|--------------------------------|
---------------------------|--------------------------------|
--9-----9S--10-------------|-----10S--9-----9S--10-----10S--|
-----0------------0--0--0--|--0----------0----------0-------|


  E  E  E    Q    E  E  E     E   E   E  E  E    E  E   E    
---------------------------|--------------------------------|
---------------------------|--------------------------------|
---------------------------|--------------------------------|
--9-----9S--10-------------|-----10S--9-----9S--10-----10S--|
-----0------------0--0--0--|--0----------0----------0-------|


  E  E  E    Q    E  E  E     Q    S S Q.     S S S S  
---------------------------|--------------------------|
---------------------------|--------------------------|
---------------------------|--------------------------|
--9-----9S--10-------------|--------------------------|
-----0------------0--0--0--|--5----5-5-5------5-5-5-5-|


  Q    S S Q.     S S S S    E   E   E  E  E    E  E   E    
--------------------------|--------------------------------|
--------------------------|--------------------------------|
--------------------------|--------------------------------|
--------------------------|-----10S--9-----9S--10-----10S--|
--3----3-3-3------3-3-3-3-|--0----------0----------0-------|


  E  E  E    Q    E  E  E     E   E   E  E  E    E  E   E    
---------------------------|--------------------------------|
---------------------------|--------------------------------|
---------------------------|--------------------------------|
--9-----9S--10-------------|-----10S--9-----9S--10-----10S--|
-----0------------0--0--0--|--0----------0----------0-------|


  E  E  E    Q    E  E  E     E   E   E  E  E    E  E   E    
---------------------------|--------------------------------|
---------------------------|--------------------------------|
---------------------------|--------------------------------|
--9-----9S--10-------------|-----10S--9-----9S--10-----10S--|
-----0------------0--0--0--|--0----------0----------0-------|


  E  E  E    Q    E  E  E     Q    S S Q.     S S S S  
---------------------------|--------------------------|
---------------------------|--------------------------|
---------------------------|--------------------------|
--9-----9S--10-------------|--------------------------|
-----0------------0--0--0--|--5----5-5-5------5-5-5-5-|


  Q    S S Q.     S S S S    W                   W                 
--------------------------|-------------------|-------------------|
--------------------------|-------------------|-------------------|
--------------------------|-------------------|-------------------|
--------------------------|-------------------|-------------------|
--3----3-3-3------3-3-3-3-|-------------------|-------------------|


  E  S S E  E  S S E  E  S S    E  E  S S E  E  E  E   E   
-----------------------------|----------------------------|
-----------------------------|----------------------------|
-----------------------------|----------------------------|
-----------------------------|----------------------------|
--1--1-1-1--1--1-1-1--1--1-1-|--1--1--1-1-1--2--1--1s--2--|


  E  S S E  E  S S E  E  E     E  E  E  E  E  E  E  E   
----------------------------|--------------------------|
----------------------------|--------------------------|
----------------------------|--------------5--4--------|
----------------------------|-----0--2--3--------3--2--|
--1--1-1-1--1--1-1-1--1--1--|--0-----------------------|


  E  S S E  E  S S E  E  S S    E  E  S S E  E  E  E   E   
-----------------------------|----------------------------|
-----------------------------|----------------------------|
-----------------------------|----------------------------|
-----------------------------|----------------------------|
--1--1-1-1--1--1-1-1--1--1-1-|--1--1--1-1-1--2--1--1s--2--|


  E  S S E  E  S S E  E  E     E  E  E  E  E  E  E  E   
----------------------------|--------------------------|
----------------------------|--------------------------|
----------------------------|--------------5--4--------|
----------------------------|-----0--2--3--------3--2--|
--1--1-1-1--1--1-1-1--1--1--|--0-----------------------|


  E  S S E  E  S S E  E  S S    E  E  S S E  E  E  E   E   
-----------------------------|----------------------------|
-----------------------------|----------------------------|
-----------------------------|----------------------------|
-----------------------------|----------------------------|
--1--1-1-1--1--1-1-1--1--1-1-|--1--1--1-1-1--2--1--1s--2--|


  E  S S E  E  S S E  E  E     E  E  E  E  E  E  E  E   
----------------------------|--------------------------|
----------------------------|--------------------------|
----------------------------|--------------5--4--------|
----------------------------|-----0--2--3--------3--2--|
--1--1-1-1--1--1-1-1--1--1--|--0-----------------------|


  E  S S E  E  S S E  E  S S    E  E  S S E  E  E  E   E   
-----------------------------|----------------------------|
-----------------------------|----------------------------|
-----------------------------|----------------------------|
-----------------------------|----------------------------|
--1--1-1-1--1--1-1-1--1--1-1-|--1--1--1-1-1--2--1--1s--2--|


  E  S S E  E  S S E  E  E     E  E  E  E  E  E  E  E     W                 
----------------------------|--------------------------|-------------------|
----------------------------|--------------------------|-------------------|
----------------------------|--------------5--4--------|-------------------|
----------------------------|-----0--2--3--------3--2--|-------------------|
--1--1-1-1--1--1-1-1--1--1--|--0-----------------------|--5----------------|


  H.           E  E     W                   H.           E  E   
---------------------|-------------------|---------------------|
---------------------|-------------------|---------------------|
---------------------|-------------------|---------------------|
---------------------|-------------------|---------------------|
--L------------5--5--|--5----------------|--L------------5--5--|


  W                   H.           E  E     W                 
-------------------|---------------------|-------------------|
-------------------|---------------------|-------------------|
-------------------|---------------------|-------------------|
-------------------|---------------------|-------------------|
--3----------------|--L------------3--3--|--3----------------|


  H.           Q        W                   H.           E  E   
---------------------|-------------------|---------------------|
---------------------|-------------------|---------------------|
---------------------|-------------------|---------------------|
---------------------|-------------------|---------------------|
--L------------L\----|--5----------------|--L------------5--5--|


  W                   H.           E  E     W                 
-------------------|---------------------|-------------------|
-------------------|---------------------|-------------------|
-------------------|---------------------|-------------------|
-------------------|---------------------|-------------------|
--5----------------|--L------------5--5--|--3----------------|


  H.           E  E     W                   H.           Q      
---------------------|-------------------|---------------------|
---------------------|-------------------|---------------------|
---------------------|-------------------|---------------------|
---------------------|-------------------|---------------------|
--L------------3--3--|--3----------------|--L------------L\----|


  E  Q    E  E  Q    E     E  Q    E  E  Q    E     E  E  E  E  E  E  E  E   
------------------------|------------------------|--------------------------|
------------------------|------------------------|--------------------------|
------------------------|------------------------|--------------------------|
------------------------|------------------------|--6--------8--------6-----|
--0--0----0--0--0----0--|--0--0----0--0--0----0--|-----0--0-----0--0-----0--|


  E  E  E  E  E  E  E  E     E  E  E  E  E  E  E  E   
--------------------------|--------------------------|
--------------------------|--------------------------|
--------------------------|--------------------------|
-----8--------6-----8-----|--8--------6--------8-----|
--0-----0--0-----0-----0--|-----0--0-----0--0-----0--|


  E  E  E  E  E  E  E  E     E  E  E  E  E  E  E  E   
--------------------------|--------------------------|
--------------------------|--------------------------|
--------------------------|--------------------------|
-----6--------8-----6-----|--------------------------|
--0-----0--0-----0-----0--|--7--0--0--8--0--0--7--0--|


  E  E  E  E  E  E  E  E     E  E  E  E  E  E  E  E   
--------------------------|--------------------------|
--------------------------|--------------------------|
--------------------------|--------------------------|
--------------------------|--------------------------|
--0--8--0--0--7--0--8--0--|--8--0--0--7--0--0--8--0--|


  E  E  E  E  E  E  E  E     E  S S E  E  S S E  E  S S  
--------------------------|-----------------------------|
--------------------------|-----------------------------|
--------------------------|-----------------------------|
--------------------------|-----------------------------|
--0--7--0--0--8--0--7--0--|--1--1-1-1--1--1-1-1--1--1-1-|


  E  E  S S E  E  E  E   E     E  S S E  E  S S E  E  E   
----------------------------|----------------------------|
----------------------------|----------------------------|
----------------------------|----------------------------|
----------------------------|----------------------------|
--1--1--1-1-1--2--1--1s--2--|--1--1-1-1--1--1-1-1--1--1--|


  E  E  E  E  E  E  E  E     E  S S E  E  S S E  E  S S  
--------------------------|-----------------------------|
--------------------------|-----------------------------|
--------------5--4--------|-----------------------------|
-----0--2--3--------3--2--|-----------------------------|
--0-----------------------|--1--1-1-1--1--1-1-1--1--1-1-|


  E  E  S S E  E  E  E   E     E  S S E  E  S S E  E  E   
----------------------------|----------------------------|
----------------------------|----------------------------|
----------------------------|----------------------------|
----------------------------|----------------------------|
--1--1--1-1-1--2--1--1s--2--|--1--1-1-1--1--1-1-1--1--1--|


  E  E  E  E  E  E  E  E     E  S S E  E  S S E  E  S S  
--------------------------|-----------------------------|
--------------------------|-----------------------------|
--------------5--4--------|-----------------------------|
-----0--2--3--------3--2--|-----------------------------|
--0-----------------------|--1--1-1-1--1--1-1-1--1--1-1-|


  E  E  S S E  E  E  E   E     E  S S E  E  S S E  E  E   
----------------------------|----------------------------|
----------------------------|----------------------------|
----------------------------|----------------------------|
----------------------------|----------------------------|
--1--1--1-1-1--2--1--1s--2--|--1--1-1-1--1--1-1-1--1--1--|


  E  E  E  E  E  E  E  E     E  S S E  E  S S E  E  S S  
--------------------------|-----------------------------|
--------------------------|-----------------------------|
--------------5--4--------|-----------------------------|
-----0--2--3--------3--2--|-----------------------------|
--0-----------------------|--1--1-1-1--1--1-1-1--1--1-1-|


  E  E  S S E  E  E  E   E     E  S S E  E  S S E  E  E   
----------------------------|----------------------------|
----------------------------|----------------------------|
----------------------------|----------------------------|
----------------------------|----------------------------|
--1--1--1-1-1--2--1--1s--2--|--1--1-1-1--1--1-1-1--1--1--|


  E  E  E  E  E  E  E  E     W                   H.           E  E   
--------------------------|-------------------|---------------------|
--------------------------|-------------------|---------------------|
--------------5--4--------|-------------------|---------------------|
-----0--2--3--------3--2--|-------------------|---------------------|
--0-----------------------|--5----------------|--L------------5--5--|


  W                   H.           E  E     W                 
-------------------|---------------------|-------------------|
-------------------|---------------------|-------------------|
-------------------|---------------------|-------------------|
-------------------|---------------------|-------------------|
--5----------------|--L------------5--5--|--3----------------|


  H.           E  E     W                   H.           Q      
---------------------|-------------------|---------------------|
---------------------|-------------------|---------------------|
---------------------|-------------------|---------------------|
---------------------|-------------------|---------------------|
--L------------3--3--|--3----------------|--L------------L\----|


  W                   H.           E  E     W                 
-------------------|---------------------|-------------------|
-------------------|---------------------|-------------------|
-------------------|---------------------|-------------------|
-------------------|---------------------|-------------------|
--5----------------|--L------------5--5--|--5----------------|


  H.           E  E     W                   H.           E  E   
---------------------|-------------------|---------------------|
---------------------|-------------------|---------------------|
---------------------|-------------------|---------------------|
---------------------|-------------------|---------------------|
--L------------5--5--|--3----------------|--L------------3--3--|


  W                   H.           Q        E  Q    E  E  Q    E   
-------------------|---------------------|------------------------|
-------------------|---------------------|------------------------|
-------------------|---------------------|------------------------|
-------------------|---------------------|------------------------|
--3----------------|--L------------L\----|--0--0----0--0--0----0--|


  E  Q    E  E  Q    E     E  E  E  E  E  E  E  E     E  E  E  E  E  E  E  E   
------------------------|--------------------------|--------------------------|
------------------------|--------------------------|--------------------------|
------------------------|--------------------------|--------------------------|
------------------------|--6--------8--------6-----|-----8--------6-----8-----|
--0--0----0--0--0----0--|-----0--0-----0--0-----0--|--0-----0--0-----0-----0--|


  E  E  E  E  E  E  E  E     E  E  E  E  E  E  E  E   
--------------------------|--------------------------|
--------------------------|--------------------------|
--------------------------|--------------------------|
--8--------6--------8-----|-----6--------8-----6-----|
-----0--0-----0--0-----0--|--0-----0--0-----0-----0--|


  E  E  E  E  E  E  E  E     E  E  E  E  E  E  E  E   
--------------------------|--------------------------|
--------------------------|--------------------------|
--------------------------|--------------------------|
--------------------------|--------------------------|
--7--0--0--8--0--0--7--0--|--0--8--0--0--7--0--8--0--|


  E  E  E  E  E  E  E  E     E  E  E  E  E  E  E  E   
--------------------------|--------------------------|
--------------------------|--------------------------|
--------------------------|--------------------------|
--------------------------|--------------------------|
--8--0--0--7--0--0--8--0--|--0--7--0--0--8--0--7--0--|


  E  E  E  E  E  E  E  E     E  E  E  E  E  E  E  E   
--------------------------|--------------------------|
--------------------------|--------------------------|
--------------------------|--------------------------|
--6--------8--------6-----|-----8--------6-----8-----|
-----0--0-----0--0-----0--|--0-----0--0-----0-----0--|


  E  E  E  E  E  E  E  E     E  E  E  E  E  E  E  E   
--------------------------|--------------------------|
--------------------------|--------------------------|
--------------------------|--------------------------|
--8--------6--------8-----|-----6--------8-----6-----|
-----0--0-----0--0-----0--|--0-----0--0-----0-----0--|


  E  E  E  E  E  E  E  E     E  E  E  E  E  E  E  E   
--------------------------|--------------------------|
--------------------------|--------------------------|
--------------------------|--------------------------|
--------------------------|--------------------------|
--7--0--0--8--0--0--7--0--|--0--8--0--0--7--0--8--0--|


  E  E  E  E  E  E  E  E     E  E  E  E  E  E  E  E   
--------------------------|--------------------------|
--------------------------|--------------------------|
--------------------------|--------------------------|
--------------------------|--------------------------|
--8--0--0--7--0--0--8--0--|--0--7--0--0--8--0--7--0--|


  E   E   E  E  E    E  E   E      E  E  E    Q    E  E  E   
--------------------------------|---------------------------|
--------------------------------|---------------------------|
--------------------------------|---------------------------|
-----10S--9-----9S--10-----10S--|--9-----9S--10-------------|
--0----------0----------0-------|-----0------------0--0--0--|


  E   E   E  E  E    E  E   E      E  E  E    Q    E  E  E   
--------------------------------|---------------------------|
--------------------------------|---------------------------|
--------------------------------|---------------------------|
-----10S--9-----9S--10-----10S--|--9-----9S--10-------------|
--0----------0----------0-------|-----0------------0--0--0--|


  E   E   E  E  E    E  E   E      E  E  E    Q    E  E  E   
--------------------------------|---------------------------|
--------------------------------|---------------------------|
--------------------------------|---------------------------|
-----10S--9-----9S--10-----10S--|--9-----9S--10-------------|
--0----------0----------0-------|-----0------------0--0--0--|


  Q    S S Q.     S S S S    Q    S S Q.     S S S S  
--------------------------|--------------------------|
--------------------------|--------------------------|
--------------------------|--------------------------|
--------------------------|--------------------------|
--5----5-5-5------5-5-5-5-|--3----3-3-3------3-3-3-3-|


  E   E   E  E  E    E  E   E      E  E  E    Q    E  E  E   
--------------------------------|---------------------------|
--------------------------------|---------------------------|
--------------------------------|---------------------------|
-----10S--9-----9S--10-----10S--|--9-----9S--10-------------|
--0----------0----------0-------|-----0------------0--0--0--|


  E   E   E  E  E    E  E   E      E  E  E    Q    E  E  E   
--------------------------------|---------------------------|
--------------------------------|---------------------------|
--------------------------------|---------------------------|
-----10S--9-----9S--10-----10S--|--9-----9S--10-------------|
--0----------0----------0-------|-----0------------0--0--0--|


  E   E   E  E  E    E  E   E      E  E  E    Q    E  E  E   
--------------------------------|---------------------------|
--------------------------------|---------------------------|
--------------------------------|---------------------------|
-----10S--9-----9S--10-----10S--|--9-----9S--10-------------|
--0----------0----------0-------|-----0------------0--0--0--|


  Q    S S Q.     S S S S    Q    S S Q.     S S S S    W                 
--------------------------|--------------------------|-------------------|
--------------------------|--------------------------|-------------------|
--------------------------|--------------------------|-------------------|
--------------------------|--------------------------|-------------------|
--5----5-5-5------5-5-5-5-|--3----3-3-3------3-3-3-3-|--5----------------|


  H.           E  E     W                   H.           E  E   
---------------------|-------------------|---------------------|
---------------------|-------------------|---------------------|
---------------------|-------------------|---------------------|
---------------------|-------------------|---------------------|
--L------------5--5--|--5----------------|--L------------5--5--|


  W                   H.           E  E     W                 
-------------------|---------------------|-------------------|
-------------------|---------------------|-------------------|
-------------------|---------------------|-------------------|
-------------------|---------------------|-------------------|
--3----------------|--L------------3--3--|--3----------------|


  H.           Q        W                   H.           E  E   
---------------------|-------------------|---------------------|
---------------------|-------------------|---------------------|
---------------------|-------------------|---------------------|
---------------------|-------------------|---------------------|
--L------------L\----|--5----------------|--L------------5--5--|


  W                   H.           E  E     W                 
-------------------|---------------------|-------------------|
-------------------|---------------------|-------------------|
-------------------|---------------------|-------------------|
-------------------|---------------------|-------------------|
--5----------------|--L------------5--5--|--3----------------|


  H.           E  E     W                   H.           Q      
---------------------|-------------------|---------------------|
---------------------|-------------------|---------------------|
---------------------|-------------------|---------------------|
---------------------|-------------------|---------------------|
--L------------3--3--|--3----------------|--L------------L\----|


  W                   H.           E  E     W                 
-------------------|---------------------|-------------------|
-------------------|---------------------|-------------------|
-------------------|---------------------|-------------------|
-------------------|---------------------|-------------------|
--5----------------|--L------------5--5--|--5----------------|


  H.           E  E     W                   H.           E  E   
---------------------|-------------------|---------------------|
---------------------|-------------------|---------------------|
---------------------|-------------------|---------------------|
---------------------|-------------------|---------------------|
--L------------5--5--|--3----------------|--L------------3--3--|


  W                   H.           Q        W                 
-------------------|---------------------|-------------------|
-------------------|---------------------|-------------------|
-------------------|---------------------|-------------------|
-------------------|---------------------|-------------------|
--3----------------|--L------------L\----|--5----------------|


  H.           E  E     W                   H.           E  E   
---------------------|-------------------|---------------------|
---------------------|-------------------|---------------------|
---------------------|-------------------|---------------------|
---------------------|-------------------|---------------------|
--L------------5--5--|--5----------------|--L------------5--5--|


  W                   H.           E  E     W                 
-------------------|---------------------|-------------------|
-------------------|---------------------|-------------------|
-------------------|---------------------|-------------------|
-------------------|---------------------|-------------------|
--3----------------|--L------------3--3--|--3----------------|


  H.           Q        W                   W                 
---------------------|-------------------|-------------------|
---------------------|-------------------|-------------------|
---------------------|-------------------|-------------------|
---------------------|-------------------|-------------------|
--L------------L\----|-------------------|-------------------|


  Q    H.             
--------------------||
--------------------||
--------------------||
--------------------||
--0-----------------||




Duration Legend
---------------
W - whole
H - half
Q - quarter
E - 8th
S - 16th
T - 32nd
X - 64th
. - note dotted
|-n-|  - n-tuplets


Tablature Legend
----------------
L - tied note
x - dead note
g - grace note
(n) - ghost note
> - accentuded note
NH - natural harmonic
AH - artificial harmonic
TH - tapped harmonic
SH - semi harmonic
PH - pitch harmonic
h - hammer on
p - pull off
b - bend
br - bendRelease
pb - preBend
pbr - preBendRelease
brb - bendReleaseBend
\n/ - tremolo bar dip
\n - tremolo bar dive
-/n - tremolo bar Release up
/n\ - tremolo bar inverted dip
/n - tremolo bar return
-\n - tremolo bar Release down
S - shift slide
s - legato slide
/ -  slide into from below or out of upwards
\ -  slide into from above or out of downwards
~ - vibrato
W - wide vibrato
tr - trill
TP - tremolo picking
T - tapping
S - slap
P - pop
< - fade in
^ - brush up
v - brush down

==========The Way Of The Fist==========

Guitar 1

      w/ Distortion                                   
      PM            PM PM PM PM PM PM PM PM PM PM PM  
      E             E  S  S  S  S  E  E  S  S  S  S   
B ||-------------------------------------------------|
F#||-------------------------------------------------|
D ||-------------------------------------------------|
A ||-------------------------------------------------|
E ||-------------------------------------------------|
B ||--0-------------0--3--3--1--1--0--0--3--3--1--1--|


  PM PM PM PM PM   PM PM PM PM PM PM PM PM  
  E  E  S  S  S  S S  S  S  S  S  S  S  S   
-------------------------------------------|
-------------------------------------------|
-------------------------------------------|
-------------------------------------------|
-------------------5--3--3--2--2-----------|
--0--0--3--3--1-------------------3--3--1--|


  PM PM PM PM PM PM PM PM PM PM PM PM  
  E  E  S  S  S  S  E  E  S  S  S  S   
--------------------------------------|
--------------------------------------|
--------------------------------------|
--------------------------------------|
--------------------------------------|
--0--0--3--3--1--1--0--0--3--3--1--1--|


  PM PM PM PM PM   PM PM PM PM PM PM PM PM  
  E  E  S  S  S  S S  S  S  S  S  S  S  S   
-------------------------------------------|
-------------------------------------------|
-------------------------------------------|
-------------------------------------------|
-------------------5--3--3--2--2-----------|
--0--0--3--3--1-------------------3--3--1--|


  PM PM PM PM PM PM PM PM PM PM PM PM  
  E  E  S  S  S  S  E  E  S  S  S  S   
--------------------------------------|
--------------------------------------|
--------------------------------------|
--------------------------------------|
--------------------------------------|
--0--0--3--3--1--1--0--0--3--3--1--1--|


  PM PM PM PM PM   PM PM PM PM PM PM PM PM  
  E  E  S  S  S  S S  S  S  S  S  S  S  S   
-------------------------------------------|
-------------------------------------------|
-------------------------------------------|
-------------------------------------------|
-------------------5--3--3--2--2-----------|
--0--0--3--3--1-------------------3--3--1--|


  PM PM PM PM PM PM PM PM PM PM PM PM  
  E  E  S  S  S  S  E  E  S  S  S  S   
--------------------------------------|
--------------------------------------|
--------------------------------------|
--------------------------------------|
--------------------------------------|
--0--0--3--3--1--1--0--0--3--3--1--1--|


  PM PM PM PM PM   PM PM PM PM PM PM PM PM    PM PM PM PM PM PM    PM         
  E  E  S  S  S  S S  S  S  S  S  S  S  S     E  E  S  S  S  S  E  E  E   E   
-------------------------------------------|---------------------------------|
-------------------------------------------|---------------------------------|
-------------------------------------------|---------------------------------|
-------------------------------------------|---------------------------------|
-------------------5--3--3--2--2-----------|--------------------------3S--4--|
--0--0--3--3--1-------------------3--3--1--|--0--0--0--0--0--0--1--0--1S--2--|


  PM PM PM PM PM PM PM PM PM PM PM PM    PM PM PM PM PM PM    PM         
  E  E  S  S  S  S  E  E  S  S  S  S     E  E  S  S  S  S  E  E  E   E   
--------------------------------------|---------------------------------|
--------------------------------------|---------------------------------|
--------------------------------------|---------------------------------|
--------------------------------------|---------------------------------|
--------5--5--3--2--------------------|--------------------------3S--4--|
--0--0--------------0--0--3--3--1--1--|--0--0--0--0--0--0--1--0--1S--2--|


  PM PM PM PM PM PM PM PM PM PM PM PM    PM PM PM PM PM PM    PM         
  E  E  S  S  S  S  E  E  S  S  S  S     E  E  S  S  S  S  E  E  E   E   
--------------------------------------|---------------------------------|
--------------------------------------|---------------------------------|
--------------------------------------|---------------------------------|
--------------------------------------|---------------------------------|
--------5--5--3--2--------------------|--------------------------3S--4--|
--0--0--------------0--0--3--3--1--1--|--0--0--0--0--0--0--1--0--1S--2--|


  PM PM PM PM PM PM PM PM PM PM PM PM    PM PM PM PM PM PM    PM         
  E  E  S  S  S  S  E  E  S  S  S  S     E  E  S  S  S  S  E  E  E   E   
--------------------------------------|---------------------------------|
--------------------------------------|---------------------------------|
--------------------------------------|---------------------------------|
--------------------------------------|---------------------------------|
--------5--5--3--2--------------------|--------------------------3S--4--|
--0--0--------------0--0--3--3--1--1--|--0--0--0--0--0--0--1--0--1S--2--|


  PM PM PM PM PM PM PM PM PM PM PM PM    PM PM PM PM PM PM    PM         
  E  E  S  S  S  S  E  E  S  S  S  S     E  E  S  S  S  S  E  E  E   E   
--------------------------------------|---------------------------------|
--------------------------------------|---------------------------------|
--------------------------------------|---------------------------------|
--------------------------------------|---------------------------------|
--------5--5--3--2--------------------|--------------------------3S--4--|
--0--0--------------0--0--3--3--1--1--|--0--0--0--0--0--0--1--0--1S--2--|


  PM PM PM PM PM PM PM PM PM PM PM PM    PM PM PM PM PM PM    PM         
  E  E  S  S  S  S  E  E  S  S  S  S     E  E  S  S  S  S  E  E  E   E   
--------------------------------------|---------------------------------|
--------------------------------------|---------------------------------|
--------------------------------------|---------------------------------|
--------------------------------------|---------------------------------|
--------5--5--3--2--------------------|--------------------------3S--4--|
--0--0--------------0--0--3--3--1--1--|--0--0--0--0--0--0--1--0--1S--2--|


  PM PM PM PM PM PM PM PM PM PM PM PM    PM PM PM PM PM PM    PM         
  E  E  S  S  S  S  E  E  S  S  S  S     E  E  S  S  S  S  E  E  E   E   
--------------------------------------|---------------------------------|
--------------------------------------|---------------------------------|
--------------------------------------|---------------------------------|
--------------------------------------|---------------------------------|
--------5--5--3--2--------------------|--------------------------3S--4--|
--0--0--------------0--0--3--3--1--1--|--0--0--0--0--0--0--1--0--1S--2--|


  PM PM PM PM PM PM PM PM PM PM PM PM    PM PM PM PM PM PM    PM         
  E  E  S  S  S  S  E  E  S  S  S  S     E  E  S  S  S  S  E  E  E   E   
--------------------------------------|---------------------------------|
--------------------------------------|---------------------------------|
--------------------------------------|---------------------------------|
--------------------------------------|---------------------------------|
--------5--5--3--2--------------------|--------------------------3S--4--|
--0--0--------------0--0--3--3--1--1--|--0--0--0--0--0--0--1--0--1S--2--|


                      PM PM PM PM PM PM PM PM PM PM PM PM  
  W                   E  E  S  S  S  S  E  E  S  S  S  S   
-------------------|--------------------------------------|
-------------------|--------------------------------------|
-------------------|--------------------------------------|
-------------------|--------------------------------------|
-------------------|--------------------------------------|
-------------------|--0--0--3--3--1--1--0--0--3--3--1--1--|


  PM PM PM PM PM   PM PM PM PM PM PM PM PM  
  E  E  S  S  S  S S  S  S  S  S  S  S  S   
-------------------------------------------|
-------------------------------------------|
-------------------------------------------|
-------------------------------------------|
-------------------5--3--3--2--2-----------|
--0--0--3--3--1-------------------3--3--1--|


  PM PM PM PM PM PM PM PM PM PM PM PM  
  E  E  S  S  S  S  E  E  S  S  S  S   
--------------------------------------|
--------------------------------------|
--------------------------------------|
--------------------------------------|
--------------------------------------|
--0--0--3--3--1--1--0--0--3--3--1--1--|


  PM PM PM PM PM   PM PM PM PM PM PM PM PM  
  E  E  S  S  S  S S  S  S  S  S  S  S  S   
-------------------------------------------|
-------------------------------------------|
-------------------------------------------|
-------------------------------------------|
-------------------5--3--3--2--2-----------|
--0--0--3--3--1-------------------3--3--1--|


  PM PM PM PM PM PM PM PM PM PM PM PM  
  E  E  S  S  S  S  E  E  S  S  S  S   
--------------------------------------|
--------------------------------------|
--------------------------------------|
--------------------------------------|
--------------------------------------|
--0--0--3--3--1--1--0--0--3--3--1--1--|


  PM PM PM PM PM   PM PM PM PM PM PM PM PM  
  E  E  S  S  S  S S  S  S  S  S  S  S  S   
-------------------------------------------|
-------------------------------------------|
-------------------------------------------|
-------------------------------------------|
-------------------5--3--3--2--2-----------|
--0--0--3--3--1-------------------3--3--1--|


  PM PM PM PM PM PM PM PM PM PM PM PM  
  E  E  S  S  S  S  E  E  S  S  S  S   
--------------------------------------|
--------------------------------------|
--------------------------------------|
--------------------------------------|
--------------------------------------|
--0--0--3--3--1--1--0--0--3--3--1--1--|


  PM PM PM PM PM   PM PM PM PM PM PM PM PM    PM PM PM PM PM PM    PM         
  E  E  S  S  S  S S  S  S  S  S  S  S  S     E  E  S  S  S  S  E  E  E   E   
-------------------------------------------|---------------------------------|
-------------------------------------------|---------------------------------|
-------------------------------------------|---------------------------------|
-------------------------------------------|---------------------------------|
-------------------5--3--3--2--2-----------|--------------------------3S--4--|
--0--0--3--3--1-------------------3--3--1--|--0--0--0--0--0--0--1--0--1S--2--|


  PM PM PM PM PM PM PM PM PM PM PM PM    PM PM PM PM PM PM    PM         
  E  E  S  S  S  S  E  E  S  S  S  S     E  E  S  S  S  S  E  E  E   E   
--------------------------------------|---------------------------------|
--------------------------------------|---------------------------------|
--------------------------------------|---------------------------------|
--------------------------------------|---------------------------------|
--------5--5--3--2--------------------|--------------------------3S--4--|
--0--0--------------0--0--3--3--1--1--|--0--0--0--0--0--0--1--0--1S--2--|


  PM PM PM PM PM PM PM PM PM PM PM PM    PM PM PM PM PM PM    PM         
  E  E  S  S  S  S  E  E  S  S  S  S     E  E  S  S  S  S  E  E  E   E   
--------------------------------------|---------------------------------|
--------------------------------------|---------------------------------|
--------------------------------------|---------------------------------|
--------------------------------------|---------------------------------|
--------5--5--3--2--------------------|--------------------------3S--4--|
--0--0--------------0--0--3--3--1--1--|--0--0--0--0--0--0--1--0--1S--2--|


  PM PM PM PM PM PM PM PM PM PM PM PM    PM PM PM PM PM PM    PM         
  E  E  S  S  S  S  E  E  S  S  S  S     E  E  S  S  S  S  E  E  E   E   
--------------------------------------|---------------------------------|
--------------------------------------|---------------------------------|
--------------------------------------|---------------------------------|
--------------------------------------|---------------------------------|
--------5--5--3--2--------------------|--------------------------3S--4--|
--0--0--------------0--0--3--3--1--1--|--0--0--0--0--0--0--1--0--1S--2--|


  PM PM PM PM PM PM PM PM PM PM PM PM       PM PM PM    PM PM PM    PM PM  
  E  E  S  S  S  S  E  E  S  S  S  S     E  S  S  E  E  S  S  E  E  S  S   
--------------------------------------|-----------------------------------|
--------------------------------------|-----------------------------------|
--------------------------------------|-----------------------------------|
--------------------------------------|-----------------------------------|
--------5--5--3--2--------------------|--4-----------4-----------4--------|
--0--0--------------0--0--3--3--1--1--|--2--2--2--2--2--2--2--2--2--2--2--|


  PM    PM PM PM PM                   PM PM PM    PM PM PM    PM PM  
  E  E  S  S  S  S  E  E  E  E     E  S  S  E  E  S  S  E  E  S  S   
--------------------------------|-----------------------------------|
--------------------------------|-----------------------------------|
--------------------------------|-----------------------------------|
--------------------------------|--2-----------2-----------2--------|
-----4--------------5--4--2--0--|--0--0--0--0--0--0--0--0--0--0--0--|
--2--2--2--2--2--2--------------|-----------------------------------|


  PM PM PM PM PM PM PM PM PM PM PM PM       PM PM PM    PM PM PM    PM PM  
  E  E  S  S  S  S  E  E  S  S  S  S     E  S  S  E  E  S  S  E  E  S  S   
--------------------------------------|-----------------------------------|
--------------------------------------|-----------------------------------|
--------------------------------------|-----------------------------------|
--------------------------------------|-----------------------------------|
--0--2--2--2--2--2--2--2--2--2--2--2--|--4-----------4-----------4--------|
--------------------------------------|--2--2--2--2--2--2--2--2--2--2--2--|


  PM    PM PM PM PM                   PM PM PM    PM PM PM    PM PM  
  E  E  S  S  S  S  E  E  E  E     E  S  S  E  E  S  S  E  E  S  S   
--------------------------------|-----------------------------------|
--------------------------------|-----------------------------------|
--------------------------------|-----------------------------------|
--------------------------------|--2-----------2-----------2--------|
-----4--------------5--4--2--0--|--0--0--0--0--0--0--0--0--0--0--0--|
--2--2--2--2--2--2--------------|-----------------------------------|


  PM PM PM PM PM PM PM PM PM PM PM PM       PM PM PM    PM PM PM    PM PM  
  E  E  S  S  S  S  E  E  S  S  S  S     E  S  S  E  E  S  S  E  E  S  S   
--------------------------------------|-----------------------------------|
--------------------------------------|-----------------------------------|
--------------------------------------|-----------------------------------|
--------------------------------------|-----------------------------------|
--0--2--2--2--2--2--2--2--2--2--2--2--|--4-----------4-----------4--------|
--------------------------------------|--2--2--2--2--2--2--2--2--2--2--2--|


  PM    PM PM PM PM                   PM PM PM    PM PM PM    PM PM  
  E  E  S  S  S  S  E  E  E  E     E  S  S  E  E  S  S  E  E  S  S   
--------------------------------|-----------------------------------|
--------------------------------|-----------------------------------|
--------------------------------|-----------------------------------|
--------------------------------|--2-----------2-----------2--------|
-----4--------------5--4--2--0--|--0--0--0--0--0--0--0--0--0--0--0--|
--2--2--2--2--2--2--------------|-----------------------------------|


  PM PM PM PM PM PM PM PM PM PM PM PM       PM PM PM    PM PM PM    PM PM  
  E  E  S  S  S  S  E  E  S  S  S  S     E  S  S  E  E  S  S  E  E  S  S   
--------------------------------------|-----------------------------------|
--------------------------------------|-----------------------------------|
--------------------------------------|-----------------------------------|
--------------------------------------|-----------------------------------|
--0--2--2--2--2--2--2--2--2--2--2--2--|--4-----------4-----------4--------|
--------------------------------------|--2--2--2--2--2--2--2--2--2--2--2--|


  PM    PM PM PM PM                   PM PM PM    PM PM PM    PM PM  
  E  E  S  S  S  S  E  E  E  E     E  S  S  E  E  S  S  E  E  S  S   
--------------------------------|-----------------------------------|
--------------------------------|-----------------------------------|
--------------------------------|-----------------------------------|
--------------------------------|--2-----------2-----------2--------|
-----4--------------5--4--2--0--|--0--0--0--0--0--0--0--0--0--0--0--|
--2--2--2--2--2--2--------------|-----------------------------------|


  PM PM PM PM PM PM PM PM PM PM PM PM    PM PM   PM PM   PM PM  
  E  E  S  S  S  S  E  E  S  S  S  S     E  Q    E  Q    E  E   
--------------------------------------|------------------------|
--------------------------------------|------------------------|
--------------------------------------|------------------------|
--------------------------------------|------------------------|
--0--2--2--2--2--2--2--2--2--2--2--2--|------------------------|
--------------------------------------|--0--0----0--1----0--0--|


     PM PM   PM PM PM PM    PM PM   PM PM   PM PM       PM PM              
  E  E  Q    E  E  E  E     E  Q    E  Q    E  E     E  E  E  E  H         
-------------------------|------------------------|-----------------------|
-------------------------|------------------------|-----------------------|
-------------1--3--------|------------------------|-----------------------|
-------------------2--3--|------------------------|-----------------------|
-------------------------|------------------------|-----------------------|
--L--0--1----------------|--0--0----0--1----0--0--|--L--0--1--------------|


  PM PM   PM PM   PM PM       PM PM   PM PM PM PM    PM PM   PM PM   PM PM  
  E  Q    E  Q    E  E     E  E  Q    E  E  E  E     E  Q    E  Q    E  E   
------------------------|-------------------------|------------------------|
------------------------|-------------------------|------------------------|
------------------------|-------------1--3--------|------------------------|
------------------------|-------------------2--3--|------------------------|
------------------------|-------------------------|------------------------|
--0--0----0--1----0--0--|--L--0--1----------------|--0--0----0--1----0--0--|


     PM PM                      PM       PM          PM       PM              
  E  E  E  E  H           E  E  E  E  E  E  E  E     E  E  E  E  E  E  E  E   
-----------------------|--------------------------|--------------------------|
-----------------------|--------------------------|--------------------------|
-----------------------|--------------------------|--------------------------|
-----------------------|--------------------------|--------------6--7--------|
-----------------------|--5--7-----7--8-----5--7--|-----7--8-----------7--8--|
--L--0--1--------------|--------0--------0--------|--0--------0--------------|


        PM       PM          PM       PM tr           
  E  E  E  E  E  E  E  E     E  E  E  E  H            
--------------------------|--------------------------|
--------------------------|--------------------------|
--------------------------|--------------------------|
--------------------------|--------------6(7)--------|
--5--7-----7--8-----5--7--|-----7--8-----------------|
--------0--------0--------|--0--------0--------------|


        PM       PM          PM       PM              
  E  E  E  E  E  E  E  E     E  E  E  E  E  E  E  E   
--------------------------|--------------------------|
--------------------------|--------------------------|
--------------------------|--------------------------|
--------------------------|--------------6--7--------|
--5--7-----7--8-----5--7--|-----7--8-----------7--8--|
--------0--------0--------|--0--------0--------------|


        PM       PM          PM       PM tr           
  E  E  E  E  E  E  E  E     E  E  E  E  H            
--------------------------|--------------------------|
--------------------------|--------------------------|
--------------------------|--------------------------|
--------------------------|--------------6(7)--------|
--5--7-----7--8-----5--7--|-----7--8-----------------|
--------0--------0--------|--0--------0--------------|


  PM PM PM PM PM PM PM PM PM PM PM PM  
  E  E  S  S  S  S  E  E  S  S  S  S   
--------------------------------------|
--------------------------------------|
--------------------------------------|
--------------------------------------|
--------------------------------------|
--0--0--3--3--1--1--0--0--3--3--1--1--|


  PM PM PM PM PM   PM PM PM PM PM PM PM PM  
  E  E  S  S  S  S S  S  S  S  S  S  S  S   
-------------------------------------------|
-------------------------------------------|
-------------------------------------------|
-------------------------------------------|
-------------------5--3--3--2--2-----------|
--0--0--3--3--1-------------------3--3--1--|


  PM PM PM PM PM PM PM PM PM PM PM PM  
  E  E  S  S  S  S  E  E  S  S  S  S   
--------------------------------------|
--------------------------------------|
--------------------------------------|
--------------------------------------|
--------------------------------------|
--0--0--3--3--1--1--0--0--3--3--1--1--|


  PM PM PM PM PM   PM PM PM PM PM PM PM PM  
  E  E  S  S  S  S S  S  S  S  S  S  S  S   
-------------------------------------------|
-------------------------------------------|
-------------------------------------------|
-------------------------------------------|
-------------------5--3--3--2--2-----------|
--0--0--3--3--1-------------------3--3--1--|


  PM PM PM PM PM PM PM PM PM PM PM PM  
  E  E  S  S  S  S  E  E  S  S  S  S   
--------------------------------------|
--------------------------------------|
--------------------------------------|
--------------------------------------|
--------------------------------------|
--0--0--3--3--1--1--0--0--3--3--1--1--|


  PM PM PM PM PM   PM PM PM PM PM PM PM PM  
  E  E  S  S  S  S S  S  S  S  S  S  S  S   
-------------------------------------------|
-------------------------------------------|
-------------------------------------------|
-------------------------------------------|
-------------------5--3--3--2--2-----------|
--0--0--3--3--1-------------------3--3--1--|


  PM PM PM PM PM PM PM PM PM PM PM PM  
  E  E  S  S  S  S  E  E  S  S  S  S   
--------------------------------------|
--------------------------------------|
--------------------------------------|
--------------------------------------|
--------------------------------------|
--0--0--3--3--1--1--0--0--3--3--1--1--|


  PM PM PM PM PM   PM PM PM PM PM PM PM PM    PM PM PM PM PM PM    PM         
  E  E  S  S  S  S S  S  S  S  S  S  S  S     E  E  S  S  S  S  E  E  E   E   
-------------------------------------------|---------------------------------|
-------------------------------------------|---------------------------------|
-------------------------------------------|---------------------------------|
-------------------------------------------|---------------------------------|
-------------------5--3--3--2--2-----------|--------------------------3S--4--|
--0--0--3--3--1-------------------3--3--1--|--0--0--0--0--0--0--1--0--1S--2--|


  PM PM PM PM PM PM PM PM PM PM PM PM    PM PM PM PM PM PM    PM         
  E  E  S  S  S  S  E  E  S  S  S  S     E  E  S  S  S  S  E  E  E   E   
--------------------------------------|---------------------------------|
--------------------------------------|---------------------------------|
--------------------------------------|---------------------------------|
--------------------------------------|---------------------------------|
--------5--5--3--2--------------------|--------------------------3S--4--|
--0--0--------------0--0--3--3--1--1--|--0--0--0--0--0--0--1--0--1S--2--|


  PM PM PM PM PM PM PM PM PM PM PM PM    PM PM PM PM PM PM    PM         
  E  E  S  S  S  S  E  E  S  S  S  S     E  E  S  S  S  S  E  E  E   E   
--------------------------------------|---------------------------------|
--------------------------------------|---------------------------------|
--------------------------------------|---------------------------------|
--------------------------------------|---------------------------------|
--------5--5--3--2--------------------|--------------------------3S--4--|
--0--0--------------0--0--3--3--1--1--|--0--0--0--0--0--0--1--0--1S--2--|


  PM PM PM PM PM PM PM PM PM PM PM PM    PM PM PM PM PM PM    PM         
  E  E  S  S  S  S  E  E  S  S  S  S     E  E  S  S  S  S  E  E  E   E   
--------------------------------------|---------------------------------|
--------------------------------------|---------------------------------|
--------------------------------------|---------------------------------|
--------------------------------------|---------------------------------|
--------5--5--3--2--------------------|--------------------------3S--4--|
--0--0--------------0--0--3--3--1--1--|--0--0--0--0--0--0--1--0--1S--2--|


  PM PM PM PM PM PM PM PM PM PM PM PM       PM PM PM    PM PM PM    PM PM  
  E  E  S  S  S  S  E  E  S  S  S  S     E  S  S  E  E  S  S  E  E  S  S   
--------------------------------------|-----------------------------------|
--------------------------------------|-----------------------------------|
--------------------------------------|-----------------------------------|
--------------------------------------|-----------------------------------|
--------5--5--3--2--------------------|--4-----------4-----------4--------|
--0--0--------------0--0--3--3--1--1--|--2--2--2--2--2--2--2--2--2--2--2--|


  PM    PM PM PM PM                   PM PM PM    PM PM PM    PM PM  
  E  E  S  S  S  S  E  E  E  E     E  S  S  E  E  S  S  E  E  S  S   
--------------------------------|-----------------------------------|
--------------------------------|-----------------------------------|
--------------------------------|-----------------------------------|
--------------------------------|--2-----------2-----------2--------|
-----4--------------5--4--2--0--|--0--0--0--0--0--0--0--0--0--0--0--|
--2--2--2--2--2--2--------------|-----------------------------------|


  PM PM PM PM PM PM PM PM PM PM PM PM       PM PM PM    PM PM PM    PM PM  
  E  E  S  S  S  S  E  E  S  S  S  S     E  S  S  E  E  S  S  E  E  S  S   
--------------------------------------|-----------------------------------|
--------------------------------------|-----------------------------------|
--------------------------------------|-----------------------------------|
--------------------------------------|-----------------------------------|
--0--2--2--2--2--2--2--2--2--2--2--2--|--4-----------4-----------4--------|
--------------------------------------|--2--2--2--2--2--2--2--2--2--2--2--|


  PM    PM PM PM PM                   PM PM PM    PM PM PM    PM PM  
  E  E  S  S  S  S  E  E  E  E     E  S  S  E  E  S  S  E  E  S  S   
--------------------------------|-----------------------------------|
--------------------------------|-----------------------------------|
--------------------------------|-----------------------------------|
--------------------------------|--2-----------2-----------2--------|
-----4--------------5--4--2--0--|--0--0--0--0--0--0--0--0--0--0--0--|
--2--2--2--2--2--2--------------|-----------------------------------|


  PM PM PM PM PM PM PM PM PM PM PM PM       PM PM PM    PM PM PM    PM PM  
  E  E  S  S  S  S  E  E  S  S  S  S     E  S  S  E  E  S  S  E  E  S  S   
--------------------------------------|-----------------------------------|
--------------------------------------|-----------------------------------|
--------------------------------------|-----------------------------------|
--------------------------------------|-----------------------------------|
--0--2--2--2--2--2--2--2--2--2--2--2--|--4-----------4-----------4--------|
--------------------------------------|--2--2--2--2--2--2--2--2--2--2--2--|


  PM    PM PM PM PM                   PM PM PM    PM PM PM    PM PM  
  E  E  S  S  S  S  E  E  E  E     E  S  S  E  E  S  S  E  E  S  S   
--------------------------------|-----------------------------------|
--------------------------------|-----------------------------------|
--------------------------------|-----------------------------------|
--------------------------------|--2-----------2-----------2--------|
-----4--------------5--4--2--0--|--0--0--0--0--0--0--0--0--0--0--0--|
--2--2--2--2--2--2--------------|-----------------------------------|


  PM PM PM PM PM PM PM PM PM PM PM PM       PM PM PM    PM PM PM    PM PM  
  E  E  S  S  S  S  E  E  S  S  S  S     E  S  S  E  E  S  S  E  E  S  S   
--------------------------------------|-----------------------------------|
--------------------------------------|-----------------------------------|
--------------------------------------|-----------------------------------|
--------------------------------------|-----------------------------------|
--0--2--2--2--2--2--2--2--2--2--2--2--|--4-----------4-----------4--------|
--------------------------------------|--2--2--2--2--2--2--2--2--2--2--2--|


  PM    PM PM PM PM                   PM PM PM    PM PM PM    PM PM  
  E  E  S  S  S  S  E  E  E  E     E  S  S  E  E  S  S  E  E  S  S   
--------------------------------|-----------------------------------|
--------------------------------|-----------------------------------|
--------------------------------|-----------------------------------|
--------------------------------|--2-----------2-----------2--------|
-----4--------------5--4--2--0--|--0--0--0--0--0--0--0--0--0--0--0--|
--2--2--2--2--2--2--------------|-----------------------------------|


  PM PM PM PM PM PM PM PM PM PM PM PM                      
  E  E  S  S  S  S  E  E  S  S  S  S     W                 
--------------------------------------|-------------------|
--------------------------------------|-------------------|
--------------------------------------|--6----------------|
--------------------------------------|--4----------------|
--0--2--2--2--2--2--2--2--2--2--2--2--|-------------------|
--------------------------------------|-------------------|


               PM PM                                       PM PM  
  H.           E  E     H.           Q       Q    H        E  E   
---------------------|--------------------|-------2--------------|
---------------------|--------------------|-------2--------------|
--L------------------|--4-----------------|----------------------|
--L------------2--2--|--2------------4----|--L-------------4--4--|
---------------------|---------------2----|--L-------------------|
---------------------|--------------------|----------------------|


                                   PM PM                       
  W                   H.           E  E     H.           Q     
-------------------|---------------------|--------------------|
-------------------|---------------------|--------------------|
--6----------------|--L------------------|--4-----------------|
--4----------------|--L------------2--2--|--2------------4----|
-------------------|---------------------|---------------2----|
-------------------|---------------------|--------------------|


                                                       PM PM  
  W                   W                   H.           E  E   
-------------------|-------------------|---------------------|
-------------------|-------------------|---------------------|
-------------------|--6----------------|--L------------------|
--L----------------|--4----------------|--L------------2--2--|
--L----------------|-------------------|---------------------|
-------------------|-------------------|---------------------|


                                     PM PM                      
  H.           Q       Q    H        E  E     W                 
--------------------|-------2--------------|-------------------|
--------------------|-------2--------------|-------------------|
--4-----------------|----------------------|--6----------------|
--2------------4----|--L-------------4--4--|--4----------------|
---------------2----|--L-------------------|-------------------|
--------------------|----------------------|-------------------|


               PM PM                                           
  H.           E  E     H.           Q       W                 
---------------------|--------------------|-------------------|
---------------------|--------------------|-------------------|
--L------------------|--4-----------------|-------------------|
--L------------2--2--|--2------------4----|--L----------------|
---------------------|---------------2----|--L----------------|
---------------------|--------------------|-------------------|


  PM PM   PM PM   PM PM       PM PM   PM PM PM PM    PM PM   PM PM   PM PM  
  E  Q    E  Q    E  E     E  E  Q    E  E  E  E     E  Q    E  Q    E  E   
------------------------|-------------------------|------------------------|
------------------------|-------------------------|------------------------|
------------------------|-------------1--3--------|------------------------|
------------------------|-------------------2--3--|------------------------|
------------------------|-------------------------|------------------------|
--0--0----0--1----0--0--|--L--0--1----------------|--0--0----0--1----0--0--|


     PM PM                PM PM   PM PM   PM PM       PM PM   PM PM PM PM  
  E  E  E  E  H           E  Q    E  Q    E  E     E  E  Q    E  E  E  E   
-----------------------|------------------------|-------------------------|
-----------------------|------------------------|-------------------------|
-----------------------|------------------------|-------------1--3--------|
-----------------------|------------------------|-------------------2--3--|
-----------------------|------------------------|-------------------------|
--L--0--1--------------|--0--0----0--1----0--0--|--L--0--1----------------|


  PM PM   PM PM   PM PM       PM PM                      PM       PM        
  E  Q    E  Q    E  E     E  E  E  E  H           E  E  E  E  E  E  E  E   
------------------------|-----------------------|--------------------------|
------------------------|-----------------------|--------------------------|
------------------------|-----------------------|--------------------------|
------------------------|-----------------------|--------------------------|
------------------------|-----------------------|--5--7-----7--8-----5--7--|
--0--0----0--1----0--0--|--L--0--1--------------|--------0--------0--------|


  PM       PM                      PM       PM        
  E  E  E  E  E  E  E  E     E  E  E  E  E  E  E  E   
--------------------------|--------------------------|
--------------------------|--------------------------|
--------------------------|--------------------------|
--------------6--7--------|--------------------------|
-----7--8-----------7--8--|--5--7-----7--8-----5--7--|
--0--------0--------------|--------0--------0--------|


  PM       PM tr                   PM       PM        
  E  E  E  E  H              E  E  E  E  E  E  E  E   
--------------------------|--------------------------|
--------------------------|--------------------------|
--------------------------|--------------------------|
--------------6(7)--------|--------------------------|
-----7--8-----------------|--5--7-----7--8-----5--7--|
--0--------0--------------|--------0--------0--------|


  PM       PM                      PM       PM        
  E  E  E  E  E  E  E  E     E  E  E  E  E  E  E  E   
--------------------------|--------------------------|
--------------------------|--------------------------|
--------------------------|--------------------------|
--------------6--7--------|--------------------------|
-----7--8-----------7--8--|--5--7-----7--8-----5--7--|
--0--------0--------------|--------0--------0--------|


  PM       PM tr                   PM       PM        
  E  E  E  E  H              E  E  E  E  E  E  E  E   
--------------------------|--------------------------|
--------------------------|--------------------------|
--------------------------|--------------------------|
--------------6(7)--------|--------------------------|
-----7--8-----------------|--5--7-----7--8-----5--7--|
--0--------0--------------|--------0--------0--------|


  PM       PM                      PM       PM        
  E  E  E  E  E  E  E  E     E  E  E  E  E  E  E  E   
--------------------------|--------------------------|
--------------------------|--------------------------|
--------------------------|--------------------------|
--------------6--7--------|--------------------------|
-----7--8-----------7--8--|--5--7-----7--8-----5--7--|
--0--------0--------------|--------0--------0--------|


  PM       PM tr                   PM       PM        
  E  E  E  E  H              E  E  E  E  E  E  E  E   
--------------------------|--------------------------|
--------------------------|--------------------------|
--------------------------|--------------------------|
--------------6(7)--------|--------------------------|
-----7--8-----------------|--5--7-----7--8-----5--7--|
--0--------0--------------|--------0--------0--------|


  PM       PM                      PM       PM        
  E  E  E  E  E  E  E  E     E  E  E  E  E  E  E  E   
--------------------------|--------------------------|
--------------------------|--------------------------|
--------------------------|--------------------------|
--------------6--7--------|--------------------------|
-----7--8-----------7--8--|--5--7-----7--8-----5--7--|
--0--------0--------------|--------0--------0--------|


  PM       PM tr                PM PM PM    PM PM PM    PM PM  
  E  E  E  E  H              E  S  S  E  E  S  S  E  E  S  S   
--------------------------|-----------------------------------|
--------------------------|-----------------------------------|
--------------------------|-----------------------------------|
--------------6(7)--------|-----------------------------------|
-----7--8-----------------|--4-----------4-----------4--------|
--0--------0--------------|--2--2--2--2--2--2--2--2--2--2--2--|


  PM    PM PM PM PM                   PM PM PM    PM PM PM    PM PM  
  E  E  S  S  S  S  E  E  E  E     E  S  S  E  E  S  S  E  E  S  S   
--------------------------------|-----------------------------------|
--------------------------------|-----------------------------------|
--------------------------------|-----------------------------------|
--------------------------------|-----------------------------------|
-----4--------------5--4--2-----|--7-----------7-----------7--------|
--2--2--2--2--2--2-----------5--|--5--5--5--5--5--5--5--5--5--5--5--|


  PM PM PM PM PM PM PM PM PM PM PM PM       PM PM PM    PM PM PM    PM PM  
  E  E  S  S  S  S  E  E  S  S  S  S     E  S  S  E  E  S  S  E  E  S  S   
--------------------------------------|-----------------------------------|
--------------------------------------|-----------------------------------|
--------------------------------------|-----------------------------------|
--------------------------------------|-----------------------------------|
--------------------------------------|--4-----------4-----------4--------|
--5--7--7--7--7--7--7--7--7--7--7--7--|--2--2--2--2--2--2--2--2--2--2--2--|


  PM    PM PM PM PM                   PM PM PM    PM PM PM    PM PM  
  E  E  S  S  S  S  E  E  E  E     E  S  S  E  E  S  S  E  E  S  S   
--------------------------------|-----------------------------------|
--------------------------------|-----------------------------------|
--------------------------------|-----------------------------------|
--------------------------------|-----------------------------------|
-----4--------------5--4--2-----|--7-----------7-----------7--------|
--2--2--2--2--2--2-----------5--|--5--5--5--5--5--5--5--5--5--5--5--|


  PM PM PM PM PM PM PM PM PM PM PM PM       PM PM PM    PM PM PM    PM PM  
  E  E  S  S  S  S  E  E  S  S  S  S     E  S  S  E  E  S  S  E  E  S  S   
--------------------------------------|-----------------------------------|
--------------------------------------|-----------------------------------|
--------------------------------------|-----------------------------------|
--------------------------------------|-----------------------------------|
--------------------------------------|--4-----------4-----------4--------|
--5--7--7--7--7--7--7--7--7--7--7--7--|--2--2--2--2--2--2--2--2--2--2--2--|


  PM    PM PM PM PM                   PM PM PM    PM PM PM    PM PM  
  E  E  S  S  S  S  E  E  E  E     E  S  S  E  E  S  S  E  E  S  S   
--------------------------------|-----------------------------------|
--------------------------------|-----------------------------------|
--------------------------------|-----------------------------------|
--------------------------------|-----------------------------------|
-----4--------------5--4--2-----|--7-----------7-----------7--------|
--2--2--2--2--2--2-----------5--|--5--5--5--5--5--5--5--5--5--5--5--|


  PM PM PM PM PM PM PM PM PM PM PM PM       PM PM PM    PM PM PM    PM PM  
  E  E  S  S  S  S  E  E  S  S  S  S     E  S  S  E  E  S  S  E  E  S  S   
--------------------------------------|-----------------------------------|
--------------------------------------|-----------------------------------|
--------------------------------------|-----------------------------------|
--------------------------------------|-----------------------------------|
--------------------------------------|--4-----------4-----------4--------|
--5--7--7--7--7--7--7--7--7--7--7--7--|--2--2--2--2--2--2--2--2--2--2--2--|


  PM    PM PM PM PM                   PM PM PM    PM PM PM    PM PM  
  E  E  S  S  S  S  E  E  E  E     E  S  S  E  E  S  S  E  E  S  S   
--------------------------------|-----------------------------------|
--------------------------------|-----------------------------------|
--------------------------------|-----------------------------------|
--------------------------------|-----------------------------------|
-----4--------------5--4--2-----|--7-----------7-----------7--------|
--2--2--2--2--2--2-----------5--|--5--5--5--5--5--5--5--5--5--5--5--|


  PM PM PM PM PM PM PM PM PM PM PM PM                      
  E  E  S  S  S  S  E  E  S  S  S  S     W                 
--------------------------------------|-------------------|
--------------------------------------|-------------------|
--------------------------------------|--6----------------|
--------------------------------------|--4----------------|
--------------------------------------|-------------------|
--5--7--7--7--7--7--7--7--7--7--7--7--|-------------------|


               PM PM                                       PM PM  
  H.           E  E     H.           Q       Q    H        E  E   
---------------------|--------------------|-------2--------------|
---------------------|--------------------|-------2--------------|
--L------------------|--4-----------------|----------------------|
--L------------2--2--|--2------------4----|--L-------------4--4--|
---------------------|---------------2----|--L-------------------|
---------------------|--------------------|----------------------|


                                   PM PM                       
  W                   H.           E  E     H.           Q     
-------------------|---------------------|--------------------|
-------------------|---------------------|--------------------|
--6----------------|--L------------------|--4-----------------|
--4----------------|--L------------2--2--|--2------------4----|
-------------------|---------------------|---------------2----|
-------------------|---------------------|--------------------|


                                                       PM PM  
  W                   W                   H.           E  E   
-------------------|-------------------|---------------------|
-------------------|-------------------|---------------------|
-------------------|--6----------------|--L------------------|
--L----------------|--4----------------|--L------------2--2--|
--L----------------|-------------------|---------------------|
-------------------|-------------------|---------------------|


                                     PM PM                      
  H.           Q       Q    H        E  E     W                 
--------------------|-------2--------------|-------------------|
--------------------|-------2--------------|-------------------|
--4-----------------|----------------------|--6----------------|
--2------------4----|--L-------------4--4--|--4----------------|
---------------2----|--L-------------------|-------------------|
--------------------|----------------------|-------------------|


               PM PM                                           
  H.           E  E     H.           Q       W                 
---------------------|--------------------|-------------------|
---------------------|--------------------|-------------------|
--L------------------|--4-----------------|-------------------|
--L------------2--2--|--2------------4----|--L----------------|
---------------------|---------------2----|--L----------------|
---------------------|--------------------|-------------------|


                                   PM PM                       
  W                   H.           E  E     H.           Q     
-------------------|---------------------|--------------------|
-------------------|---------------------|--------------------|
--6----------------|--L------------------|--4-----------------|
--4----------------|--L------------2--2--|--2------------4----|
-------------------|---------------------|---------------2----|
-------------------|---------------------|--------------------|


                PM PM                                     PM PM  
  Q    H        E  E     W                   H.           E  E   
-------2--------------|-------------------|---------------------|
-------2--------------|-------------------|---------------------|
----------------------|--6----------------|--L------------------|
--L-------------4--4--|--4----------------|--L------------2--2--|
--L-------------------|-------------------|---------------------|
----------------------|-------------------|---------------------|


  H.           Q       W                   W                 
--------------------|-------------------|-------------------|
--------------------|-------------------|-------------------|
--4-----------------|-------------------|--6----------------|
--2------------4----|--L----------------|--4----------------|
---------------2----|--L----------------|-------------------|
--------------------|-------------------|-------------------|


               PM PM                                       PM PM  
  H.           E  E     H.           Q       Q    H        E  E   
---------------------|--------------------|-------2--------------|
---------------------|--------------------|-------2--------------|
--L------------------|--4-----------------|----------------------|
--L------------2--2--|--2------------4----|--L-------------4--4--|
---------------------|---------------2----|--L-------------------|
---------------------|--------------------|----------------------|


                                   PM PM                       
  W                   H.           E  E     H.           Q     
-------------------|---------------------|--------------------|
-------------------|---------------------|--------------------|
--6----------------|--L------------------|--4-----------------|
--4----------------|--L------------2--2--|--2------------4----|
-------------------|---------------------|---------------2----|
-------------------|---------------------|--------------------|


  W                  
-------------------||
-------------------||
-------------------||
--L----------------||
--L----------------||
-------------------||

Guitar 2

      w/ Distortion                                   
      PM            PM PM PM PM PM PM PM PM PM PM PM  
      E             E  S  S  S  S  E  E  S  S  S  S   
B ||-------------------------------------------------|
F#||-------------------------------------------------|
D ||-------------------------------------------------|
A ||-------------------------------------------------|
E ||-------------------------------------------------|
B ||--0-------------0--3--3--1--1--0--0--3--3--1--1--|


  PM PM PM PM PM   PM PM PM PM PM PM PM PM  
  E  E  S  S  S  S S  S  S  S  S  S  S  S   
-------------------------------------------|
-------------------------------------------|
-------------------------------------------|
-------------------------------------------|
-------------------5--3--3--2--2-----------|
--0--0--3--3--1-------------------3--3--1--|


  PM PM PM PM PM PM PM PM PM PM PM PM  
  E  E  S  S  S  S  E  E  S  S  S  S   
--------------------------------------|
--------------------------------------|
--------------------------------------|
--------------------------------------|
--------------------------------------|
--0--0--3--3--1--1--0--0--3--3--1--1--|


  PM PM PM PM PM   PM PM PM PM PM PM PM PM  
  E  E  S  S  S  S S  S  S  S  S  S  S  S   
-------------------------------------------|
-------------------------------------------|
-------------------------------------------|
-------------------------------------------|
-------------------5--3--3--2--2-----------|
--0--0--3--3--1-------------------3--3--1--|


  PM PM PM PM PM PM PM PM PM PM PM PM  
  E  E  S  S  S  S  E  E  S  S  S  S   
--------------------------------------|
--------------------------------------|
--------------------------------------|
--------------------------------------|
--------------------------------------|
--0--0--3--3--1--1--0--0--3--3--1--1--|


  PM PM PM PM PM   PM PM PM PM PM PM PM PM  
  E  E  S  S  S  S S  S  S  S  S  S  S  S   
-------------------------------------------|
-------------------------------------------|
-------------------------------------------|
-------------------------------------------|
-------------------5--3--3--2--2-----------|
--0--0--3--3--1-------------------3--3--1--|


  PM PM PM PM PM PM PM PM PM PM PM PM  
  E  E  S  S  S  S  E  E  S  S  S  S   
--------------------------------------|
--------------------------------------|
--------------------------------------|
--------------------------------------|
--------------------------------------|
--0--0--3--3--1--1--0--0--3--3--1--1--|


  PM PM PM PM PM   PM PM PM PM PM PM PM PM    PM PM PM PM PM PM    PM         
  E  E  S  S  S  S S  S  S  S  S  S  S  S     E  E  S  S  S  S  E  E  E   E   
-------------------------------------------|---------------------------------|
-------------------------------------------|---------------------------------|
-------------------------------------------|---------------------------------|
-------------------------------------------|---------------------------------|
-------------------5--3--3--2--2-----------|--------------------------3S--4--|
--0--0--3--3--1-------------------3--3--1--|--0--0--0--0--0--0--1--0--1S--2--|


  PM PM PM PM PM PM PM PM PM PM PM PM    PM PM PM PM PM PM    PM         
  E  E  S  S  S  S  E  E  S  S  S  S     E  E  S  S  S  S  E  E  E   E   
--------------------------------------|---------------------------------|
--------------------------------------|---------------------------------|
--------------------------------------|---------------------------------|
--------------------------------------|---------------------------------|
--------5--5--3--2--------------------|--------------------------3S--4--|
--0--0--------------0--0--3--3--1--1--|--0--0--0--0--0--0--1--0--1S--2--|


  PM PM PM PM PM PM PM PM PM PM PM PM    PM PM PM PM PM PM    PM         
  E  E  S  S  S  S  E  E  S  S  S  S     E  E  S  S  S  S  E  E  E   E   
--------------------------------------|---------------------------------|
--------------------------------------|---------------------------------|
--------------------------------------|---------------------------------|
--------------------------------------|---------------------------------|
--------5--5--3--2--------------------|--------------------------3S--4--|
--0--0--------------0--0--3--3--1--1--|--0--0--0--0--0--0--1--0--1S--2--|


  PM PM PM PM PM PM PM PM PM PM PM PM    PM PM PM PM PM PM    PM         
  E  E  S  S  S  S  E  E  S  S  S  S     E  E  S  S  S  S  E  E  E   E   
--------------------------------------|---------------------------------|
--------------------------------------|---------------------------------|
--------------------------------------|---------------------------------|
--------------------------------------|---------------------------------|
--------5--5--3--2--------------------|--------------------------3S--4--|
--0--0--------------0--0--3--3--1--1--|--0--0--0--0--0--0--1--0--1S--2--|


  PM PM PM PM PM PM PM PM PM PM PM PM    PM PM PM PM PM PM    PM         
  E  E  S  S  S  S  E  E  S  S  S  S     E  E  S  S  S  S  E  E  E   E   
--------------------------------------|---------------------------------|
--------------------------------------|---------------------------------|
--------------------------------------|---------------------------------|
--------------------------------------|---------------------------------|
--------5--5--3--2--------------------|--------------------------3S--4--|
--0--0--------------0--0--3--3--1--1--|--0--0--0--0--0--0--1--0--1S--2--|


  PM PM PM PM PM PM PM PM PM PM PM PM    PM PM PM PM PM PM    PM         
  E  E  S  S  S  S  E  E  S  S  S  S     E  E  S  S  S  S  E  E  E   E   
--------------------------------------|---------------------------------|
--------------------------------------|---------------------------------|
--------------------------------------|---------------------------------|
--------------------------------------|---------------------------------|
--------5--5--3--2--------------------|--------------------------3S--4--|
--0--0--------------0--0--3--3--1--1--|--0--0--0--0--0--0--1--0--1S--2--|


  PM PM PM PM PM PM PM PM PM PM PM PM    PM PM PM PM PM PM    PM         
  E  E  S  S  S  S  E  E  S  S  S  S     E  E  S  S  S  S  E  E  E   E   
--------------------------------------|---------------------------------|
--------------------------------------|---------------------------------|
--------------------------------------|---------------------------------|
--------------------------------------|---------------------------------|
--------5--5--3--2--------------------|--------------------------3S--4--|
--0--0--------------0--0--3--3--1--1--|--0--0--0--0--0--0--1--0--1S--2--|


  PM PM PM PM PM PM PM PM PM PM PM PM    PM PM PM PM PM PM    PM         
  E  E  S  S  S  S  E  E  S  S  S  S     E  E  S  S  S  S  E  E  E   E   
--------------------------------------|---------------------------------|
--------------------------------------|---------------------------------|
--------------------------------------|---------------------------------|
--------------------------------------|---------------------------------|
--------5--5--3--2--------------------|--------------------------3S--4--|
--0--0--------------0--0--3--3--1--1--|--0--0--0--0--0--0--1--0--1S--2--|


                      PM PM PM PM PM PM PM PM PM PM PM PM  
  W                   E  E  S  S  S  S  E  E  S  S  S  S   
-------------------|--------------------------------------|
-------------------|--------------------------------------|
-------------------|--------------------------------------|
-------------------|--------------------------------------|
-------------------|--------------------------------------|
-------------------|--0--0--3--3--1--1--0--0--3--3--1--1--|


  PM PM PM PM PM   PM PM PM PM PM PM PM PM  
  E  E  S  S  S  S S  S  S  S  S  S  S  S   
-------------------------------------------|
-------------------------------------------|
-------------------------------------------|
-------------------------------------------|
-------------------5--3--3--2--2-----------|
--0--0--3--3--1-------------------3--3--1--|


  PM PM PM PM PM PM PM PM PM PM PM PM  
  E  E  S  S  S  S  E  E  S  S  S  S   
--------------------------------------|
--------------------------------------|
--------------------------------------|
--------------------------------------|
--------------------------------------|
--0--0--3--3--1--1--0--0--3--3--1--1--|


  PM PM PM PM PM   PM PM PM PM PM PM PM PM  
  E  E  S  S  S  S S  S  S  S  S  S  S  S   
-------------------------------------------|
-------------------------------------------|
-------------------------------------------|
-------------------------------------------|
-------------------5--3--3--2--2-----------|
--0--0--3--3--1-------------------3--3--1--|


  PM PM PM PM PM PM PM PM PM PM PM PM  
  E  E  S  S  S  S  E  E  S  S  S  S   
--------------------------------------|
--------------------------------------|
--------------------------------------|
--------------------------------------|
--------------------------------------|
--0--0--3--3--1--1--0--0--3--3--1--1--|


  PM PM PM PM PM   PM PM PM PM PM PM PM PM  
  E  E  S  S  S  S S  S  S  S  S  S  S  S   
-------------------------------------------|
-------------------------------------------|
-------------------------------------------|
-------------------------------------------|
-------------------5--3--3--2--2-----------|
--0--0--3--3--1-------------------3--3--1--|


  PM PM PM PM PM PM PM PM PM PM PM PM  
  E  E  S  S  S  S  E  E  S  S  S  S   
--------------------------------------|
--------------------------------------|
--------------------------------------|
--------------------------------------|
--------------------------------------|
--0--0--3--3--1--1--0--0--3--3--1--1--|


  PM PM PM PM PM   PM PM PM PM PM PM PM PM    PM PM PM PM PM PM    PM         
  E  E  S  S  S  S S  S  S  S  S  S  S  S     E  E  S  S  S  S  E  E  E   E   
-------------------------------------------|---------------------------------|
-------------------------------------------|---------------------------------|
-------------------------------------------|---------------------------------|
-------------------------------------------|---------------------------------|
-------------------5--3--3--2--2-----------|--------------------------3S--4--|
--0--0--3--3--1-------------------3--3--1--|--0--0--0--0--0--0--1--0--1S--2--|


  PM PM PM PM PM PM PM PM PM PM PM PM    PM PM PM PM PM PM    PM         
  E  E  S  S  S  S  E  E  S  S  S  S     E  E  S  S  S  S  E  E  E   E   
--------------------------------------|---------------------------------|
--------------------------------------|---------------------------------|
--------------------------------------|---------------------------------|
--------------------------------------|---------------------------------|
--------5--5--3--2--------------------|--------------------------3S--4--|
--0--0--------------0--0--3--3--1--1--|--0--0--0--0--0--0--1--0--1S--2--|


  PM PM PM PM PM PM PM PM PM PM PM PM    PM PM PM PM PM PM    PM         
  E  E  S  S  S  S  E  E  S  S  S  S     E  E  S  S  S  S  E  E  E   E   
--------------------------------------|---------------------------------|
--------------------------------------|---------------------------------|
--------------------------------------|---------------------------------|
--------------------------------------|---------------------------------|
--------5--5--3--2--------------------|--------------------------3S--4--|
--0--0--------------0--0--3--3--1--1--|--0--0--0--0--0--0--1--0--1S--2--|


  PM PM PM PM PM PM PM PM PM PM PM PM    PM PM PM PM PM PM    PM         
  E  E  S  S  S  S  E  E  S  S  S  S     E  E  S  S  S  S  E  E  E   E   
--------------------------------------|---------------------------------|
--------------------------------------|---------------------------------|
--------------------------------------|---------------------------------|
--------------------------------------|---------------------------------|
--------5--5--3--2--------------------|--------------------------3S--4--|
--0--0--------------0--0--3--3--1--1--|--0--0--0--0--0--0--1--0--1S--2--|


  PM PM PM PM PM PM PM PM PM PM PM PM       PM PM PM    PM PM PM    PM PM  
  E  E  S  S  S  S  E  E  S  S  S  S     E  S  S  E  E  S  S  E  E  S  S   
--------------------------------------|-----------------------------------|
--------------------------------------|-----------------------------------|
--------------------------------------|-----------------------------------|
--------------------------------------|-----------------------------------|
--------5--5--3--2--------------------|--4-----------4-----------4--------|
--0--0--------------0--0--3--3--1--1--|--2--2--2--2--2--2--2--2--2--2--2--|


  PM    PM PM PM PM                   PM PM PM    PM PM PM    PM PM  
  E  E  S  S  S  S  E  E  E  E     E  S  S  E  E  S  S  E  E  S  S   
--------------------------------|-----------------------------------|
--------------------------------|-----------------------------------|
--------------------------------|-----------------------------------|
--------------------------------|--2-----------2-----------2--------|
-----4--------------5--4--2--0--|--0--0--0--0--0--0--0--0--0--0--0--|
--2--2--2--2--2--2--------------|-----------------------------------|


  PM PM PM PM PM PM PM PM PM PM PM PM       PM PM PM    PM PM PM    PM PM  
  E  E  S  S  S  S  E  E  S  S  S  S     E  S  S  E  E  S  S  E  E  S  S   
--------------------------------------|-----------------------------------|
--------------------------------------|-----------------------------------|
--------------------------------------|-----------------------------------|
--------------------------------------|-----------------------------------|
--0--2--2--2--2--2--2--2--2--2--2--2--|--4-----------4-----------4--------|
--------------------------------------|--2--2--2--2--2--2--2--2--2--2--2--|


  PM    PM PM PM PM                   PM PM PM    PM PM PM    PM PM  
  E  E  S  S  S  S  E  E  E  E     E  S  S  E  E  S  S  E  E  S  S   
--------------------------------|-----------------------------------|
--------------------------------|-----------------------------------|
--------------------------------|-----------------------------------|
--------------------------------|--2-----------2-----------2--------|
-----4--------------5--4--2--0--|--0--0--0--0--0--0--0--0--0--0--0--|
--2--2--2--2--2--2--------------|-----------------------------------|


  PM PM PM PM PM PM PM PM PM PM PM PM       PM PM PM    PM PM PM    PM PM  
  E  E  S  S  S  S  E  E  S  S  S  S     E  S  S  E  E  S  S  E  E  S  S   
--------------------------------------|-----------------------------------|
--------------------------------------|-----------------------------------|
--------------------------------------|-----------------------------------|
--------------------------------------|-----------------------------------|
--0--2--2--2--2--2--2--2--2--2--2--2--|--4-----------4-----------4--------|
--------------------------------------|--2--2--2--2--2--2--2--2--2--2--2--|


  PM    PM PM PM PM                   PM PM PM    PM PM PM    PM PM  
  E  E  S  S  S  S  E  E  E  E     E  S  S  E  E  S  S  E  E  S  S   
--------------------------------|-----------------------------------|
--------------------------------|-----------------------------------|
--------------------------------|-----------------------------------|
--------------------------------|--2-----------2-----------2--------|
-----4--------------5--4--2--0--|--0--0--0--0--0--0--0--0--0--0--0--|
--2--2--2--2--2--2--------------|-----------------------------------|


  PM PM PM PM PM PM PM PM PM PM PM PM       PM PM PM    PM PM PM    PM PM  
  E  E  S  S  S  S  E  E  S  S  S  S     E  S  S  E  E  S  S  E  E  S  S   
--------------------------------------|-----------------------------------|
--------------------------------------|-----------------------------------|
--------------------------------------|-----------------------------------|
--------------------------------------|-----------------------------------|
--0--2--2--2--2--2--2--2--2--2--2--2--|--4-----------4-----------4--------|
--------------------------------------|--2--2--2--2--2--2--2--2--2--2--2--|


  PM    PM PM PM PM                   PM PM PM    PM PM PM    PM PM  
  E  E  S  S  S  S  E  E  E  E     E  S  S  E  E  S  S  E  E  S  S   
--------------------------------|-----------------------------------|
--------------------------------|-----------------------------------|
--------------------------------|-----------------------------------|
--------------------------------|--2-----------2-----------2--------|
-----4--------------5--4--2--0--|--0--0--0--0--0--0--0--0--0--0--0--|
--2--2--2--2--2--2--------------|-----------------------------------|


  PM PM PM PM PM PM PM PM PM PM PM PM    PM PM   PM PM   PM PM  
  E  E  S  S  S  S  E  E  S  S  S  S     E  Q    E  Q    E  E   
--------------------------------------|------------------------|
--------------------------------------|------------------------|
--------------------------------------|------------------------|
--------------------------------------|------------------------|
--0--2--2--2--2--2--2--2--2--2--2--2--|------------------------|
--------------------------------------|--0--0----0--1----0--0--|


     PM PM   PM PM PM PM    PM PM   PM PM   PM PM       PM PM              
  E  E  Q    E  E  E  E     E  Q    E  Q    E  E     E  E  E  E  H         
-------------------------|------------------------|-----------------------|
-------------------------|------------------------|-----------------------|
-------------1--3--------|------------------------|-----------------------|
-------------------2--3--|------------------------|-----------------------|
-------------------------|------------------------|-----------------------|
--L--0--1----------------|--0--0----0--1----0--0--|--L--0--1--------------|


  PM PM   PM PM   PM PM       PM PM   PM PM PM PM    PM PM   PM PM   PM PM  
  E  Q    E  Q    E  E     E  E  Q    E  E  E  E     E  Q    E  Q    E  E   
------------------------|-------------------------|------------------------|
------------------------|-------------------------|------------------------|
------------------------|-------------1--3--------|------------------------|
------------------------|-------------------2--3--|------------------------|
------------------------|-------------------------|------------------------|
--0--0----0--1----0--0--|--L--0--1----------------|--0--0----0--1----0--0--|


     PM PM                      PM        PM        
  E  E  E  E  H           E  E  E  E   E  E  E  E   
-----------------------|---------------------------|
-----------------------|---------------------------|
-----------------------|--7--9-----9--10-----7--9--|
-----------------------|---------------------------|
-----------------------|--------7---------7--------|
--L--0--1--------------|---------------------------|


  PM        PM                        PM        PM        
  E  E   E  E  E   E  E   E     E  E  E  E   E  E  E  E   
-----------------------------|---------------------------|
---------------9--10---------|---------------------------|
-----9--10------------9--10--|--7--9-----9--10-----7--9--|
-----------------------------|---------------------------|
--7---------7----------------|--------7---------7--------|
-----------------------------|---------------------------|


  PM        PM tr                    PM        PM        
  E  E   E  E  H               E  E  E  E   E  E  E  E   
----------------------------|---------------------------|
---------------9(10)--------|---------------------------|
-----9--10------------------|--7--9-----9--10-----7--9--|
----------------------------|---------------------------|
--7---------7---------------|--------7---------7--------|
----------------------------|---------------------------|


  PM        PM                        PM        PM        
  E  E   E  E  E   E  E   E     E  E  E  E   E  E  E  E   
-----------------------------|---------------------------|
---------------9--10---------|---------------------------|
-----9--10------------9--10--|--7--9-----9--10-----7--9--|
-----------------------------|---------------------------|
--7---------7----------------|--------7---------7--------|
-----------------------------|---------------------------|


  PM        PM tr              PM PM PM PM PM PM PM PM PM PM PM PM  
  E  E   E  E  H               E  E  S  S  S  S  E  E  S  S  S  S   
----------------------------|--------------------------------------|
---------------9(10)--------|--------------------------------------|
-----9--10------------------|--------------------------------------|
----------------------------|--------------------------------------|
--7---------7---------------|--------------------------------------|
----------------------------|--0--0--3--3--1--1--0--0--3--3--1--1--|


  PM PM PM PM PM   PM PM PM PM PM PM PM PM  
  E  E  S  S  S  S S  S  S  S  S  S  S  S   
-------------------------------------------|
-------------------------------------------|
-------------------------------------------|
-------------------------------------------|
-------------------5--3--3--2--2-----------|
--0--0--3--3--1-------------------3--3--1--|


  PM PM PM PM PM PM PM PM PM PM PM PM  
  E  E  S  S  S  S  E  E  S  S  S  S   
--------------------------------------|
--------------------------------------|
--------------------------------------|
--------------------------------------|
--------------------------------------|
--0--0--3--3--1--1--0--0--3--3--1--1--|


  PM PM PM PM PM   PM PM PM PM PM PM PM PM  
  E  E  S  S  S  S S  S  S  S  S  S  S  S   
-------------------------------------------|
-------------------------------------------|
-------------------------------------------|
-------------------------------------------|
-------------------5--3--3--2--2-----------|
--0--0--3--3--1-------------------3--3--1--|


  PM PM PM PM PM PM PM PM PM PM PM PM  
  E  E  S  S  S  S  E  E  S  S  S  S   
--------------------------------------|
--------------------------------------|
--------------------------------------|
--------------------------------------|
--------------------------------------|
--0--0--3--3--1--1--0--0--3--3--1--1--|


  PM PM PM PM PM   PM PM PM PM PM PM PM PM  
  E  E  S  S  S  S S  S  S  S  S  S  S  S   
-------------------------------------------|
-------------------------------------------|
-------------------------------------------|
-------------------------------------------|
-------------------5--3--3--2--2-----------|
--0--0--3--3--1-------------------3--3--1--|


  PM PM PM PM PM PM PM PM PM PM PM PM  
  E  E  S  S  S  S  E  E  S  S  S  S   
--------------------------------------|
--------------------------------------|
--------------------------------------|
--------------------------------------|
--------------------------------------|
--0--0--3--3--1--1--0--0--3--3--1--1--|


  PM PM PM PM PM   PM PM PM PM PM PM PM PM    PM PM PM PM PM PM    PM         
  E  E  S  S  S  S S  S  S  S  S  S  S  S     E  E  S  S  S  S  E  E  E   E   
-------------------------------------------|---------------------------------|
-------------------------------------------|---------------------------------|
-------------------------------------------|---------------------------------|
-------------------------------------------|---------------------------------|
-------------------5--3--3--2--2-----------|--------------------------3S--4--|
--0--0--3--3--1-------------------3--3--1--|--0--0--0--0--0--0--1--0--1S--2--|


  PM PM PM PM PM PM PM PM PM PM PM PM    PM PM PM PM PM PM    PM         
  E  E  S  S  S  S  E  E  S  S  S  S     E  E  S  S  S  S  E  E  E   E   
--------------------------------------|---------------------------------|
--------------------------------------|---------------------------------|
--------------------------------------|---------------------------------|
--------------------------------------|---------------------------------|
--------5--5--3--2--------------------|--------------------------3S--4--|
--0--0--------------0--0--3--3--1--1--|--0--0--0--0--0--0--1--0--1S--2--|


  PM PM PM PM PM PM PM PM PM PM PM PM    PM PM PM PM PM PM    PM         
  E  E  S  S  S  S  E  E  S  S  S  S     E  E  S  S  S  S  E  E  E   E   
--------------------------------------|---------------------------------|
--------------------------------------|---------------------------------|
--------------------------------------|---------------------------------|
--------------------------------------|---------------------------------|
--------5--5--3--2--------------------|--------------------------3S--4--|
--0--0--------------0--0--3--3--1--1--|--0--0--0--0--0--0--1--0--1S--2--|


  PM PM PM PM PM PM PM PM PM PM PM PM    PM PM PM PM PM PM    PM         
  E  E  S  S  S  S  E  E  S  S  S  S     E  E  S  S  S  S  E  E  E   E   
--------------------------------------|---------------------------------|
--------------------------------------|---------------------------------|
--------------------------------------|---------------------------------|
--------------------------------------|---------------------------------|
--------5--5--3--2--------------------|--------------------------3S--4--|
--0--0--------------0--0--3--3--1--1--|--0--0--0--0--0--0--1--0--1S--2--|


  PM PM PM PM PM PM PM PM PM PM PM PM       PM PM PM    PM PM PM    PM PM  
  E  E  S  S  S  S  E  E  S  S  S  S     E  S  S  E  E  S  S  E  E  S  S   
--------------------------------------|-----------------------------------|
--------------------------------------|-----------------------------------|
--------------------------------------|-----------------------------------|
--------------------------------------|-----------------------------------|
--------5--5--3--2--------------------|--4-----------4-----------4--------|
--0--0--------------0--0--3--3--1--1--|--2--2--2--2--2--2--2--2--2--2--2--|


  PM    PM PM PM PM                   PM PM PM    PM PM PM    PM PM  
  E  E  S  S  S  S  E  E  E  E     E  S  S  E  E  S  S  E  E  S  S   
--------------------------------|-----------------------------------|
--------------------------------|-----------------------------------|
--------------------------------|-----------------------------------|
--------------------------------|--2-----------2-----------2--------|
-----4--------------5--4--2--0--|--0--0--0--0--0--0--0--0--0--0--0--|
--2--2--2--2--2--2--------------|-----------------------------------|


  PM PM PM PM PM PM PM PM PM PM PM PM       PM PM PM    PM PM PM    PM PM  
  E  E  S  S  S  S  E  E  S  S  S  S     E  S  S  E  E  S  S  E  E  S  S   
--------------------------------------|-----------------------------------|
--------------------------------------|-----------------------------------|
--------------------------------------|-----------------------------------|
--------------------------------------|-----------------------------------|
--0--2--2--2--2--2--2--2--2--2--2--2--|--4-----------4-----------4--------|
--------------------------------------|--2--2--2--2--2--2--2--2--2--2--2--|


  PM    PM PM PM PM                   PM PM PM    PM PM PM    PM PM  
  E  E  S  S  S  S  E  E  E  E     E  S  S  E  E  S  S  E  E  S  S   
--------------------------------|-----------------------------------|
--------------------------------|-----------------------------------|
--------------------------------|-----------------------------------|
--------------------------------|--2-----------2-----------2--------|
-----4--------------5--4--2--0--|--0--0--0--0--0--0--0--0--0--0--0--|
--2--2--2--2--2--2--------------|-----------------------------------|


  PM PM PM PM PM PM PM PM PM PM PM PM       PM PM PM    PM PM PM    PM PM  
  E  E  S  S  S  S  E  E  S  S  S  S     E  S  S  E  E  S  S  E  E  S  S   
--------------------------------------|-----------------------------------|
--------------------------------------|-----------------------------------|
--------------------------------------|-----------------------------------|
--------------------------------------|-----------------------------------|
--0--2--2--2--2--2--2--2--2--2--2--2--|--4-----------4-----------4--------|
--------------------------------------|--2--2--2--2--2--2--2--2--2--2--2--|


  PM    PM PM PM PM                   PM PM PM    PM PM PM    PM PM  
  E  E  S  S  S  S  E  E  E  E     E  S  S  E  E  S  S  E  E  S  S   
--------------------------------|-----------------------------------|
--------------------------------|-----------------------------------|
--------------------------------|-----------------------------------|
--------------------------------|--2-----------2-----------2--------|
-----4--------------5--4--2--0--|--0--0--0--0--0--0--0--0--0--0--0--|
--2--2--2--2--2--2--------------|-----------------------------------|


  PM PM PM PM PM PM PM PM PM PM PM PM       PM PM PM    PM PM PM    PM PM  
  E  E  S  S  S  S  E  E  S  S  S  S     E  S  S  E  E  S  S  E  E  S  S   
--------------------------------------|-----------------------------------|
--------------------------------------|-----------------------------------|
--------------------------------------|-----------------------------------|
--------------------------------------|-----------------------------------|
--0--2--2--2--2--2--2--2--2--2--2--2--|--4-----------4-----------4--------|
--------------------------------------|--2--2--2--2--2--2--2--2--2--2--2--|


  PM    PM PM PM PM                   PM PM PM    PM PM PM    PM PM  
  E  E  S  S  S  S  E  E  E  E     E  S  S  E  E  S  S  E  E  S  S   
--------------------------------|-----------------------------------|
--------------------------------|-----------------------------------|
--------------------------------|-----------------------------------|
--------------------------------|--2-----------2-----------2--------|
-----4--------------5--4--2--0--|--0--0--0--0--0--0--0--0--0--0--0--|
--2--2--2--2--2--2--------------|-----------------------------------|


                                         w/ Clean tone                 
  PM PM PM PM PM PM PM PM PM PM PM PM                                  
  E  E  S  S  S  S  E  E  S  S  S  S     Q             Q    Q    Q     
--------------------------------------|--------------------------4----|
--------------------------------------|---------------------7---------|
--------------------------------------|----------------6--------------|
--------------------------------------|--4----------------------------|
--0--2--2--2--2--2--2--2--2--2--2--2--|-------------------------------|
--------------------------------------|-------------------------------|


  Q    H        Q       Q    Q    Q    Q       Q    H        Q     
---------------------|----------------------|---------------------|
--7------------------|------------0---------|----------------0----|
-------6-------------|-------2--------------|-------2-------------|
----------------2----|--2-------------------|---------------------|
---------------------|----------------------|---------------------|
---------------------|-----------------0----|--L------------------|


  Q    Q    Q    Q       Q    H        Q       Q    Q    Q    Q     
-----------------4----|---------------------|----------------------|
------------7---------|--7------------------|------------0---------|
-------6--------------|-------6-------------|-------2--------------|
--4-------------------|----------------2----|--2-------------------|
----------------------|---------------------|----------------------|
----------------------|---------------------|-----------------0----|


  W                   Q    Q    Q    Q       Q    H        Q     
-------------------|-----------------4----|---------------------|
-------------------|------------7---------|--7------------------|
-------------------|-------6--------------|-------6-------------|
-------------------|--4-------------------|----------------2----|
-------------------|----------------------|---------------------|
--L----------------|----------------------|---------------------|


  Q    Q    Q    Q       Q    H        Q       Q    Q    Q    Q     
----------------------|---------------------|-----------------4----|
------------0---------|----------------0----|------------7---------|
-------2--------------|-------2-------------|-------6--------------|
--2-------------------|---------------------|--4-------------------|
----------------------|---------------------|----------------------|
-----------------0----|--L------------------|----------------------|


  Q    H        Q       Q    Q    Q    Q       W                 
---------------------|----------------------|-------------------|
--7------------------|------------0---------|-------------------|
-------6-------------|-------2--------------|-------------------|
----------------2----|--2-------------------|-------------------|
---------------------|----------------------|-------------------|
---------------------|-----------------0----|--L----------------|


  w/ Distortion                                               
  PM            PM   PM PM   PM PM       PM PM   PM PM PM PM  
  E             Q    E  Q    E  E     E  E  Q    E  E  E  E   
-----------------------------------|-------------------------|
-----------------------------------|-------------------------|
-----------------------------------|-------------1--3--------|
-----------------------------------|-------------------2--3--|
-----------------------------------|-------------------------|
--0-------------0----0--1----0--0--|--L--0--1----------------|


  PM PM   PM PM   PM PM       PM PM                PM PM   PM PM   PM PM  
  E  Q    E  Q    E  E     E  E  E  E  H           E  Q    E  Q    E  E   
------------------------|-----------------------|------------------------|
------------------------|-----------------------|------------------------|
------------------------|-----------------------|------------------------|
------------------------|-----------------------|------------------------|
------------------------|-----------------------|------------------------|
--0--0----0--1----0--0--|--L--0--1--------------|--0--0----0--1----0--0--|


     PM PM   PM PM PM PM    PM PM   PM PM   PM PM       PM PM              
  E  E  Q    E  E  E  E     E  Q    E  Q    E  E     E  E  E  E  H         
-------------------------|------------------------|-----------------------|
-------------------------|------------------------|-----------------------|
-------------1--3--------|------------------------|-----------------------|
-------------------2--3--|------------------------|-----------------------|
-------------------------|------------------------|-----------------------|
--L--0--1----------------|--0--0----0--1----0--0--|--L--0--1--------------|


        PM        PM          PM        PM                
  E  E  E  E   E  E  E  E     E  E   E  E  E   E  E   E   
---------------------------|-----------------------------|
---------------------------|---------------9--10---------|
--7--9-----9--10-----7--9--|-----9--10------------9--10--|
---------------------------|-----------------------------|
--------7---------7--------|--7---------7----------------|
---------------------------|-----------------------------|


        PM        PM          PM        PM tr            
  E  E  E  E   E  E  E  E     E  E   E  E  H             
---------------------------|----------------------------|
---------------------------|---------------9(10)--------|
--7--9-----9--10-----7--9--|-----9--10------------------|
---------------------------|----------------------------|
--------7---------7--------|--7---------7---------------|
---------------------------|----------------------------|


        PM        PM          PM        PM                
  E  E  E  E   E  E  E  E     E  E   E  E  E   E  E   E   
---------------------------|-----------------------------|
---------------------------|---------------9--10---------|
--7--9-----9--10-----7--9--|-----9--10------------9--10--|
---------------------------|-----------------------------|
--------7---------7--------|--7---------7----------------|
---------------------------|-----------------------------|


        PM        PM          PM        PM tr            
  E  E  E  E   E  E  E  E     E  E   E  E  H             
---------------------------|----------------------------|
---------------------------|---------------9(10)--------|
--7--9-----9--10-----7--9--|-----9--10------------------|
---------------------------|----------------------------|
--------7---------7--------|--7---------7---------------|
---------------------------|----------------------------|


        PM        PM          PM        PM                
  E  E  E  E   E  E  E  E     E  E   E  E  E   E  E   E   
---------------------------|-----------------------------|
---------------------------|---------------9--10---------|
--7--9-----9--10-----7--9--|-----9--10------------9--10--|
---------------------------|-----------------------------|
--------7---------7--------|--7---------7----------------|
---------------------------|-----------------------------|


        PM        PM          PM        PM tr            
  E  E  E  E   E  E  E  E     E  E   E  E  H             
---------------------------|----------------------------|
---------------------------|---------------9(10)--------|
--7--9-----9--10-----7--9--|-----9--10------------------|
---------------------------|----------------------------|
--------7---------7--------|--7---------7---------------|
---------------------------|----------------------------|


        PM        PM          PM        PM                
  E  E  E  E   E  E  E  E     E  E   E  E  E   E  E   E   
---------------------------|-----------------------------|
---------------------------|---------------9--10---------|
--7--9-----9--10-----7--9--|-----9--10------------9--10--|
---------------------------|-----------------------------|
--------7---------7--------|--7---------7----------------|
---------------------------|-----------------------------|


        PM        PM          PM        PM tr            
  E  E  E  E   E  E  E  E     E  E   E  E  H             
---------------------------|----------------------------|
---------------------------|---------------9(10)--------|
--7--9-----9--10-----7--9--|-----9--10------------------|
---------------------------|----------------------------|
--------7---------7--------|--7---------7---------------|
---------------------------|----------------------------|


     PM PM PM    PM PM PM    PM PM    PM    PM PM PM PM              
  E  S  S  E  E  S  S  E  E  S  S     E  E  S  S  S  S  E  E  E  E   
-----------------------------------|--------------------------------|
-----------------------------------|--------------------------------|
-----------------------------------|--------------------------------|
-----------------------------------|--------------------------------|
--4-----------4-----------4--------|-----4--------------5--4--2--0--|
--2--2--2--2--2--2--2--2--2--2--2--|--2--2--2--2--2--2--------------|


     PM PM PM    PM PM PM    PM PM    PM PM PM PM PM PM PM PM PM PM PM PM  
  E  S  S  E  E  S  S  E  E  S  S     E  E  S  S  S  S  E  E  S  S  S  S   
-----------------------------------|--------------------------------------|
-----------------------------------|--------------------------------------|
-----------------------------------|--------------------------------------|
--2-----------2-----------2--------|--------------------------------------|
--0--0--0--0--0--0--0--0--0--0--0--|--0--2--2--2--2--2--2--2--2--2--2--2--|
-----------------------------------|--------------------------------------|


     PM PM PM    PM PM PM    PM PM    PM    PM PM PM PM              
  E  S  S  E  E  S  S  E  E  S  S     E  E  S  S  S  S  E  E  E  E   
-----------------------------------|--------------------------------|
-----------------------------------|--------------------------------|
-----------------------------------|--------------------------------|
-----------------------------------|--------------------------------|
--4-----------4-----------4--------|-----4--------------5--4--2--0--|
--2--2--2--2--2--2--2--2--2--2--2--|--2--2--2--2--2--2--------------|


     PM PM PM    PM PM PM    PM PM    PM PM PM PM PM PM PM PM PM PM PM PM  
  E  S  S  E  E  S  S  E  E  S  S     E  E  S  S  S  S  E  E  S  S  S  S   
-----------------------------------|--------------------------------------|
-----------------------------------|--------------------------------------|
-----------------------------------|--------------------------------------|
--2-----------2-----------2--------|--------------------------------------|
--0--0--0--0--0--0--0--0--0--0--0--|--0--2--2--2--2--2--2--2--2--2--2--2--|
-----------------------------------|--------------------------------------|


     PM PM PM    PM PM PM    PM PM    PM    PM PM PM PM              
  E  S  S  E  E  S  S  E  E  S  S     E  E  S  S  S  S  E  E  E  E   
-----------------------------------|--------------------------------|
-----------------------------------|--------------------------------|
-----------------------------------|--------------------------------|
-----------------------------------|--------------------------------|
--4-----------4-----------4--------|-----4--------------5--4--2--0--|
--2--2--2--2--2--2--2--2--2--2--2--|--2--2--2--2--2--2--------------|


     PM PM PM    PM PM PM    PM PM    PM PM PM PM PM PM PM PM PM PM PM PM  
  E  S  S  E  E  S  S  E  E  S  S     E  E  S  S  S  S  E  E  S  S  S  S   
-----------------------------------|--------------------------------------|
-----------------------------------|--------------------------------------|
-----------------------------------|--------------------------------------|
--2-----------2-----------2--------|--------------------------------------|
--0--0--0--0--0--0--0--0--0--0--0--|--0--2--2--2--2--2--2--2--2--2--2--2--|
-----------------------------------|--------------------------------------|


     PM PM PM    PM PM PM    PM PM    PM    PM PM PM PM              
  E  S  S  E  E  S  S  E  E  S  S     E  E  S  S  S  S  E  E  E  E   
-----------------------------------|--------------------------------|
-----------------------------------|--------------------------------|
-----------------------------------|--------------------------------|
-----------------------------------|--------------------------------|
--4-----------4-----------4--------|-----4--------------5--4--2--0--|
--2--2--2--2--2--2--2--2--2--2--2--|--2--2--2--2--2--2--------------|


     PM PM PM    PM PM PM    PM PM    PM PM PM PM PM PM PM PM PM PM PM PM  
  E  S  S  E  E  S  S  E  E  S  S     E  E  S  S  S  S  E  E  S  S  S  S   
-----------------------------------|--------------------------------------|
-----------------------------------|--------------------------------------|
-----------------------------------|--------------------------------------|
--2-----------2-----------2--------|--------------------------------------|
--0--0--0--0--0--0--0--0--0--0--0--|--0--2--2--2--2--2--2--2--2--2--2--2--|
-----------------------------------|--------------------------------------|


  w/ Clean tone                                                              
  Q             Q    Q    Q       Q    H        Q       Q    Q    Q    Q     
--------------------------4----|---------------------|----------------------|
---------------------7---------|--7------------------|------------0---------|
----------------6--------------|-------6-------------|-------2--------------|
--4----------------------------|----------------2----|--2-------------------|
-------------------------------|---------------------|----------------------|
-------------------------------|---------------------|-----------------0----|


  Q    H        Q       Q    Q    Q    Q       Q    H        Q     
---------------------|-----------------4----|---------------------|
----------------0----|------------7---------|--7------------------|
-------2-------------|-------6--------------|-------6-------------|
---------------------|--4-------------------|----------------2----|
---------------------|----------------------|---------------------|
--L------------------|----------------------|---------------------|


  Q    Q    Q    Q       W                   Q    Q    Q    Q     
----------------------|-------------------|-----------------4----|
------------0---------|-------------------|------------7---------|
-------2--------------|-------------------|-------6--------------|
--2-------------------|-------------------|--4-------------------|
----------------------|-------------------|----------------------|
-----------------0----|--L----------------|----------------------|


  Q    H        Q       Q    Q    Q    Q       Q    H        Q     
---------------------|----------------------|---------------------|
--7------------------|------------0---------|----------------0----|
-------6-------------|-------2--------------|-------2-------------|
----------------2----|--2-------------------|---------------------|
---------------------|----------------------|---------------------|
---------------------|-----------------0----|--L------------------|


  Q    Q    Q    Q       Q    H        Q       Q    Q    Q    Q     
-----------------4----|---------------------|----------------------|
------------7---------|--7------------------|------------0---------|
-------6--------------|-------6-------------|-------2--------------|
--4-------------------|----------------2----|--2-------------------|
----------------------|---------------------|----------------------|
----------------------|---------------------|-----------------0----|


  W                   Q    Q    Q    Q       Q    H        Q     
-------------------|-----------------4----|---------------------|
-------------------|------------7---------|--7------------------|
-------------------|-------6--------------|-------6-------------|
-------------------|--4-------------------|----------------2----|
-------------------|----------------------|---------------------|
--L----------------|----------------------|---------------------|


  Q    Q    Q    Q       Q    H        Q       Q    Q    Q    Q     
----------------------|---------------------|-----------------4----|
------------0---------|----------------0----|------------7---------|
-------2--------------|-------2-------------|-------6--------------|
--2-------------------|---------------------|--4-------------------|
----------------------|---------------------|----------------------|
-----------------0----|--L------------------|----------------------|


  Q    H        Q       Q    Q    Q    Q       W                 
---------------------|----------------------|-------------------|
--7------------------|------------0---------|-------------------|
-------6-------------|-------2--------------|-------------------|
----------------2----|--2-------------------|-------------------|
---------------------|----------------------|-------------------|
---------------------|-----------------0----|--L----------------|


  Q    Q    Q    Q       Q    H        Q       Q    Q    Q    Q     
-----------------4----|---------------------|----------------------|
------------7---------|--7------------------|------------0---------|
-------6--------------|-------6-------------|-------2--------------|
--4-------------------|----------------2----|--2-------------------|
----------------------|---------------------|----------------------|
----------------------|---------------------|-----------------0----|


  Q    H        Q       Q    Q    Q    Q       Q    H        Q     
---------------------|-----------------4----|---------------------|
----------------0----|------------7---------|--7------------------|
-------2-------------|-------6--------------|-------6-------------|
---------------------|--4-------------------|----------------2----|
---------------------|----------------------|---------------------|
--L------------------|----------------------|---------------------|


  Q    Q    Q    Q       W                  
----------------------|-------------------||
------------0---------|-------------------||
-------2--------------|-------------------||
--2-------------------|-------------------||
----------------------|-------------------||
-----------------0----|--L----------------||

Guitar 3 (Solos)

  W                    S  S  S  S  S  S  S  S S  S  S  S  S S  S S  
--10-12-13-13-12-10----------------------------|
--------------------13-10-9-10-12-10-10-9------|
------------------------------------------10-7-|
-----------------------------------------------|
-----------------------------------------------|
-----------------------------------------------|


  S S  S  S S S S S S   S  S  S Q        S  S  S  S E  E  E  E  E  E   
--------------------------------------|-------------------------------|
--------------------------------------|-------------------------------|
--7-9-10-10-9-7-----------------------|-------------------------------|
----------------9-7-7h-10p-9p-6-7~----|--6h-7h-9p-7-6-----6-----------|
--------------------------------------|----------------8-----7--8--5--|
--------------------------------------|-------------------------------|


  E  E  Q     E  E  Q        E    E  E  E  E   E  E   E   
--------------------------|------------------------------|
--------------------------|----------------8p--7---------|
--------------------------|-------------9---------9p--8--|
--------------------------|----------9-------------------|
--8--7--5~----------------|--7h--10----------------------|
--------------8--4--5~----|------------------------------|


  E  E  E   E   E   E  E  E      E    S   S  S   S   S   S   E    E   E   E   
-----------------------------|--------------10h-12h-13p-12p-10h--------------|
--------7h--8--10p--8--7-----|--10h--12h-13----------------------13--12--10--|
--9-----------------------9--|-----------------------------------------------|
-----9-----------------------|-----------------------------------------------|
-----------------------------|-----------------------------------------------|
-----------------------------|-----------------------------------------------|


  E    E  E   E  H            W                   W                 
---------------------------|-------------------|-------------------|
--9h--10--9----------------|-------------------|-------------------|
-------------10--9~--------|-------------------|-------------------|
---------------------------|-------------------|-------------------|
---------------------------|-------------------|-------------------|
---------------------------|-------------------|-------------------|


  W                   W                   W                   W                 
-------------------|-------------------|-------------------|-------------------|
-------------------|-------------------|-------------------|-------------------|
-------------------|-------------------|-------------------|-------------------|
-------------------|-------------------|-------------------|-------------------|
-------------------|-------------------|-------------------|-------------------|
-------------------|-------------------|-------------------|-------------------|


  W                   W                   W                   W                 
-------------------|-------------------|-------------------|-------------------|
-------------------|-------------------|-------------------|-------------------|
-------------------|-------------------|-------------------|-------------------|
-------------------|-------------------|-------------------|-------------------|
-------------------|-------------------|-------------------|-------------------|
-------------------|-------------------|-------------------|-------------------|


  W                   W                   W                   W                 
-------------------|-------------------|-------------------|-------------------|
-------------------|-------------------|-------------------|-------------------|
-------------------|-------------------|-------------------|-------------------|
-------------------|-------------------|-------------------|-------------------|
-------------------|-------------------|-------------------|-------------------|
-------------------|-------------------|-------------------|-------------------|


  W                   W                   W                   W                 
-------------------|-------------------|-------------------|-------------------|
-------------------|-------------------|-------------------|-------------------|
-------------------|-------------------|-------------------|-------------------|
-------------------|-------------------|-------------------|-------------------|
-------------------|-------------------|-------------------|-------------------|
-------------------|-------------------|-------------------|-------------------|


  W                   W                   W                   W                 
-------------------|-------------------|-------------------|-------------------|
-------------------|-------------------|-------------------|-------------------|
-------------------|-------------------|-------------------|-------------------|
-------------------|-------------------|-------------------|-------------------|
-------------------|-------------------|-------------------|-------------------|
-------------------|-------------------|-------------------|-------------------|


  W                   W                   W                   W                 
-------------------|-------------------|-------------------|-------------------|
-------------------|-------------------|-------------------|-------------------|
-------------------|-------------------|-------------------|-------------------|
-------------------|-------------------|-------------------|-------------------|
-------------------|-------------------|-------------------|-------------------|
-------------------|-------------------|-------------------|-------------------|


  W                   W                   W                   W                 
-------------------|-------------------|-------------------|-------------------|
-------------------|-------------------|-------------------|-------------------|
-------------------|-------------------|-------------------|-------------------|
-------------------|-------------------|-------------------|-------------------|
-------------------|-------------------|-------------------|-------------------|
-------------------|-------------------|-------------------|-------------------|


  W                   W                   W                   W                 
-------------------|-------------------|-------------------|-------------------|
-------------------|-------------------|-------------------|-------------------|
-------------------|-------------------|-------------------|-------------------|
-------------------|-------------------|-------------------|-------------------|
-------------------|-------------------|-------------------|-------------------|
-------------------|-------------------|-------------------|-------------------|


  W                   W                   W                   W                 
-------------------|-------------------|-------------------|-------------------|
-------------------|-------------------|-------------------|-------------------|
-------------------|-------------------|-------------------|-------------------|
-------------------|-------------------|-------------------|-------------------|
-------------------|-------------------|-------------------|-------------------|
-------------------|-------------------|-------------------|-------------------|


  W                   W                   W                   W                 
-------------------|-------------------|-------------------|-------------------|
-------------------|-------------------|-------------------|-------------------|
-------------------|-------------------|-------------------|-------------------|
-------------------|-------------------|-------------------|-------------------|
-------------------|-------------------|-------------------|-------------------|
-------------------|-------------------|-------------------|-------------------|


  W                   W                   W                   W                 
-------------------|-------------------|-------------------|-------------------|
-------------------|-------------------|-------------------|-------------------|
-------------------|-------------------|-------------------|-------------------|
-------------------|-------------------|-------------------|-------------------|
-------------------|-------------------|-------------------|-------------------|
-------------------|-------------------|-------------------|-------------------|


  W                   W                   W                   W                 
-------------------|-------------------|-------------------|-------------------|
-------------------|-------------------|-------------------|-------------------|
-------------------|-------------------|-------------------|-------------------|
-------------------|-------------------|-------------------|-------------------|
-------------------|-------------------|-------------------|-------------------|
-------------------|-------------------|-------------------|-------------------|


  W                   W                   W                   W                 
-------------------|-------------------|-------------------|-------------------|
-------------------|-------------------|-------------------|-------------------|
-------------------|-------------------|-------------------|-------------------|
-------------------|-------------------|-------------------|-------------------|
-------------------|-------------------|-------------------|-------------------|
-------------------|-------------------|-------------------|-------------------|


  W                   W                   W                   W                 
-------------------|-------------------|-------------------|-------------------|
-------------------|-------------------|-------------------|-------------------|
-------------------|-------------------|-------------------|-------------------|
-------------------|-------------------|-------------------|-------------------|
-------------------|-------------------|-------------------|-------------------|
-------------------|-------------------|-------------------|-------------------|


  W                   W                   W                   W                 
-------------------|-------------------|-------------------|-------------------|
-------------------|-------------------|-------------------|-------------------|
-------------------|-------------------|-------------------|-------------------|
-------------------|-------------------|-------------------|-------------------|
-------------------|-------------------|-------------------|-------------------|
-------------------|-------------------|-------------------|-------------------|


  W                   W                   W                   W                 
-------------------|-------------------|-------------------|-------------------|
-------------------|-------------------|-------------------|-------------------|
-------------------|-------------------|-------------------|-------------------|
-------------------|-------------------|-------------------|-------------------|
-------------------|-------------------|-------------------|-------------------|
-------------------|-------------------|-------------------|-------------------|


  W                   W                   W                   W                 
-------------------|-------------------|-------------------|-------------------|
-------------------|-------------------|-------------------|-------------------|
-------------------|-------------------|-------------------|-------------------|
-------------------|-------------------|-------------------|-------------------|
-------------------|-------------------|-------------------|-------------------|
-------------------|-------------------|-------------------|-------------------|


  W                   W                   W                   W                 
-------------------|-------------------|-------------------|-------------------|
-------------------|-------------------|-------------------|-------------------|
-------------------|-------------------|-------------------|-------------------|
-------------------|-------------------|-------------------|-------------------|
-------------------|-------------------|-------------------|-------------------|
-------------------|-------------------|-------------------|-------------------|


  W                   W                   W                   W                 
-------------------|-------------------|-------------------|-------------------|
-------------------|-------------------|-------------------|-------------------|
-------------------|-------------------|-------------------|-------------------|
-------------------|-------------------|-------------------|-------------------|
-------------------|-------------------|-------------------|-------------------|
-------------------|-------------------|-------------------|-------------------|


  W                   W                     W                  
-------------------|-------------------|----------------------|
-------------------|-------------------|----------------------|
-------------------|-------------------|--/11~----------------|
-------------------|-------------------|----------------------|
-------------------|-------------------|----------------------|
-------------------|-------------------|----------------------|


  H.             Q        Q    Q    Q       Q        Q    Q    E    Q.      
----------------------|---------------------------|------------------------|
---------------/10----|--10----9----9br-----------|------------------------|
--L-------------------|--------------------11~----|--L----9----9h--11------|
----------------------|---------------------------|------------------------|
----------------------|---------------------------|------------------------|
----------------------|---------------------------|------------------------|


    H          S   S   S  S   Q        E    E    E   E    Q       Q     
-------------------------12h-14----|---Ls--16p--14---------------------|
--------------10h-12h-14-----------|----------------14--(14)\----------|
--/11~-----------------------------|-----------------------------11----|
-----------------------------------|-----------------------------------|
-----------------------------------|-----------------------------------|
-----------------------------------|-----------------------------------|


   Q    Q     Q     Q         W                     W                  
---------------------------|-------------------|----------------------|
--10----9----12----12br----|--L----------------|----------------------|
---------------------------|-------------------|--/11~----------------|
---------------------------|-------------------|----------------------|
---------------------------|-------------------|----------------------|
---------------------------|-------------------|----------------------|


  H.             Q        Q    Q    Q       Q        Q    Q    E    E   E   E   
----------------------|---------------------------|----------------------------|
---------------/10----|--10----9----9br-----------|----------------------------|
--L-------------------|--------------------11~----|--L----9----9h--11--11p--9--|
----------------------|---------------------------|----------------------------|
----------------------|---------------------------|----------------------------|
----------------------|---------------------------|----------------------------|


    H          S   S   S  S   Q        E    E    E   E    Q       Q     
-------------------------12h-14----|---Ls--16p--14---------------------|
--------------10h-12h-14-----------|----------------14--(14)\----------|
--/11~-----------------------------|-----------------------------11----|
-----------------------------------|-----------------------------------|
-----------------------------------|-----------------------------------|
-----------------------------------|-----------------------------------|


   Q    Q     Q     Q         W                    W                  
---------------------------|-------------------|---------------------|
--10----9----12----12br----|--L----------------|---L~----------------|
---------------------------|-------------------|---------------------|
---------------------------|-------------------|---------------------|
---------------------------|-------------------|---------------------|
---------------------------|-------------------|---------------------|


  H        H           W                   W                 
--------------------|-------------------|-------------------|
--L-----------------|-------------------|-------------------|
--------------------|-------------------|-------------------|
--------------------|-------------------|-------------------|
--------------------|-------------------|-------------------|
--------------------|-------------------|-------------------|


  W                   W                   W                   W                 
-------------------|-------------------|-------------------|-------------------|
-------------------|-------------------|-------------------|-------------------|
-------------------|-------------------|-------------------|-------------------|
-------------------|-------------------|-------------------|-------------------|
-------------------|-------------------|-------------------|-------------------|
-------------------|-------------------|-------------------|-------------------|


  W                   W                   W                   W                 
-------------------|-------------------|-------------------|-------------------|
-------------------|-------------------|-------------------|-------------------|
-------------------|-------------------|-------------------|-------------------|
-------------------|-------------------|-------------------|-------------------|
-------------------|-------------------|-------------------|-------------------|
-------------------|-------------------|-------------------|-------------------|


  W                   W                   W                   W                 
-------------------|-------------------|-------------------|-------------------|
-------------------|-------------------|-------------------|-------------------|
-------------------|-------------------|-------------------|-------------------|
-------------------|-------------------|-------------------|-------------------|
-------------------|-------------------|-------------------|-------------------|
-------------------|-------------------|-------------------|-------------------|


  W                   W                   W                   W                 
-------------------|-------------------|-------------------|-------------------|
-------------------|-------------------|-------------------|-------------------|
-------------------|-------------------|-------------------|-------------------|
-------------------|-------------------|-------------------|-------------------|
-------------------|-------------------|-------------------|-------------------|
-------------------|-------------------|-------------------|-------------------|


  W                   W                   W                   W                 
-------------------|-------------------|-------------------|-------------------|
-------------------|-------------------|-------------------|-------------------|
-------------------|-------------------|-------------------|-------------------|
-------------------|-------------------|-------------------|-------------------|
-------------------|-------------------|-------------------|-------------------|
-------------------|-------------------|-------------------|-------------------|


  W                   W                   W                   W                 
-------------------|-------------------|-------------------|-------------------|
-------------------|-------------------|-------------------|-------------------|
-------------------|-------------------|-------------------|-------------------|
-------------------|-------------------|-------------------|-------------------|
-------------------|-------------------|-------------------|-------------------|
-------------------|-------------------|-------------------|-------------------|


  W                   W                   W                   W                 
-------------------|-------------------|-------------------|-------------------|
-------------------|-------------------|-------------------|-------------------|
-------------------|-------------------|-------------------|-------------------|
-------------------|-------------------|-------------------|-------------------|
-------------------|-------------------|-------------------|-------------------|
-------------------|-------------------|-------------------|-------------------|


  W                   W                   W                   W                 
-------------------|-------------------|-------------------|-------------------|
-------------------|-------------------|-------------------|-------------------|
-------------------|-------------------|-------------------|-------------------|
-------------------|-------------------|-------------------|-------------------|
-------------------|-------------------|-------------------|-------------------|
-------------------|-------------------|-------------------|-------------------|


  W                   W                   W                   W                 
-------------------|-------------------|-------------------|-------------------|
-------------------|-------------------|-------------------|-------------------|
-------------------|-------------------|-------------------|-------------------|
-------------------|-------------------|-------------------|-------------------|
-------------------|-------------------|-------------------|-------------------|
-------------------|-------------------|-------------------|-------------------|


    W                    H.             Q        Q    Q    Q       Q      
----------------------|----------------------|---------------------------|
----------------------|---------------/10----|--10----9----9br-----------|
--/11~----------------|--L-------------------|--------------------11~----|
----------------------|----------------------|---------------------------|
----------------------|----------------------|---------------------------|
----------------------|----------------------|---------------------------|


  Q    Q    E    Q.          H          S   S   S  S   Q     
------------------------|-------------------------12h-14----|
------------------------|--------------10h-12h-14-----------|
--L----9----9h--11------|--/11~-----------------------------|
------------------------|-----------------------------------|
------------------------|-----------------------------------|
------------------------|-----------------------------------|


   E    E    E   E    Q       Q        Q    Q     Q     Q       
---Ls--16p--14---------------------|---------------------------|
----------------14--(14)\----------|--10----9----12----12br----|
-----------------------------11----|---------------------------|
-----------------------------------|---------------------------|
-----------------------------------|---------------------------|
-----------------------------------|---------------------------|


  W                     W                    H.             Q     
-------------------|----------------------|----------------------|
--L----------------|----------------------|---------------/10----|
-------------------|--/11~----------------|--L-------------------|
-------------------|----------------------|----------------------|
-------------------|----------------------|----------------------|
-------------------|----------------------|----------------------|


   Q    Q    Q       Q        Q    Q    E    E   E   E   
---------------------------|----------------------------|
--10----9----9br-----------|----------------------------|
--------------------11~----|--L----9----9h--11--11p--9--|
---------------------------|----------------------------|
---------------------------|----------------------------|
---------------------------|----------------------------|


    H          S   S   S  S   Q        E    E    E   E    Q       Q     
-------------------------12h-14----|---Ls--16p--14---------------------|
--------------10h-12h-14-----------|----------------14--(14)\----------|
--/11~-----------------------------|-----------------------------11----|
-----------------------------------|-----------------------------------|
-----------------------------------|-----------------------------------|
-----------------------------------|-----------------------------------|


   Q    Q     Q     Q         W                   H.           Q     
---------------------------|-------------------|--------------------|
--10----9----12----12br----|--L----------------|--L------------9----|
---------------------------|-------------------|--------------------|
---------------------------|-------------------|--------------------|
---------------------------|-------------------|--------------------|
---------------------------|-------------------|--------------------|


  Q     Q     H           Q     H         Q       Q     Q     H          
-----------------------|-----------------------|------------------------|
--L----10--------------|-----------------------|------------------------|
-------------11--------|--9---------------9----|--L----11----11~--------|
-----------------------|-------11~-------------|------------------------|
-----------------------|-----------------------|------------------------|
-----------------------|-----------------------|------------------------|


   S   S   S  S   H.              Q     E   E   Q     E   E   
-------------12h-14------------|--L--------12--16--------12--|
--10h-12h-14-------------------|-------14------------14------|
-------------------------------|-----------------------------|
-------------------------------|-----------------------------|
-------------------------------|-----------------------------|
-------------------------------|-----------------------------|


   H         Q     Q       H         H            H        H         
--17--------16----------|---------------------|--12-----------------|
------------------17----|--L--------14--------|---------------------|
------------------------|---------------------|---------------------|
------------------------|---------------------|---------------------|
------------------------|---------------------|---------------------|
------------------------|---------------------|---------------------|


  W                   W                   W                   W                 
-------------------|-------------------|-------------------|-------------------|
-------------------|-------------------|-------------------|-------------------|
-------------------|-------------------|-------------------|-------------------|
-------------------|-------------------|-------------------|-------------------|
-------------------|-------------------|-------------------|-------------------|
-------------------|-------------------|-------------------|-------------------|


  W                   W                   W                  
-------------------|-------------------|-------------------||
-------------------|-------------------|-------------------||
-------------------|-------------------|-------------------||
-------------------|-------------------|-------------------||
-------------------|-------------------|-------------------||
-------------------|-------------------|-------------------||




Duration Legend
---------------
W - whole
H - half
Q - quarter
E - 8th
S - 16th
T - 32nd
X - 64th
. - note dotted
|-n-|  - n-tuplets


Tablature Legend
----------------
L - tied note
x - dead note
g - grace note
(n) - ghost note
> - accentuded note
NH - natural harmonic
AH - artificial harmonic
TH - tapped harmonic
SH - semi harmonic
PH - pitch harmonic
h - hammer on
p - pull off
b - bend
br - bendRelease
pb - preBend
pbr - preBendRelease
brb - bendReleaseBend
\n/ - tremolo bar dip
\n - tremolo bar dive
-/n - tremolo bar Release up
/n\ - tremolo bar inverted dip
/n - tremolo bar return
-\n - tremolo bar Release down
S - shift slide
s - legato slide
/ -  slide into from below or out of upwards
\ -  slide into from above or out of downwards
~ - vibrato
W - wide vibrato
tr - trill
TP - tremolo picking
T - tapping
S - slap
P - pop
< - fade in
^ - brush up
v - brush down

==========Salvation==========

Lead Guitar

      PM PM       PM PM PM PM    PM PM     
      S  S  E  E  S  S  S  S  E  S  S  E   
B ||--------------------------------------|
F#||--------------------------------------|
D ||--------------------------------------|
A ||--------2-----------------2--------5--|
E ||--2--2--2-----2--2--2--2--2--2--2--5--|
B ||--0--0--0-----0--0--0--0--0--0--0--3--|


  PM PM    PM   PM PM PM PM PM PM PM PM PM PM  
  S  S  E  S  S S  S  S  S  S  S  S  S  S  S   
----------------------------------------------|
----------------------------------------------|
----------------------------------------------|
--------2-------------------------------------|
--2--2--2--2----2--2--------------------------|
--0--0--0--0----0--0--7--6--5--4--6--5--4--3--|


  PM PM       PM PM PM PM    PM PM     
  S  S  E  E  S  S  S  S  E  S  S  E   
--------------------------------------|
--------------------------------------|
--------------------------------------|
--------2-----------------2--------5--|
--2--2--2-----2--2--2--2--2--2--2--5--|
--0--0--0-----0--0--0--0--0--0--0--3--|


  PM PM    PM   PM PM PM PM PM PM PM PM PM PM  
  S  S  E  S  S S  S  S  S  S  S  S  S  S  S   
----------------------------------------------|
----------------------------------------------|
----------------------------------------------|
--------2-------------------------------------|
--2--2--2--2----2--2--------------------------|
--0--0--0--0----0--0--7--6--5--4--6--5--4--3--|


  PM PM       PM PM PM PM    PM PM     
  S  S  E  E  S  S  S  S  E  S  S  E   
--------------------------------------|
--------------------------------------|
--------------------------------------|
--------2-----------------2--------5--|
--2--2--2-----2--2--2--2--2--2--2--5--|
--0--0--0-----0--0--0--0--0--0--0--3--|


  PM PM    PM   PM PM PM PM PM PM PM PM PM PM  
  S  S  E  S  S S  S  S  S  S  S  S  S  S  S   
----------------------------------------------|
----------------------------------------------|
----------------------------------------------|
--------2-------------------------------------|
--2--2--2--2----2--2--------------------------|
--0--0--0--0----0--0--7--6--5--4--6--5--4--3--|


  PM PM       PM PM PM PM    PM PM     
  S  S  E  E  S  S  S  S  E  S  S  E   
--------------------------------------|
--------------------------------------|
--------------------------------------|
--------2-----------------2--------5--|
--2--2--2-----2--2--2--2--2--2--2--5--|
--0--0--0-----0--0--0--0--0--0--0--3--|


  PM PM    PM   PM PM PM PM PM PM PM PM PM PM  
  S  S  E  S  S S  S  S  S  S  S  S  S  S  S   
----------------------------------------------|
----------------------------------------------|
----------------------------------------------|
--------2-------------------------------------|
--2--2--2--2----2--2--------------------------|
--0--0--0--0----0--0--7--6--5--4--6--5--4--3--|


  PM PM       PM PM PM PM    PM PM     
  S  S  E  E  S  S  S  S  E  S  S  E   
--------------------------------------|
--------------------------------------|
--------------------------------------|
--------2-----------------2--------5--|
--2--2--2-----2--2--2--2--2--2--2--5--|
--0--0--0-----0--0--0--0--0--0--0--3--|


  PM PM    PM   PM PM PM PM PM PM PM PM PM PM  
  S  S  E  S  S S  S  S  S  S  S  S  S  S  S   
----------------------------------------------|
----------------------------------------------|
----------------------------------------------|
--------2-------------------------------------|
--2--2--2--2----2--2--------------------------|
--0--0--0--0----0--0--7--6--5--4--6--5--4--3--|


  PM PM       PM PM PM PM    PM PM     
  S  S  E  E  S  S  S  S  E  S  S  E   
--------------------------------------|
--------------------------------------|
--------------------------------------|
--------2-----------------2--------5--|
--2--2--2-----2--2--2--2--2--2--2--5--|
--0--0--0-----0--0--0--0--0--0--0--3--|


  PM PM    PM   PM PM PM PM PM PM PM PM PM PM                              
  S  S  E  S  S S  S  S  S  S  S  S  S  S  S     Q    E    Q    Q      E   
----------------------------------------------|---------------------------|
----------------------------------------------|---------------------------|
----------------------------------------------|---------------------------|
--------2-------------------------------------|--2----2--2g3----2----2g3--|
--2--2--2--2----2--2--------------------------|--2----2--2g3----2----2g3--|
--0--0--0--0----0--0--7--6--5--4--6--5--4--3--|--0----0--0g1----0----0g1--|


          PM PM PM PM PM PM PM PM PM PM                              
  E  Q    S  S  S  S  S  S  S  S  S  S     Q    E    Q    Q      E   
----------------------------------------|---------------------------|
----------------------------------------|---------------------------|
----------------------------------------|---------------------------|
--L--2----------------------------------|--2----2--2g3----2----2g3--|
--L--2----2--2--------------------------|--2----2--2g3----2----2g3--|
--L--0----0--0--7--6--5--4--6--5--4--3--|--0----0--0g1----0----0g1--|


          PM PM               PM PM       PM PM PM PM    PM PM     
  E  Q    S  S  E.  E.  E     S  S  E  E  S  S  S  S  E  S  S  E   
---------------------------|--------------------------------------|
---------------------------|--------------------------------------|
---------------------------|--------------------------------------|
--L--2----------5---4---3--|--------2-----------------2--------5--|
--L--2----2--2--5---4---3--|--2--2--2-----2--2--2--2--2--2--2--5--|
--L--0----0--0--3---2---1--|--0--0--0-----0--0--0--0--0--0--0--3--|


  PM PM    PM   PM PM PM PM PM PM PM PM PM PM  
  S  S  E  S  S S  S  S  S  S  S  S  S  S  S   
----------------------------------------------|
----------------------------------------------|
----------------------------------------------|
--------2-------------------------------------|
--2--2--2--2----2--2--------------------------|
--0--0--0--0----0--0--7--6--5--4--6--5--4--3--|


  PM PM       PM PM PM PM    PM PM     
  S  S  E  E  S  S  S  S  E  S  S  E   
--------------------------------------|
--------------------------------------|
--------------------------------------|
--------2-----------------2--------5--|
--2--2--2-----2--2--2--2--2--2--2--5--|
--0--0--0-----0--0--0--0--0--0--0--3--|


  PM PM    PM   PM PM PM PM PM PM PM PM PM PM  
  S  S  E  S  S S  S  S  S  S  S  S  S  S  S   
----------------------------------------------|
----------------------------------------------|
----------------------------------------------|
--------2-------------------------------------|
--2--2--2--2----2--2--------------------------|
--0--0--0--0----0--0--7--6--5--4--6--5--4--3--|


  PM PM       PM PM PM PM    PM PM     
  S  S  E  E  S  S  S  S  E  S  S  E   
--------------------------------------|
--------------------------------------|
--------------------------------------|
--------2-----------------2--------5--|
--2--2--2-----2--2--2--2--2--2--2--5--|
--0--0--0-----0--0--0--0--0--0--0--3--|


  PM PM    PM   PM PM PM PM PM PM PM PM PM PM  
  S  S  E  S  S S  S  S  S  S  S  S  S  S  S   
----------------------------------------------|
----------------------------------------------|
----------------------------------------------|
--------2-------------------------------------|
--2--2--2--2----2--2--------------------------|
--0--0--0--0----0--0--7--6--5--4--6--5--4--3--|


  PM PM       PM PM PM PM    PM PM     
  S  S  E  E  S  S  S  S  E  S  S  E   
--------------------------------------|
--------------------------------------|
--------------------------------------|
--------2-----------------2--------5--|
--2--2--2-----2--2--2--2--2--2--2--5--|
--0--0--0-----0--0--0--0--0--0--0--3--|


  PM PM    PM   PM PM PM PM PM PM PM PM PM PM                              
  S  S  E  S  S S  S  S  S  S  S  S  S  S  S     Q    E    Q    Q      E   
----------------------------------------------|---------------------------|
----------------------------------------------|---------------------------|
----------------------------------------------|---------------------------|
--------2-------------------------------------|--2----2--2g3----2----2g3--|
--2--2--2--2----2--2--------------------------|--2----2--2g3----2----2g3--|
--0--0--0--0----0--0--7--6--5--4--6--5--4--3--|--0----0--0g1----0----0g1--|


          PM PM PM PM PM PM PM PM PM PM                              
  E  Q    S  S  S  S  S  S  S  S  S  S     Q    E    Q    Q      E   
----------------------------------------|---------------------------|
----------------------------------------|---------------------------|
----------------------------------------|---------------------------|
--L--2----------------------------------|--2----2--2g3----2----2g3--|
--L--2----2--2--------------------------|--2----2--2g3----2----2g3--|
--L--0----0--0--7--6--5--4--6--5--4--3--|--0----0--0g1----0----0g1--|


          PM PM                                         
  E  Q    S  S  E.  E.  E     Q    E    Q    Q      E   
---------------------------|---------------------------|
---------------------------|---------------------------|
---------------------------|---------------------------|
--L--2----------5---4---3--|--2----2--2g3----2----2g3--|
--L--2----2--2--5---4---3--|--2----2--2g3----2----2g3--|
--L--0----0--0--3---2---1--|--0----0--0g1----0----0g1--|


          PM PM PM PM PM PM PM PM PM PM                              
  E  Q    S  S  S  S  S  S  S  S  S  S     Q    E    Q    Q      E   
----------------------------------------|---------------------------|
----------------------------------------|---------------------------|
----------------------------------------|---------------------------|
--L--2----------------------------------|--2----2--2g3----2----2g3--|
--L--2----2--2--------------------------|--2----2--2g3----2----2g3--|
--L--0----0--0--7--6--5--4--6--5--4--3--|--0----0--0g1----0----0g1--|


          PM PM                                                             
  E  Q    S  S  E.  E.  E     Q    Q    E  E  Q       Q    Q    E  E  Q     
---------------------------|-----------------------|------------1--0-------|
---------------------------|---------------0--1----|------------------1----|
---------------------------|--2----2----2----------|--2----2---------------|
--L--2----------5---4---3--|-----------------------|-----------------------|
--L--2----2--2--5---4---3--|-----------------------|-----------------------|
--L--0----0--0--3---2---1--|-----------------------|-----------------------|


  Q    Q    E  E  Q       E  E  Q    E  E  E  E     Q    Q    E  E  Q     
-----------------------|--1--0-------1--0--------|-----------------------|
---------------0--1----|--------1-------------0--|---------------0--1----|
--0----0----2----------|-------------------2-----|--2----2----2----------|
-----------------------|-------------------------|-----------------------|
-----------------------|-------------------------|-----------------------|
-----------------------|-------------------------|-----------------------|


  Q    Q    E  E  Q       Q    Q    E  E  Q       E  E  Q    E  E  E  E   
------------1--0-------|-----------------------|--1--0-------1--0--------|
------------------1----|---------------0--1----|--------1-------------0--|
--2----2---------------|--0----0----2----------|-------------------2-----|
-----------------------|-----------------------|-------------------------|
-----------------------|-----------------------|-------------------------|
-----------------------|-----------------------|-------------------------|


  Q    Q    E  E  Q       Q    Q    E  E  Q       Q    Q    E  E  Q     
-----------------------|------------1--0-------|-----------------------|
---------------0--1----|------------------1----|---------------0--1----|
--2----2----2----------|--2----2---------------|--0----0----2----------|
-----------------------|-----------------------|-----------------------|
-----------------------|-----------------------|-----------------------|
-----------------------|-----------------------|-----------------------|


  E  E  Q    E  E  E  E     Q    Q    E  E  Q       Q    Q    E  E  Q     
--1--0-------1--0--------|-----------------------|------------1--0-------|
--------1-------------0--|---------------0--1----|------------------1----|
-------------------2-----|--2----2----2----------|--2----2---------------|
-------------------------|-----------------------|-----------------------|
-------------------------|-----------------------|-----------------------|
-------------------------|-----------------------|-----------------------|


  Q    Q    E  E  Q       E  E  Q    E  E  E  E   
-----------------------|--1--0-------1--0--------|
---------------0--1----|--------1-------------0--|
--0----0----2----------|-------------------2-----|
-----------------------|-------------------------|
-----------------------|-------------------------|
-----------------------|-------------------------|


  Q      E   E   E   E   E   E      E   E   E   Q.       S  S  S  S  
--------------------------------|--------------------------------12-|
----------------12--15--12------|-----------------------------15----|
------------14--------------14--|------12--11--12~---------14-------|
-------/14----------------------|--14-------------------14----------|
--------------------------------|-----------------------------------|
--------------------------------|-----------------------------------|


   Q.      S  S  Q.      S  S     E    E   E     E   E   E   E   E    
---L------------15------------|--15S--24--22br--20-------------------|
-------------17------------17-|--------------------------------------|
----------19------------19----|---------------------16--14-----------|
------------------------------|-----------------------------16--17~--|
------------------------------|--------------------------------------|
------------------------------|--------------------------------------|


  E   E   E   E   E   E   E   E      Q     E   E   E   Q     E   
---------------------------------|----------------14------------|
---------------------------------|------------------------------|
---------------------------------|--------------------16--------|
--L--16--14------17--16--14------|--14----14--16------------14--|
-------------17--------------17--|------------------------------|
---------------------------------|------------------------------|


   E   E   S  S  E    E   S  S  E   E      E   E   E   Q     E   E   E   
----------------15S--24--15------------|--------------------------------|
-------------17-------------17---------|--------------------------------|
----------19-------------------19--16--|--14----------------------------|
--16--14-------------------------------|------17--16--14----17--16--14--|
---------------------------------------|--------------------------------|
---------------------------------------|--------------------------------|


                     PM PM PM PM                                  
   E   E   H         S  S  S  S     E   E   E   E   Q     E   E   
--------------------------------|--------------------------------|
--------------------------------|--------------------------------|
--------------------------------|--16----------------------------|
--16--17--16--------12-14-16-17-|------17--16--14--17----16--14--|
--------------------------------|--------------------------------|
--------------------------------|--------------------------------|


   H.            E   E      E   E   E   E   E   E   E   E   
------------------------|----------------------------------|
------------------------|----------------------------------|
------------------------|----------------------------------|
--16------------17--16--|--17--16--14------14--------------|
------------------------|--------------17------15--14--15--|
------------------------|----------------------------------|


                              PM  PM  PM                                        
   E   E   H         Q        E   E   Q     Q.      E     Q     H         Q     
--------------------------|----------------------------|-----------------------|
--------------------------|----------------------------|-----------------------|
--------------------------|----------------------------|-----------------17----|
--------------------------|----------------17------19--|--L----21--------------|
--17--15------------------|----------------------------|-----------------------|
----------15~-------------|--17--15--17----------------|-----------------------|


                          PM PM       PM PM PM PM    PM PM     
  Q     H        Q        S  S  E  E  S  S  S  S  E  S  S  E   
-----------------------|--------------------------------------|
-----------------------|--------------------------------------|
--L--------------------|--------------------------------------|
-------21--------L\----|--------2-----------------2--------5--|
-----------------------|--2--2--2-----2--2--2--2--2--2--2--5--|
-----------------------|--0--0--0-----0--0--0--0--0--0--0--3--|


  PM PM    PM   PM PM PM PM PM PM PM PM PM PM  
  S  S  E  S  S S  S  S  S  S  S  S  S  S  S   
----------------------------------------------|
----------------------------------------------|
----------------------------------------------|
--------2-------------------------------------|
--2--2--2--2----2--2--------------------------|
--0--0--0--0----0--0--7--6--5--4--6--5--4--3--|


  PM PM       PM PM PM PM    PM PM     
  S  S  E  E  S  S  S  S  E  S  S  E   
--------------------------------------|
--------------------------------------|
--------------------------------------|
--------2-----------------2--------5--|
--2--2--2-----2--2--2--2--2--2--2--5--|
--0--0--0-----0--0--0--0--0--0--0--3--|


  PM PM    PM   PM PM PM PM PM PM PM PM PM PM  
  S  S  E  S  S S  S  S  S  S  S  S  S  S  S   
----------------------------------------------|
----------------------------------------------|
----------------------------------------------|
--------2-------------------------------------|
--2--2--2--2----2--2--------------------------|
--0--0--0--0----0--0--7--6--5--4--6--5--4--3--|


  PM PM       PM PM PM PM    PM PM     
  S  S  E  E  S  S  S  S  E  S  S  E   
--------------------------------------|
--------------------------------------|
--------------------------------------|
--------2-----------------2--------5--|
--2--2--2-----2--2--2--2--2--2--2--5--|
--0--0--0-----0--0--0--0--0--0--0--3--|


  PM PM    PM   PM PM PM PM PM PM PM PM PM PM  
  S  S  E  S  S S  S  S  S  S  S  S  S  S  S   
----------------------------------------------|
----------------------------------------------|
----------------------------------------------|
--------2-------------------------------------|
--2--2--2--2----2--2--------------------------|
--0--0--0--0----0--0--7--6--5--4--6--5--4--3--|


  PM PM       PM PM PM PM    PM PM     
  S  S  E  E  S  S  S  S  E  S  S  E   
--------------------------------------|
--------------------------------------|
--------------------------------------|
--------2-----------------2--------5--|
--2--2--2-----2--2--2--2--2--2--2--5--|
--0--0--0-----0--0--0--0--0--0--0--3--|


  PM PM    PM   PM PM PM PM PM PM PM PM PM PM  
  S  S  E  S  S S  S  S  S  S  S  S  S  S  S   
----------------------------------------------|
----------------------------------------------|
----------------------------------------------|
--------2-------------------------------------|
--2--2--2--2----2--2--------------------------|
--0--0--0--0----0--0--7--6--5--4--6--5--4--3--|


  PM PM       PM PM PM PM    PM PM     
  S  S  E  E  S  S  S  S  E  S  S  E   
--------------------------------------|
--------------------------------------|
--------------------------------------|
--------2-----------------2--------5--|
--2--2--2-----2--2--2--2--2--2--2--5--|
--0--0--0-----0--0--0--0--0--0--0--3--|


  PM PM    PM   PM PM PM PM PM PM PM PM PM PM  
  S  S  E  S  S S  S  S  S  S  S  S  S  S  S   
----------------------------------------------|
----------------------------------------------|
----------------------------------------------|
--------2-------------------------------------|
--2--2--2--2----2--2--------------------------|
--0--0--0--0----0--0--7--6--5--4--6--5--4--3--|


  PM PM       PM PM PM PM    PM PM     
  S  S  E  E  S  S  S  S  E  S  S  E   
--------------------------------------|
--------------------------------------|
--------------------------------------|
--------2-----------------2--------5--|
--2--2--2-----2--2--2--2--2--2--2--5--|
--0--0--0-----0--0--0--0--0--0--0--3--|


  PM PM    PM   PM PM PM PM PM PM PM PM PM PM                              
  S  S  E  S  S S  S  S  S  S  S  S  S  S  S     Q    E    Q    Q      E   
----------------------------------------------|---------------------------|
----------------------------------------------|---------------------------|
----------------------------------------------|---------------------------|
--------2-------------------------------------|--2----2--2g3----2----2g3--|
--2--2--2--2----2--2--------------------------|--2----2--2g3----2----2g3--|
--0--0--0--0----0--0--7--6--5--4--6--5--4--3--|--0----0--0g1----0----0g1--|


          PM PM PM PM PM PM PM PM PM PM                              
  E  Q    S  S  S  S  S  S  S  S  S  S     Q    E    Q    Q      E   
----------------------------------------|---------------------------|
----------------------------------------|---------------------------|
----------------------------------------|---------------------------|
--L--2----------------------------------|--2----2--2g3----2----2g3--|
--L--2----2--2--------------------------|--2----2--2g3----2----2g3--|
--L--0----0--0--7--6--5--4--6--5--4--3--|--0----0--0g1----0----0g1--|


          PM PM                                         
  E  Q    S  S  E.  E.  E     Q    E    Q    Q      E   
---------------------------|---------------------------|
---------------------------|---------------------------|
---------------------------|---------------------------|
--L--2----------5---4---3--|--2----2--2g3----2----2g3--|
--L--2----2--2--5---4---3--|--2----2--2g3----2----2g3--|
--L--0----0--0--3---2---1--|--0----0--0g1----0----0g1--|


          PM PM PM PM PM PM PM PM PM PM                              
  E  Q    S  S  S  S  S  S  S  S  S  S     Q    E    Q    Q      E   
----------------------------------------|---------------------------|
----------------------------------------|---------------------------|
----------------------------------------|---------------------------|
--L--2----------------------------------|--2----2--2g3----2----2g3--|
--L--2----2--2--------------------------|--2----2--2g3----2----2g3--|
--L--0----0--0--7--6--5--4--6--5--4--3--|--0----0--0g1----0----0g1--|


          PM PM                                         
  E  Q    S  S  E.  E.  E     Q    E    Q    Q      E   
---------------------------|---------------------------|
---------------------------|---------------------------|
---------------------------|---------------------------|
--L--2----------5---4---3--|--2----2--2g3----2----2g3--|
--L--2----2--2--5---4---3--|--2----2--2g3----2----2g3--|
--L--0----0--0--3---2---1--|--0----0--0g1----0----0g1--|


          PM PM PM PM PM PM PM PM PM PM                              
  E  Q    S  S  S  S  S  S  S  S  S  S     Q    E    Q    Q      E   
----------------------------------------|---------------------------|
----------------------------------------|---------------------------|
----------------------------------------|---------------------------|
--L--2----------------------------------|--2----2--2g3----2----2g3--|
--L--2----2--2--------------------------|--2----2--2g3----2----2g3--|
--L--0----0--0--7--6--5--4--6--5--4--3--|--0----0--0g1----0----0g1--|


          PM PM                                         
  E  Q    S  S  E.  E.  E     Q    E    Q    Q      E   
---------------------------|---------------------------|
---------------------------|---------------------------|
---------------------------|---------------------------|
--L--2----------5---4---3--|--2----2--2g3----2----2g3--|
--L--2----2--2--5---4---3--|--2----2--2g3----2----2g3--|
--L--0----0--0--3---2---1--|--0----0--0g1----0----0g1--|


          PM PM PM PM PM PM PM PM PM PM                              
  E  Q    S  S  S  S  S  S  S  S  S  S     Q    E    Q    Q      E   
----------------------------------------|---------------------------|
----------------------------------------|---------------------------|
----------------------------------------|---------------------------|
--L--2----------------------------------|--2----2--2g3----2----2g3--|
--L--2----2--2--------------------------|--2----2--2g3----2----2g3--|
--L--0----0--0--7--6--5--4--6--5--4--3--|--0----0--0g1----0----0g1--|


          PM PM                                                     
  E  Q    S  S  E.  E.  E     W                   W                 
---------------------------|-------------------|-------------------|
---------------------------|-------------------|-------------------|
---------------------------|-------------------|-------------------|
--L--2----------5---4---3--|--7----------------|--L----------------|
--L--2----2--2--5---4---3--|--7----------------|--L----------------|
--L--0----0--0--3---2---1--|--5----------------|--L----------------|


  PM PM PM PM PM PM PM PM    PM PM PM PM PM PM PM PM                          
  E  E  E  E  E  E  E  E     E  E  E  E  E  E  E  E     Q    Q    E  E  Q     
--------------------------|--------------------------|-----------------------|
--------------------------|--------------------------|---------------0--1----|
--------------------------|--------------------------|--2----2----2----------|
--------------------------|--------------------------|-----------------------|
--2--2--2--2--2--2--2--2--|--2--2--2--2--2--2--2--2--|-----------------------|
--0--0--0--0--0--0--0--0--|--0--0--0--0--0--0--0--0--|-----------------------|


  Q    Q    E  E  Q       Q    Q    E  E  Q       E  E  Q    E  E  E  E   
------------1--0-------|-----------------------|--1--0-------1--0--------|
------------------1----|---------------0--1----|--------1-------------0--|
--2----2---------------|--0----0----2----------|-------------------2-----|
-----------------------|-----------------------|-------------------------|
-----------------------|-----------------------|-------------------------|
-----------------------|-----------------------|-------------------------|


  Q    Q    E  E  Q       Q    Q    E  E  Q       Q    Q    E  E  Q     
-----------------------|------------1--0-------|-----------------------|
---------------0--1----|------------------1----|---------------0--1----|
--2----2----2----------|--2----2---------------|--0----0----2----------|
-----------------------|-----------------------|-----------------------|
-----------------------|-----------------------|-----------------------|
-----------------------|-----------------------|-----------------------|


  E  E  Q    E  E  E  E     Q    Q    E  E  Q       Q    Q    E  E  Q     
--1--0-------1--0--------|-----------------------|------------1--0-------|
--------1-------------0--|---------------0--1----|------------------1----|
-------------------2-----|--2----2----2----------|--2----2---------------|
-------------------------|-----------------------|-----------------------|
-------------------------|-----------------------|-----------------------|
-------------------------|-----------------------|-----------------------|


  Q    Q    E  E  Q       E  E  Q    E  E  E  E     Q    Q    E  E  Q     
-----------------------|--1--0-------1--0--------|-----------------------|
---------------0--1----|--------1-------------0--|---------------0--1----|
--0----0----2----------|-------------------2-----|--2----2----2----------|
-----------------------|-------------------------|-----------------------|
-----------------------|-------------------------|-----------------------|
-----------------------|-------------------------|-----------------------|


  Q    Q    E  E  Q       Q    Q    E  E  Q       E  E  Q    E  E  E  E   
------------1--0-------|-----------------------|--1--0-------1--0--------|
------------------1----|---------------0--1----|--------1-------------0--|
--2----2---------------|--0----0----2----------|-------------------2-----|
-----------------------|-----------------------|-------------------------|
-----------------------|-----------------------|-------------------------|
-----------------------|-----------------------|-------------------------|


  Q    Q    E  E  Q       Q    Q    E  E  Q       Q    Q    E  E  Q     
-----------------------|------------1--0-------|-----------------------|
---------------0--1----|------------------1----|---------------0--1----|
--2----2----2----------|--2----2---------------|--0----0----2----------|
-----------------------|-----------------------|-----------------------|
-----------------------|-----------------------|-----------------------|
-----------------------|-----------------------|-----------------------|


  E  E  Q    E  E  E  E     Q    Q    E  E  Q       Q    Q    E  E  Q     
--1--0-------1--0--------|-----------------------|------------1--0-------|
--------1-------------0--|---------------0--1----|------------------1----|
-------------------2-----|--2----2----2----------|--2----2---------------|
-------------------------|-----------------------|-----------------------|
-------------------------|-----------------------|-----------------------|
-------------------------|-----------------------|-----------------------|


  Q    Q    E  E  Q       E  E  Q    E  E  Q       W                  
-----------------------|--1--0-------1--0-------|-------------------||
---------------0--1----|--------1---------------|-------------------||
--0----0----2----------|-------------------2----|-------------------||
-----------------------|------------------------|-------------------||
-----------------------|------------------------|-------------------||
-----------------------|------------------------|-------------------||

Rhythm Guitar

      PM PM       PM PM PM PM    PM PM     
      S  S  E  E  S  S  S  S  E  S  S  E   
B ||--------------------------------------|
F#||--------------------------------------|
D ||--------------------------------------|
A ||--------2-----------------2--------5--|
E ||--2--2--2-----2--2--2--2--2--2--2--5--|
B ||--0--0--0-----0--0--0--0--0--0--0--3--|


  PM PM    PM   PM PM PM PM PM PM PM PM PM PM  
  S  S  E  S  S S  S  S  S  S  S  S  S  S  S   
----------------------------------------------|
----------------------------------------------|
----------------------------------------------|
--------2-------------------------------------|
--2--2--2--2----2--2--------------------------|
--0--0--0--0----0--0--7--6--5--4--6--5--4--3--|


  PM PM       PM PM PM PM    PM PM     
  S  S  E  E  S  S  S  S  E  S  S  E   
--------------------------------------|
--------------------------------------|
--------------------------------------|
--------2-----------------2--------5--|
--2--2--2-----2--2--2--2--2--2--2--5--|
--0--0--0-----0--0--0--0--0--0--0--3--|


  PM PM    PM   PM PM PM PM PM PM PM PM PM PM  
  S  S  E  S  S S  S  S  S  S  S  S  S  S  S   
----------------------------------------------|
----------------------------------------------|
----------------------------------------------|
--------2-------------------------------------|
--2--2--2--2----2--2--------------------------|
--0--0--0--0----0--0--7--6--5--4--6--5--4--3--|


  PM PM       PM PM PM PM    PM PM     
  S  S  E  E  S  S  S  S  E  S  S  E   
--------------------------------------|
--------------------------------------|
--------------------------------------|
--------2-----------------2--------5--|
--2--2--2-----2--2--2--2--2--2--2--5--|
--0--0--0-----0--0--0--0--0--0--0--3--|


  PM PM    PM   PM PM PM PM PM PM PM PM PM PM  
  S  S  E  S  S S  S  S  S  S  S  S  S  S  S   
----------------------------------------------|
----------------------------------------------|
----------------------------------------------|
--------2-------------------------------------|
--2--2--2--2----2--2--------------------------|
--0--0--0--0----0--0--7--6--5--4--6--5--4--3--|


  PM PM       PM PM PM PM    PM PM     
  S  S  E  E  S  S  S  S  E  S  S  E   
--------------------------------------|
--------------------------------------|
--------------------------------------|
--------2-----------------2--------5--|
--2--2--2-----2--2--2--2--2--2--2--5--|
--0--0--0-----0--0--0--0--0--0--0--3--|


  PM PM    PM   PM PM PM PM PM PM PM PM PM PM  
  S  S  E  S  S S  S  S  S  S  S  S  S  S  S   
----------------------------------------------|
----------------------------------------------|
----------------------------------------------|
--------2-------------------------------------|
--2--2--2--2----2--2--------------------------|
--0--0--0--0----0--0--7--6--5--4--6--5--4--3--|


  PM PM       PM PM PM PM    PM PM     
  S  S  E  E  S  S  S  S  E  S  S  E   
--------------------------------------|
--------------------------------------|
--------------------------------------|
--------2-----------------2--------5--|
--2--2--2-----2--2--2--2--2--2--2--5--|
--0--0--0-----0--0--0--0--0--0--0--3--|


  PM PM    PM   PM PM PM PM PM PM PM PM PM PM  
  S  S  E  S  S S  S  S  S  S  S  S  S  S  S   
----------------------------------------------|
----------------------------------------------|
----------------------------------------------|
--------2-------------------------------------|
--2--2--2--2----2--2--------------------------|
--0--0--0--0----0--0--7--6--5--4--6--5--4--3--|


  PM PM       PM PM PM PM    PM PM     
  S  S  E  E  S  S  S  S  E  S  S  E   
--------------------------------------|
--------------------------------------|
--------------------------------------|
--------2-----------------2--------5--|
--2--2--2-----2--2--2--2--2--2--2--5--|
--0--0--0-----0--0--0--0--0--0--0--3--|


  PM PM    PM   PM PM PM PM PM PM PM PM PM PM                              
  S  S  E  S  S S  S  S  S  S  S  S  S  S  S     Q    E    Q    Q      E   
----------------------------------------------|---------------------------|
----------------------------------------------|---------------------------|
----------------------------------------------|---------------------------|
--------2-------------------------------------|--2----2--2g3----2----2g3--|
--2--2--2--2----2--2--------------------------|--2----2--2g3----2----2g3--|
--0--0--0--0----0--0--7--6--5--4--6--5--4--3--|--0----0--0g1----0----0g1--|


          PM PM PM PM PM PM PM PM PM PM                              
  E  Q    S  S  S  S  S  S  S  S  S  S     Q    E    Q    Q      E   
----------------------------------------|---------------------------|
----------------------------------------|---------------------------|
----------------------------------------|---------------------------|
--L--2----------------------------------|--2----2--2g3----2----2g3--|
--L--2----2--2--------------------------|--2----2--2g3----2----2g3--|
--L--0----0--0--7--6--5--4--6--5--4--3--|--0----0--0g1----0----0g1--|


          PM PM               PM PM       PM PM PM PM    PM PM     
  E  Q    S  S  E.  E.  E     S  S  E  E  S  S  S  S  E  S  S  E   
---------------------------|--------------------------------------|
---------------------------|--------------------------------------|
---------------------------|--------------------------------------|
--L--2----------5---4---3--|--------2-----------------2--------5--|
--L--2----2--2--5---4---3--|--2--2--2-----2--2--2--2--2--2--2--5--|
--L--0----0--0--3---2---1--|--0--0--0-----0--0--0--0--0--0--0--3--|


  PM PM    PM   PM PM PM PM PM PM PM PM PM PM  
  S  S  E  S  S S  S  S  S  S  S  S  S  S  S   
----------------------------------------------|
----------------------------------------------|
----------------------------------------------|
--------2-------------------------------------|
--2--2--2--2----2--2--------------------------|
--0--0--0--0----0--0--7--6--5--4--6--5--4--3--|


  PM PM       PM PM PM PM    PM PM     
  S  S  E  E  S  S  S  S  E  S  S  E   
--------------------------------------|
--------------------------------------|
--------------------------------------|
--------2-----------------2--------5--|
--2--2--2-----2--2--2--2--2--2--2--5--|
--0--0--0-----0--0--0--0--0--0--0--3--|


  PM PM    PM   PM PM PM PM PM PM PM PM PM PM  
  S  S  E  S  S S  S  S  S  S  S  S  S  S  S   
----------------------------------------------|
----------------------------------------------|
----------------------------------------------|
--------2-------------------------------------|
--2--2--2--2----2--2--------------------------|
--0--0--0--0----0--0--7--6--5--4--6--5--4--3--|


  PM PM       PM PM PM PM    PM PM     
  S  S  E  E  S  S  S  S  E  S  S  E   
--------------------------------------|
--------------------------------------|
--------------------------------------|
--------2-----------------2--------5--|
--2--2--2-----2--2--2--2--2--2--2--5--|
--0--0--0-----0--0--0--0--0--0--0--3--|


  PM PM    PM   PM PM PM PM PM PM PM PM PM PM  
  S  S  E  S  S S  S  S  S  S  S  S  S  S  S   
----------------------------------------------|
----------------------------------------------|
----------------------------------------------|
--------2-------------------------------------|
--2--2--2--2----2--2--------------------------|
--0--0--0--0----0--0--7--6--5--4--6--5--4--3--|


  PM PM       PM PM PM PM    PM PM     
  S  S  E  E  S  S  S  S  E  S  S  E   
--------------------------------------|
--------------------------------------|
--------------------------------------|
--------2-----------------2--------5--|
--2--2--2-----2--2--2--2--2--2--2--5--|
--0--0--0-----0--0--0--0--0--0--0--3--|


  PM PM    PM   PM PM PM PM PM PM PM PM PM PM                              
  S  S  E  S  S S  S  S  S  S  S  S  S  S  S     Q    E    Q    Q      E   
----------------------------------------------|---------------------------|
----------------------------------------------|---------------------------|
----------------------------------------------|---------------------------|
--------2-------------------------------------|--2----2--2g3----2----2g3--|
--2--2--2--2----2--2--------------------------|--2----2--2g3----2----2g3--|
--0--0--0--0----0--0--7--6--5--4--6--5--4--3--|--0----0--0g1----0----0g1--|


          PM PM PM PM PM PM PM PM PM PM                              
  E  Q    S  S  S  S  S  S  S  S  S  S     Q    E    Q    Q      E   
----------------------------------------|---------------------------|
----------------------------------------|---------------------------|
----------------------------------------|---------------------------|
--L--2----------------------------------|--2----2--2g3----2----2g3--|
--L--2----2--2--------------------------|--2----2--2g3----2----2g3--|
--L--0----0--0--7--6--5--4--6--5--4--3--|--0----0--0g1----0----0g1--|


          PM PM                                         
  E  Q    S  S  E.  E.  E     Q    E    Q    Q      E   
---------------------------|---------------------------|
---------------------------|---------------------------|
---------------------------|---------------------------|
--L--2----------5---4---3--|--2----2--2g3----2----2g3--|
--L--2----2--2--5---4---3--|--2----2--2g3----2----2g3--|
--L--0----0--0--3---2---1--|--0----0--0g1----0----0g1--|


          PM PM PM PM PM PM PM PM PM PM                              
  E  Q    S  S  S  S  S  S  S  S  S  S     Q    E    Q    Q      E   
----------------------------------------|---------------------------|
----------------------------------------|---------------------------|
----------------------------------------|---------------------------|
--L--2----------------------------------|--2----2--2g3----2----2g3--|
--L--2----2--2--------------------------|--2----2--2g3----2----2g3--|
--L--0----0--0--7--6--5--4--6--5--4--3--|--0----0--0g1----0----0g1--|


          PM PM                                  PM                       PM  
  E  Q    S  S  E.  E.  E     E  E  Q    E  Q    E     E  E  Q    E  Q    E   
---------------------------|------------------------|------------------------|
---------------------------|------------------------|------------------------|
---------------------------|------------------------|------------------------|
--L--2----------5---4---3--|--7--7--7----x--x-------|--7--7--7----x--x-------|
--L--2----2--2--5---4---3--|--7--7--7----x--x----7--|--7--7--7----x--x----7--|
--L--0----0--0--3---2---1--|--5--5--5----x--x----5--|--5--5--5----x--x----5--|


                     PM                                                PM  
  E  E  Q    E  Q    E     E  E  Q    E  E  Q       E  E  Q    E  Q    E   
------------------------|------------------------|------------------------|
------------------------|------------------------|------------------------|
------------------------|------------------------|------------------------|
--5--5--5----x--x-------|--3--3--3----5--5--5----|--7--7--7----x--x-------|
--5--5--5----x--x----5--|--3--3--3----5--5--5----|--7--7--7----x--x----7--|
--3--3--3----x--x----3--|--1--1--1----3--3--3----|--5--5--5----x--x----5--|


                     PM                       PM                           
  E  E  Q    E  Q    E     E  E  Q    E  Q    E     E  E  Q    E  E  Q     
------------------------|------------------------|------------------------|
------------------------|------------------------|------------------------|
------------------------|------------------------|------------------------|
--7--7--7----x--x-------|--5--5--5----x--x-------|--3--3--3----5--5--5----|
--7--7--7----x--x----7--|--5--5--5----x--x----5--|--3--3--3----5--5--5----|
--5--5--5----x--x----5--|--3--3--3----x--x----3--|--1--1--1----3--3--3----|


                     PM                       PM                       PM  
  E  E  Q    E  Q    E     E  E  Q    E  Q    E     E  E  Q    E  Q    E   
------------------------|------------------------|------------------------|
------------------------|------------------------|------------------------|
------------------------|------------------------|------------------------|
--7--7--7----x--x-------|--7--7--7----x--x-------|--5--5--5----x--x-------|
--7--7--7----x--x----7--|--7--7--7----x--x----7--|--5--5--5----x--x----5--|
--5--5--5----x--x----5--|--5--5--5----x--x----5--|--3--3--3----x--x----3--|


                                              PM                       PM  
  E  E  Q    E  E  Q       E  E  Q    E  Q    E     E  E  Q    E  Q    E   
------------------------|------------------------|------------------------|
------------------------|------------------------|------------------------|
------------------------|------------------------|------------------------|
--3--3--3----5--5--5----|--7--7--7----x--x-------|--7--7--7----x--x-------|
--3--3--3----5--5--5----|--7--7--7----x--x----7--|--7--7--7----x--x----7--|
--1--1--1----3--3--3----|--5--5--5----x--x----5--|--5--5--5----x--x----5--|


                     PM                           
  E  E  Q    E  Q    E     E  E  Q    E  E  Q     
------------------------|------------------------|
------------------------|------------------------|
------------------------|------------------------|
--5--5--5----x--x-------|--3--3--3----5--5--5----|
--5--5--5----x--x----5--|--3--3--3----5--5--5----|
--3--3--3----x--x----3--|--1--1--1----3--3--3----|


       PM  PM      PM  PM                                       
   E   E   E   E   E   E   E  E     Q     E   E   Q     E   E   
---------------------------------|-----------------------------|
---------------------------------|-----------------------------|
---------------------------------|-----------------------------|
--14----------14----------14-----|-------14--14--14----14--12--|
--14--14--14--14--14--14--14-----|-------14--14--14----14--12--|
--12--12--12--12--12--12--12-----|-------12--12--12----12--10--|


       PM  PM      PM  PM                                       
   E   E   E   E   E   E   E  E     Q     E   E   Q     E   E   
---------------------------------|-----------------------------|
---------------------------------|-----------------------------|
---------------------------------|-----------------------------|
--12----------12----------12-----|-------12--12--12----12--10--|
--12--12--12--12--12--12--12-----|-------12--12--12----12--10--|
--10--10--10--10--10--10--10-----|-------10--10--10----10---8--|


       PM  PM      PM  PM                                      
   E   E   E   E   E   E   E  E     Q     E   E   Q     E  E   
---------------------------------|----------------------------|
---------------------------------|----------------------------|
---------------------------------|----------------------------|
--10----------10----------10-----|-------10--10--10----10--9--|
--10--10--10--10--10--10--10-----|-------10--10--10----10--9--|
---8---8---8---8---8---8---8-----|--------8---8---8-----8--7--|


     PM PM    PM PM                                 
  E  E  E  E  E  E  Q       E   Q.      Q     Q     
-------------------------|-------------------------|
-------------------------|-------------------------|
-------------------------|-------------------------|
--9--------9--------9----|--9--10------10----12----|
--9--9--9--9--9--9--9----|--9--10------10----12----|
--7--7--7--7--7--7--7----|--7---8-------8----10----|


       PM  PM      PM  PM                                       
   E   E   E   E   E   E   E  E     Q     E   E   Q     E   E   
---------------------------------|-----------------------------|
---------------------------------|-----------------------------|
---------------------------------|-----------------------------|
--14----------14----------14-----|-------14--14--14----14--12--|
--14--14--14--14--14--14--14-----|-------14--14--14----14--12--|
--12--12--12--12--12--12--12-----|-------12--12--12----12--10--|


       PM  PM      PM  PM                                       
   E   E   E   E   E   E   E  E     Q     E   E   Q     E   E   
---------------------------------|-----------------------------|
---------------------------------|-----------------------------|
---------------------------------|-----------------------------|
--12----------12----------12-----|-------12--12--12----12--10--|
--12--12--12--12--12--12--12-----|-------12--12--12----12--10--|
--10--10--10--10--10--10--10-----|-------10--10--10----10---8--|


       PM  PM      PM  PM                                      
   E   E   E   E   E   E   E  E     Q     E   E   Q     E  E   
---------------------------------|----------------------------|
---------------------------------|----------------------------|
---------------------------------|----------------------------|
--10----------10----------10-----|-------10--10--10----10--9--|
--10--10--10--10--10--10--10-----|-------10--10--10----10--9--|
---8---8---8---8---8---8---8-----|--------8---8---8-----8--7--|


     PM PM    PM PM                                 
  E  E  E  E  E  E  Q       E   Q.      Q     Q     
-------------------------|-------------------------|
-------------------------|-------------------------|
-------------------------|-------------------------|
--9--------9--------9----|--9--10------10----12----|
--9--9--9--9--9--9--9----|--9--10------10----12----|
--7--7--7--7--7--7--7----|--7---8-------8----10----|


  PM PM       PM PM PM PM    PM PM     
  S  S  E  E  S  S  S  S  E  S  S  E   
--------------------------------------|
--------------------------------------|
--------------------------------------|
--------2-----------------2--------5--|
--2--2--2-----2--2--2--2--2--2--2--5--|
--0--0--0-----0--0--0--0--0--0--0--3--|


  PM PM    PM   PM PM PM PM PM PM PM PM PM PM  
  S  S  E  S  S S  S  S  S  S  S  S  S  S  S   
----------------------------------------------|
----------------------------------------------|
----------------------------------------------|
--------2-------------------------------------|
--2--2--2--2----2--2--------------------------|
--0--0--0--0----0--0--7--6--5--4--6--5--4--3--|


  PM PM       PM PM PM PM    PM PM     
  S  S  E  E  S  S  S  S  E  S  S  E   
--------------------------------------|
--------------------------------------|
--------------------------------------|
--------2-----------------2--------5--|
--2--2--2-----2--2--2--2--2--2--2--5--|
--0--0--0-----0--0--0--0--0--0--0--3--|


  PM PM    PM   PM PM PM PM PM PM PM PM PM PM  
  S  S  E  S  S S  S  S  S  S  S  S  S  S  S   
----------------------------------------------|
----------------------------------------------|
----------------------------------------------|
--------2-------------------------------------|
--2--2--2--2----2--2--------------------------|
--0--0--0--0----0--0--7--6--5--4--6--5--4--3--|


  PM PM       PM PM PM PM    PM PM     
  S  S  E  E  S  S  S  S  E  S  S  E   
--------------------------------------|
--------------------------------------|
--------------------------------------|
--------2-----------------2--------5--|
--2--2--2-----2--2--2--2--2--2--2--5--|
--0--0--0-----0--0--0--0--0--0--0--3--|


  PM PM    PM   PM PM PM PM PM PM PM PM PM PM  
  S  S  E  S  S S  S  S  S  S  S  S  S  S  S   
----------------------------------------------|
----------------------------------------------|
----------------------------------------------|
--------2-------------------------------------|
--2--2--2--2----2--2--------------------------|
--0--0--0--0----0--0--7--6--5--4--6--5--4--3--|


  PM PM       PM PM PM PM    PM PM     
  S  S  E  E  S  S  S  S  E  S  S  E   
--------------------------------------|
--------------------------------------|
--------------------------------------|
--------2-----------------2--------5--|
--2--2--2-----2--2--2--2--2--2--2--5--|
--0--0--0-----0--0--0--0--0--0--0--3--|


  PM PM    PM   PM PM PM PM PM PM PM PM PM PM  
  S  S  E  S  S S  S  S  S  S  S  S  S  S  S   
----------------------------------------------|
----------------------------------------------|
----------------------------------------------|
--------2-------------------------------------|
--2--2--2--2----2--2--------------------------|
--0--0--0--0----0--0--7--6--5--4--6--5--4--3--|


  PM PM       PM PM PM PM    PM PM     
  S  S  E  E  S  S  S  S  E  S  S  E   
--------------------------------------|
--------------------------------------|
--------------------------------------|
--------2-----------------2--------5--|
--2--2--2-----2--2--2--2--2--2--2--5--|
--0--0--0-----0--0--0--0--0--0--0--3--|


  PM PM    PM   PM PM PM PM PM PM PM PM PM PM  
  S  S  E  S  S S  S  S  S  S  S  S  S  S  S   
----------------------------------------------|
----------------------------------------------|
----------------------------------------------|
--------2-------------------------------------|
--2--2--2--2----2--2--------------------------|
--0--0--0--0----0--0--7--6--5--4--6--5--4--3--|


  PM PM       PM PM PM PM    PM PM     
  S  S  E  E  S  S  S  S  E  S  S  E   
--------------------------------------|
--------------------------------------|
--------------------------------------|
--------2-----------------2--------5--|
--2--2--2-----2--2--2--2--2--2--2--5--|
--0--0--0-----0--0--0--0--0--0--0--3--|


  PM PM    PM   PM PM PM PM PM PM PM PM PM PM                              
  S  S  E  S  S S  S  S  S  S  S  S  S  S  S     Q    E    Q    Q      E   
----------------------------------------------|---------------------------|
----------------------------------------------|---------------------------|
----------------------------------------------|---------------------------|
--------2-------------------------------------|--2----2--2g3----2----2g3--|
--2--2--2--2----2--2--------------------------|--2----2--2g3----2----2g3--|
--0--0--0--0----0--0--7--6--5--4--6--5--4--3--|--0----0--0g1----0----0g1--|


          PM PM PM PM PM PM PM PM PM PM                              
  E  Q    S  S  S  S  S  S  S  S  S  S     Q    E    Q    Q      E   
----------------------------------------|---------------------------|
----------------------------------------|---------------------------|
----------------------------------------|---------------------------|
--L--2----------------------------------|--2----2--2g3----2----2g3--|
--L--2----2--2--------------------------|--2----2--2g3----2----2g3--|
--L--0----0--0--7--6--5--4--6--5--4--3--|--0----0--0g1----0----0g1--|


          PM PM                                         
  E  Q    S  S  E.  E.  E     Q    E    Q    Q      E   
---------------------------|---------------------------|
---------------------------|---------------------------|
---------------------------|---------------------------|
--L--2----------5---4---3--|--2----2--2g3----2----2g3--|
--L--2----2--2--5---4---3--|--2----2--2g3----2----2g3--|
--L--0----0--0--3---2---1--|--0----0--0g1----0----0g1--|


          PM PM PM PM PM PM PM PM PM PM                              
  E  Q    S  S  S  S  S  S  S  S  S  S     Q    E    Q    Q      E   
----------------------------------------|---------------------------|
----------------------------------------|---------------------------|
----------------------------------------|---------------------------|
--L--2----------------------------------|--2----2--2g3----2----2g3--|
--L--2----2--2--------------------------|--2----2--2g3----2----2g3--|
--L--0----0--0--7--6--5--4--6--5--4--3--|--0----0--0g1----0----0g1--|


          PM PM                                         
  E  Q    S  S  E.  E.  E     Q    E    Q    Q      E   
---------------------------|---------------------------|
---------------------------|---------------------------|
---------------------------|---------------------------|
--L--2----------5---4---3--|--2----2--2g3----2----2g3--|
--L--2----2--2--5---4---3--|--2----2--2g3----2----2g3--|
--L--0----0--0--3---2---1--|--0----0--0g1----0----0g1--|


          PM PM PM PM PM PM PM PM PM PM                              
  E  Q    S  S  S  S  S  S  S  S  S  S     Q    E    Q    Q      E   
----------------------------------------|---------------------------|
----------------------------------------|---------------------------|
----------------------------------------|---------------------------|
--L--2----------------------------------|--2----2--2g3----2----2g3--|
--L--2----2--2--------------------------|--2----2--2g3----2----2g3--|
--L--0----0--0--7--6--5--4--6--5--4--3--|--0----0--0g1----0----0g1--|


          PM PM                                         
  E  Q    S  S  E.  E.  E     Q    E    Q    Q      E   
---------------------------|---------------------------|
---------------------------|---------------------------|
---------------------------|---------------------------|
--L--2----------5---4---3--|--2----2--2g3----2----2g3--|
--L--2----2--2--5---4---3--|--2----2--2g3----2----2g3--|
--L--0----0--0--3---2---1--|--0----0--0g1----0----0g1--|


          PM PM PM PM PM PM PM PM PM PM                              
  E  Q    S  S  S  S  S  S  S  S  S  S     Q    E    Q    Q      E   
----------------------------------------|---------------------------|
----------------------------------------|---------------------------|
----------------------------------------|---------------------------|
--L--2----------------------------------|--2----2--2g3----2----2g3--|
--L--2----2--2--------------------------|--2----2--2g3----2----2g3--|
--L--0----0--0--7--6--5--4--6--5--4--3--|--0----0--0g1----0----0g1--|


          PM PM                                                     
  E  Q    S  S  E.  E.  E     W                   W                 
---------------------------|-------------------|-------------------|
---------------------------|-------------------|-------------------|
---------------------------|-------------------|-------------------|
--L--2----------5---4---3--|--7----------------|--L----------------|
--L--2----2--2--5---4---3--|--7----------------|--L----------------|
--L--0----0--0--3---2---1--|--5----------------|--L----------------|


  PM PM PM PM PM PM PM PM    PM PM PM PM PM PM PM PM                       PM  
  E  E  E  E  E  E  E  E     E  E  E  E  E  E  E  E     E  E  Q    E  Q    E   
--------------------------|--------------------------|------------------------|
--------------------------|--------------------------|------------------------|
--------------------------|--------------------------|------------------------|
--------------------------|--------------------------|--7--7--7----x--x-------|
--2--2--2--2--2--2--2--2--|--2--2--2--2--2--2--2--2--|--7--7--7----x--x----7--|
--0--0--0--0--0--0--0--0--|--0--0--0--0--0--0--0--0--|--5--5--5----x--x----5--|


                     PM                       PM                           
  E  E  Q    E  Q    E     E  E  Q    E  Q    E     E  E  Q    E  E  Q     
------------------------|------------------------|------------------------|
------------------------|------------------------|------------------------|
------------------------|------------------------|------------------------|
--7--7--7----x--x-------|--5--5--5----x--x-------|--3--3--3----5--5--5----|
--7--7--7----x--x----7--|--5--5--5----x--x----5--|--3--3--3----5--5--5----|
--5--5--5----x--x----5--|--3--3--3----x--x----3--|--1--1--1----3--3--3----|


                     PM                       PM                       PM  
  E  E  Q    E  Q    E     E  E  Q    E  Q    E     E  E  Q    E  Q    E   
------------------------|------------------------|------------------------|
------------------------|------------------------|------------------------|
------------------------|------------------------|------------------------|
--7--7--7----x--x-------|--7--7--7----x--x-------|--5--5--5----x--x-------|
--7--7--7----x--x----7--|--7--7--7----x--x----7--|--5--5--5----x--x----5--|
--5--5--5----x--x----5--|--5--5--5----x--x----5--|--3--3--3----x--x----3--|


                                              PM                       PM  
  E  E  Q    E  E  Q       E  E  Q    E  Q    E     E  E  Q    E  Q    E   
------------------------|------------------------|------------------------|
------------------------|------------------------|------------------------|
------------------------|------------------------|------------------------|
--3--3--3----5--5--5----|--7--7--7----x--x-------|--7--7--7----x--x-------|
--3--3--3----5--5--5----|--7--7--7----x--x----7--|--7--7--7----x--x----7--|
--1--1--1----3--3--3----|--5--5--5----x--x----5--|--5--5--5----x--x----5--|


                     PM                                                PM  
  E  E  Q    E  Q    E     E  E  Q    E  E  Q       E  E  Q    E  Q    E   
------------------------|------------------------|------------------------|
------------------------|------------------------|------------------------|
------------------------|------------------------|------------------------|
--5--5--5----x--x-------|--3--3--3----5--5--5----|--7--7--7----x--x-------|
--5--5--5----x--x----5--|--3--3--3----5--5--5----|--7--7--7----x--x----7--|
--3--3--3----x--x----3--|--1--1--1----3--3--3----|--5--5--5----x--x----5--|


                     PM                       PM                           
  E  E  Q    E  Q    E     E  E  Q    E  Q    E     E  E  Q    E  E  Q     
------------------------|------------------------|------------------------|
------------------------|------------------------|------------------------|
------------------------|------------------------|------------------------|
--7--7--7----x--x-------|--5--5--5----x--x-------|--3--3--3----5--5--5----|
--7--7--7----x--x----7--|--5--5--5----x--x----5--|--3--3--3----5--5--5----|
--5--5--5----x--x----5--|--3--3--3----x--x----3--|--1--1--1----3--3--3----|


                     PM                       PM                       PM  
  E  E  Q    E  Q    E     E  E  Q    E  Q    E     E  E  Q    E  Q    E   
------------------------|------------------------|------------------------|
------------------------|------------------------|------------------------|
------------------------|------------------------|------------------------|
--7--7--7----x--x-------|--7--7--7----x--x-------|--5--5--5----x--x-------|
--7--7--7----x--x----7--|--7--7--7----x--x----7--|--5--5--5----x--x----5--|
--5--5--5----x--x----5--|--5--5--5----x--x----5--|--3--3--3----x--x----3--|


                                              PM                       PM  
  E  E  Q    E  E  Q       E  E  Q    E  Q    E     E  E  Q    E  Q    E   
------------------------|------------------------|------------------------|
------------------------|------------------------|------------------------|
------------------------|------------------------|------------------------|
--3--3--3----5--5--5----|--7--7--7----x--x-------|--7--7--7----x--x-------|
--3--3--3----5--5--5----|--7--7--7----x--x----7--|--7--7--7----x--x----7--|
--1--1--1----3--3--3----|--5--5--5----x--x----5--|--5--5--5----x--x----5--|


                     PM                                                
  E  E  Q    E  Q    E     E  E  Q    E  E  Q       W                  
------------------------|------------------------|-------------------||
------------------------|------------------------|-------------------||
------------------------|------------------------|-------------------||
--5--5--5----x--x-------|--3--3--3----5--5--5----|-------------------||
--5--5--5----x--x----5--|--3--3--3----5--5--5----|-------------------||
--3--3--3----x--x----3--|--1--1--1----3--3--3----|-------------------||

Bass Guitar

                                  S  S                            
     W                   H        E  E  Q       W                 
G||-------------------|----------------------|-------------------|
D||-------------------|----------------------|-------------------|
A||-------------------|----------------------|-------------------|
E||-------------------|----------------------|-------------------|
B||-------------------|-----------5--4-------|-------------------|


           S  S                                       
  H        E  E  Q       S S E  E  S S S S E  S S E   
----------------------|------------------------------|
----------------------|------------------------------|
----------------------|------------------------------|
----------------------|------------------------------|
-----------5--4-------|--0-0-0-----0-0-0-0-0--0-0-3--|


  S S E  S S S S S S S S S S S S    S S E  E  S S S S E  S S E   
---------------------------------|------------------------------|
---------------------------------|------------------------------|
---------------------------------|------------------------------|
---------------------------------|------------------------------|
--0-0-0--0---0-0-7-6-5-4-6-5-4-3-|--0-0-0-----0-0-0-0-0--0-0-3--|


  S S E  S S S S S S S S S S S S    S S E  E  S S S S E  S S E   
---------------------------------|------------------------------|
---------------------------------|------------------------------|
---------------------------------|------------------------------|
---------------------------------|------------------------------|
--0-0-0--0---0-0-7-6-5-4-6-5-4-3-|--0-0-0-----0-0-0-0-0--0-0-3--|


  S S E  S S S S S S S S S S S S    S S E  E  S S S S E  S S E   
---------------------------------|------------------------------|
---------------------------------|------------------------------|
---------------------------------|------------------------------|
---------------------------------|------------------------------|
--0-0-0--0---0-0-7-6-5-4-6-5-4-3-|--0-0-0-----0-0-0-0-0--0-0-3--|


  S S E  S S S S S S S S S S S S    Q    E    Q    Q      E   
---------------------------------|---------------------------|
---------------------------------|---------------------------|
---------------------------------|---------------------------|
---------------------------------|---------------------------|
--0-0-0--0---0-0-7-6-5-4-6-5-4-3-|--0----0--0g1----0----0g1--|


  E  Q    S S S S S S S S S S    Q    E    Q    Q      E   
------------------------------|---------------------------|
------------------------------|---------------------------|
------------------------------|---------------------------|
------------------------------|---------------------------|
--L--0----0-0-7-6-5-4-6-5-4-3-|--0----0--0g1----0----0g1--|


  E  Q    S S S S S S S S S S    S S E  E  S S S S E  S S E   
------------------------------|------------------------------|
------------------------------|------------------------------|
------------------------------|------------------------------|
------------------------------|------------------------------|
--L--0----0-0-7-6-5-4-6-5-4-3-|--0-0-0-----0-0-0-0-0--0-0-3--|


  S S E  S S S S S S S S S S S S    S S E  E  S S S S E  S S E   
---------------------------------|------------------------------|
---------------------------------|------------------------------|
---------------------------------|------------------------------|
---------------------------------|------------------------------|
--0-0-0--0---0-0-7-6-5-4-6-5-4-3-|--0-0-0-----0-0-0-0-0--0-0-3--|


  S S E  S S S S S S S S S S S S    S S E  E  S S S S E  S S E   
---------------------------------|------------------------------|
---------------------------------|------------------------------|
---------------------------------|------------------------------|
---------------------------------|------------------------------|
--0-0-0--0---0-0-7-6-5-4-6-5-4-3-|--0-0-0-----0-0-0-0-0--0-0-3--|


  S S E  S S S S S S S S S S S S    S S E  E  S S S S E  S S E   
---------------------------------|------------------------------|
---------------------------------|------------------------------|
---------------------------------|------------------------------|
---------------------------------|------------------------------|
--0-0-0--0---0-0-7-6-5-4-6-5-4-3-|--0-0-0-----0-0-0-0-0--0-0-3--|


  S S E  S S S S S S S S S S S S    Q    E    Q    Q      E   
---------------------------------|---------------------------|
---------------------------------|---------------------------|
---------------------------------|---------------------------|
---------------------------------|---------------------------|
--0-0-0--0---0-0-7-6-5-4-6-5-4-3-|--0----0--0g1----0----0g1--|


  E  Q    S S S S S S S S S S    Q    E    Q    Q      E   
------------------------------|---------------------------|
------------------------------|---------------------------|
------------------------------|---------------------------|
------------------------------|---------------------------|
--L--0----0-0-7-6-5-4-6-5-4-3-|--0----0--0g1----0----0g1--|


  E  Q    S S S S S S S S S S    Q    E    Q    Q      E   
------------------------------|---------------------------|
------------------------------|---------------------------|
------------------------------|---------------------------|
------------------------------|---------------------------|
--L--0----0-0-7-6-5-4-6-5-4-3-|--0----0--0g1----0----0g1--|


  E  Q    S S S S S S S S S S    Q    E    Q    Q      E   
------------------------------|---------------------------|
------------------------------|---------------------------|
------------------------------|---------------------------|
------------------------------|---------------------------|
--L--0----0-0-7-6-5-4-6-5-4-3-|--0----0--0g1----0----0g1--|


  E  Q    S S S S S S S S S S    E  E  Q    Q.     E     E  E  Q    Q.     E   
------------------------------|-----------------------|-----------------------|
------------------------------|-----------------------|-----------------------|
------------------------------|-----------------------|-----------------------|
------------------------------|--0--0--0-----------0--|--0--0--0-----------0--|
--L--0----0-0-7-6-5-4-6-5-4-3-|-----------------------|-----------------------|


  E  E  Q    Q.     E     E  E  Q    E  E  Q       E  E  Q    Q.     E   
-----------------------|------------------------|-----------------------|
-----------------------|------------------------|-----------------------|
-----------------------|------------------------|-----------------------|
-----------------------|------------------------|--0--0--0-----------0--|
--3--3--3-----------3--|--1--1--1----3--3--3----|-----------------------|


  E  E  Q    Q.     E     E  E  Q    Q.     E     E  E  Q    E  E  Q     
-----------------------|-----------------------|------------------------|
-----------------------|-----------------------|------------------------|
-----------------------|-----------------------|------------------------|
--0--0--0-----------0--|-----------------------|------------------------|
-----------------------|--3--3--3-----------3--|--1--1--1----3--3--3----|


  E  E  Q    Q.     E     E  E  Q    Q.     E     E  E  Q    Q.     E   
-----------------------|-----------------------|-----------------------|
-----------------------|-----------------------|-----------------------|
-----------------------|-----------------------|-----------------------|
--0--0--0-----------0--|--0--0--0-----------0--|-----------------------|
-----------------------|-----------------------|--3--3--3-----------3--|


  E  E  Q    E  E  Q       E  E  Q    Q.     E     E  E  Q    Q.     E   
------------------------|-----------------------|-----------------------|
------------------------|-----------------------|-----------------------|
------------------------|-----------------------|-----------------------|
------------------------|--0--0--0-----------0--|--0--0--0-----------0--|
--1--1--1----3--3--3----|-----------------------|-----------------------|


  E  E  Q    Q.     E     E  E  Q    E  E  Q       E  E  E  E  E  E  E  E   
-----------------------|------------------------|--------------------------|
-----------------------|------------------------|--------------------------|
-----------------------|------------------------|--2--2--2--2--2--2--2-----|
-----------------------|------------------------|--------------------------|
--3--3--3-----------3--|--1--1--1----3--3--3----|--------------------------|


  Q    E  E  Q    E  E     E  E  E  E  E  E  E  E     Q    E  E  Q    E  E   
------------------------|--------------------------|------------------------|
------------------------|--------------------------|------------------------|
-------2--2--2----2--0--|--0--0--0--0--0--0--0-----|-------0--0--0----0-----|
------------------------|--------------------------|---------------------3--|
------------------------|--------------------------|------------------------|


  E  E  E  E  E  E  E  E     Q    E  E  Q    E  E     E  E  E  E  E  E  Q     
--------------------------|------------------------|-------------------------|
--------------------------|------------------------|-------------------------|
--------------------------|------------------------|-------------------------|
--3--3--3--3--3--3--3-----|-------3--3--3----3--2--|--2--2--2--2--2--2--2----|
--------------------------|------------------------|-------------------------|


  E  Q.     Q    Q       E  E  E  E  E  E  E  E     Q    E  E  Q    E  E   
----------------------|--------------------------|------------------------|
----------------------|--------------------------|------------------------|
-----------------0----|--2--2--2--2--2--2--2-----|-------2--2--2----2--0--|
--2--3------3---------|--------------------------|------------------------|
----------------------|--------------------------|------------------------|


  E  E  E  E  E  E  E  E     Q    E  E  Q    E  E     E  E  E  E  E  E  E  E   
--------------------------|------------------------|--------------------------|
--------------------------|------------------------|--------------------------|
--0--0--0--0--0--0--0-----|-------0--0--0----0-----|--------------------------|
--------------------------|---------------------3--|--3--3--3--3--3--3--3-----|
--------------------------|------------------------|--------------------------|


  Q    E  E  Q    E  E     E  E  E  E  E  E  Q       E  Q.     Q    Q     
------------------------|-------------------------|----------------------|
------------------------|-------------------------|----------------------|
------------------------|-------------------------|-----------------0----|
-------3--3--3----3--2--|--2--2--2--2--2--2--2----|--2--3------3---------|
------------------------|-------------------------|----------------------|


                               S  S                            
  W                   H        E  E  Q       W                 
-------------------|----------------------|-------------------|
-------------------|----------------------|-------------------|
-------------------|----------------------|-------------------|
-------------------|----------------------|-------------------|
-------------------|-----------5--4-------|-------------------|


           S  S                                       
  H        E  E  Q       S S E  E  S S S S E  S S E   
----------------------|------------------------------|
----------------------|------------------------------|
----------------------|------------------------------|
----------------------|------------------------------|
-----------5--4-------|--0-0-0-----0-0-0-0-0--0-0-3--|


  S S E  S S S S S S S S S S S S    S S E  E  S S S S E  S S E   
---------------------------------|------------------------------|
---------------------------------|------------------------------|
---------------------------------|------------------------------|
---------------------------------|------------------------------|
--0-0-0--0---0-0-7-6-5-4-6-5-4-3-|--0-0-0-----0-0-0-0-0--0-0-3--|


  S S E  S S S S S S S S S S S S    S S E  E  S S S S E  S S E   
---------------------------------|------------------------------|
---------------------------------|------------------------------|
---------------------------------|------------------------------|
---------------------------------|------------------------------|
--0-0-0--0---0-0-7-6-5-4-6-5-4-3-|--0-0-0-----0-0-0-0-0--0-0-3--|


  S S E  S S S S S S S S S S S S    S S E  E  S S S S E  S S E   
---------------------------------|------------------------------|
---------------------------------|------------------------------|
---------------------------------|------------------------------|
---------------------------------|------------------------------|
--0-0-0--0---0-0-7-6-5-4-6-5-4-3-|--0-0-0-----0-0-0-0-0--0-0-3--|


  S S E  S S S S S S S S S S S S    Q    E    Q    Q      E   
---------------------------------|---------------------------|
---------------------------------|---------------------------|
---------------------------------|---------------------------|
---------------------------------|---------------------------|
--0-0-0--0---0-0-7-6-5-4-6-5-4-3-|--0----0--0g1----0----0g1--|


  E  Q    S S S S S S S S S S    Q    E    Q    Q      E   
------------------------------|---------------------------|
------------------------------|---------------------------|
------------------------------|---------------------------|
------------------------------|---------------------------|
--L--0----0-0-7-6-5-4-6-5-4-3-|--0----0--0g1----0----0g1--|


  E  Q    S S S S S S S S S S    Q    E    Q    Q      E   
------------------------------|---------------------------|
------------------------------|---------------------------|
------------------------------|---------------------------|
------------------------------|---------------------------|
--L--0----0-0-7-6-5-4-6-5-4-3-|--0----0--0g1----0----0g1--|


  E  Q    S S S S S S S S S S    Q    E    Q    Q      E   
------------------------------|---------------------------|
------------------------------|---------------------------|
------------------------------|---------------------------|
------------------------------|---------------------------|
--L--0----0-0-7-6-5-4-6-5-4-3-|--0----0--0g1----0----0g1--|


  E  Q    S S S S S S S S S S    Q    E    Q    Q      E   
------------------------------|---------------------------|
------------------------------|---------------------------|
------------------------------|---------------------------|
------------------------------|---------------------------|
--L--0----0-0-7-6-5-4-6-5-4-3-|--0----0--0g1----0----0g1--|


  E  Q    S S S S S S S S S S    Q    E    Q    Q      E   
------------------------------|---------------------------|
------------------------------|---------------------------|
------------------------------|---------------------------|
------------------------------|---------------------------|
--L--0----0-0-7-6-5-4-6-5-4-3-|--0----0--0g1----0----0g1--|


  E  Q    S S S S S S S S S S    Q    E    Q    Q      E   
------------------------------|---------------------------|
------------------------------|---------------------------|
------------------------------|---------------------------|
------------------------------|---------------------------|
--L--0----0-0-7-6-5-4-6-5-4-3-|--0----0--0g1----0----0g1--|


  E  Q    S S S S S S S S S S    Q    E    Q    Q      E   
------------------------------|---------------------------|
------------------------------|---------------------------|
------------------------------|---------------------------|
------------------------------|---------------------------|
--L--0----0-0-7-6-5-4-6-5-4-3-|--0----0--0g1----0----0g1--|


  E  Q    S S S S S S S S S S    W                   W                 
------------------------------|-------------------|-------------------|
------------------------------|-------------------|-------------------|
------------------------------|-------------------|-------------------|
------------------------------|--0----------------|--L----------------|
--L--0----0-0-7-6-5-4-6-5-4-3-|-------------------|-------------------|


  E  E  E  E  E  E  E  E     E  E  E  E  E  E  E  E     E  E  Q    Q.     E   
--------------------------|--------------------------|-----------------------|
--------------------------|--------------------------|-----------------------|
--------------------------|--------------------------|-----------------------|
--------------------------|--------------------------|--0--0--0-----------0--|
--0--0--0--0--0--0--0--0--|--0--0--0--0--0--0--0--0--|-----------------------|


  E  E  Q    Q.     E     E  E  Q    Q.     E     E  E  Q    E  E  Q     
-----------------------|-----------------------|------------------------|
-----------------------|-----------------------|------------------------|
-----------------------|-----------------------|------------------------|
--0--0--0-----------0--|-----------------------|------------------------|
-----------------------|--3--3--3-----------3--|--1--1--1----3--3--3----|


  E  E  Q    Q.     E     E  E  Q    Q.     E     E  E  Q    Q.     E   
-----------------------|-----------------------|-----------------------|
-----------------------|-----------------------|-----------------------|
-----------------------|-----------------------|-----------------------|
--0--0--0-----------0--|--0--0--0-----------0--|-----------------------|
-----------------------|-----------------------|--3--3--3-----------3--|


  E  E  Q    E  E  Q       E  E  Q    Q.     E     E  E  Q    Q.     E   
------------------------|-----------------------|-----------------------|
------------------------|-----------------------|-----------------------|
------------------------|-----------------------|-----------------------|
------------------------|--0--0--0-----------0--|--0--0--0-----------0--|
--1--1--1----3--3--3----|-----------------------|-----------------------|


  E  E  Q    Q.     E     E  E  Q    E  E  Q       E  E  Q    Q.     E   
-----------------------|------------------------|-----------------------|
-----------------------|------------------------|-----------------------|
-----------------------|------------------------|-----------------------|
-----------------------|------------------------|--0--0--0-----------0--|
--3--3--3-----------3--|--1--1--1----3--3--3----|-----------------------|


  E  E  Q    Q.     E     E  E  Q    Q.     E     E  E  Q    E  E  Q     
-----------------------|-----------------------|------------------------|
-----------------------|-----------------------|------------------------|
-----------------------|-----------------------|------------------------|
--0--0--0-----------0--|-----------------------|------------------------|
-----------------------|--3--3--3-----------3--|--1--1--1----3--3--3----|


  E  E  Q    Q.     E     E  E  Q    Q.     E     E  E  Q    Q.     E   
-----------------------|-----------------------|-----------------------|
-----------------------|-----------------------|-----------------------|
-----------------------|-----------------------|-----------------------|
--0--0--0-----------0--|--0--0--0-----------0--|-----------------------|
-----------------------|-----------------------|--3--3--3-----------3--|


  E  E  Q    E  E  Q       E  E  Q    Q.     E     E  E  Q    Q.     E   
------------------------|-----------------------|-----------------------|
------------------------|-----------------------|-----------------------|
------------------------|-----------------------|-----------------------|
------------------------|--0--0--0-----------0--|--0--0--0-----------0--|
--1--1--1----3--3--3----|-----------------------|-----------------------|


  E  E  Q    Q.     E     E  E  Q    E  E  Q       W                  
-----------------------|------------------------|-------------------||
-----------------------|------------------------|-------------------||
-----------------------|------------------------|-------------------||
-----------------------|------------------------|-------------------||
--3--3--3-----------3--|--1--1--1----3--3--3----|-------------------||




Duration Legend
---------------
W - whole
H - half
Q - quarter
E - 8th
S - 16th
T - 32nd
X - 64th
. - note dotted
|-n-|  - n-tuplets


Tablature Legend
----------------
L - tied note
x - dead note
g - grace note
(n) - ghost note
> - accentuded note
NH - natural harmonic
AH - artificial harmonic
TH - tapped harmonic
SH - semi harmonic
PH - pitch harmonic
h - hammer on
p - pull off
b - bend
br - bendRelease
pb - preBend
pbr - preBendRelease
brb - bendReleaseBend
\n/ - tremolo bar dip
\n - tremolo bar dive
-/n - tremolo bar Release up
/n\ - tremolo bar inverted dip
/n - tremolo bar return
-\n - tremolo bar Release down
S - shift slide
s - legato slide
/ -  slide into from below or out of upwards
\ -  slide into from above or out of downwards
~ - vibrato
W - wide vibrato
tr - trill
TP - tremolo picking
T - tapping
S - slap
P - pop
< - fade in
^ - brush up
v - brush down

==========The Bleeding==========

Lead Guitar

      Q       W                   W                   W                 
B ||-------|-------------------|-------------------|-------------------|
F#||-------|-------------------|-------------------|-------------------|
D ||-------|-------------------|-------------------|-------------------|
A ||-------|-------------------|-------------------|-------------------|
E ||-------|-------------------|-------------------|-------------------|
B ||-------|-------------------|-------------------|-------------------|


  W                   W                   W                   W                 
-------------------|-------------------|-------------------|-------------------|
-------------------|-------------------|-------------------|-------------------|
-------------------|-------------------|-------------------|-------------------|
-------------------|-------------------|-------------------|-------------------|
-------------------|-------------------|-------------------|-------------------|
-------------------|-------------------|-------------------|-------------------|


  W                     W                    H        Q    E   E   
-------------------|----------------------|-----------------------|
-------------------|----------------------|-----------9----9--11--|
-------------------|--/10~----------------|--L--------------------|
-------------------|----------------------|-----------------------|
-------------------|----------------------|-----------------------|
-------------------|----------------------|-----------------------|


   W                    H        Q    E   E      W                  
---------------------|-----------------------|---------------------|
---------------------|-----------9----9--11--|---------------------|
--10~----------------|--L--------------------|--10~----------------|
---------------------|-----------------------|---------------------|
---------------------|-----------------------|---------------------|
---------------------|-----------------------|---------------------|


  H        Q    E   E      W                     E   E  E   E  E   E  Q     
-----------------------|---------------------|-----------------------------|
-----------9----9--11--|---------------------|------11--9------9-----------|
--L--------------------|--10~----------------|---L---------10-----10--8----|
-----------------------|---------------------|-----------------------------|
-----------------------|---------------------|-----------------------------|
-----------------------|---------------------|-----------------------------|


    W                    H        Q    E   E      W                  
----------------------|-----------------------|---------------------|
----------------------|-----------9----9--11--|---------------------|
--/10~----------------|--L--------------------|--10~----------------|
----------------------|-----------------------|---------------------|
----------------------|-----------------------|---------------------|
----------------------|-----------------------|---------------------|


  H         Q    E   E     E   E  H.              E   E  Q    E  Q     E   
------------------------|----------------------|---------8----9--8--------|
-----------11----9------|---------9------------|--9--11---------------11--|
--L-----------------10--|--8--10---------------|--------------------------|
------------------------|----------------------|--------------------------|
------------------------|----------------------|--------------------------|
------------------------|----------------------|--------------------------|


  E  E  H        E  E     E   E  E  Q    E  E   E       W                  
-----------------------|---------------------------|----------------------|
--9--8--8--------L--9--|--L--11--9--8----9--8------|----------------------|
-----------------------|-----------------------10--|--/10~----------------|
-----------------------|---------------------------|----------------------|
-----------------------|---------------------------|----------------------|
-----------------------|---------------------------|----------------------|


  H        Q    E   E      W                    H         Q    E   E   
-----------------------|---------------------|------------------------|
-----------9----9--11--|---------------------|-----------11----9------|
--L--------------------|--10~----------------|--L-----------------10--|
-----------------------|---------------------|------------------------|
-----------------------|---------------------|------------------------|
-----------------------|---------------------|------------------------|


  E   E  H.              E   E  Q    E  Q     E     E  E  H        E  E   
----------------------|---------8----9--8--------|-----------------------|
---------9------------|--9--11---------------11--|--9--8--8--------L--9--|
--8--10---------------|--------------------------|-----------------------|
----------------------|--------------------------|-----------------------|
----------------------|--------------------------|-----------------------|
----------------------|--------------------------|-----------------------|


  E   E  E  Q    E  E   E       H.            Q        W                 
---------------------------|------------------------|-------------------|
--L--11--9--8----9--8------|------------------------|-------------------|
-----------------------10--|--/10~------------L\----|-------------------|
---------------------------|------------------------|-------------------|
---------------------------|------------------------|-------------------|
---------------------------|------------------------|-------------------|


  W                   W                   W                   W                 
-------------------|-------------------|-------------------|-------------------|
-------------------|-------------------|-------------------|-------------------|
-------------------|-------------------|-------------------|-------------------|
-------------------|-------------------|-------------------|-------------------|
-------------------|-------------------|-------------------|-------------------|
-------------------|-------------------|-------------------|-------------------|


  W                   W                   W                   W                 
-------------------|-------------------|-------------------|-------------------|
-------------------|-------------------|-------------------|-------------------|
-------------------|-------------------|-------------------|-------------------|
-------------------|-------------------|-------------------|-------------------|
-------------------|-------------------|-------------------|-------------------|
-------------------|-------------------|-------------------|-------------------|


  W                   W                   W                   W                 
-------------------|-------------------|-------------------|-------------------|
-------------------|-------------------|-------------------|-------------------|
-------------------|-------------------|-------------------|-------------------|
-------------------|-------------------|-------------------|-------------------|
-------------------|-------------------|-------------------|-------------------|
-------------------|-------------------|-------------------|-------------------|


                                             PM      PM PM        
  W                   W                   E  E  Q    E  E  E  E   
-------------------|-------------------|-------------------------|
-------------------|-------------------|-------------------------|
-------------------|-------------------|-------------------------|
-------------------|-------------------|--3-----3----------------|
-------------------|-------------------|--3--3--3----3--3-----3--|
-------------------|-------------------|--1--1--1----1--1-----1--|


     PM      PM PM             PM      PM PM                                  
  E  E  Q    E  E  E  E     E  E  Q    E  E  E  E     Q    Q    E  E  E  E    
-------------------------|-------------------------|-------------------------|
-------------------------|-------------------------|-------------------------|
-------------------------|-------------------------|-------------------------|
--3-----3----------------|--3-----3----------------|--6----6----8--8--8--L\--|
--3--3--3----3--3-----3--|--3--3--3----3--3-----3--|--6----6----8--8--8--L\--|
--1--1--1----1--1-----1--|--1--1--1----1--1-----1--|--4----4----6--6--6--L\--|


     PM      PM PM             PM      PM PM             PM      PM PM    PM  
  E  E  Q    E  E  E  E     E  E  Q    E  E  E  E     E  E  Q    E  E  E  E   
-------------------------|-------------------------|-------------------------|
-------------------------|-------------------------|-------------------------|
-------------------------|-------------------------|-------------------------|
--3-----3----------------|--3-----3----------------|--3-----3----------------|
--3--3--3----3--3-----3--|--3--3--3----3--3-----3--|--3--3--3----3--3-----3--|
--1--1--1----1--1-----1--|--1--1--1----1--1-----1--|--1--1--1----1--1-----1--|


  Q    Q    E  E  E  E      W                   W                 
-------------------------|-------------------|-------------------|
-------------------------|-------------------|-------------------|
-------------------------|-------------------|-------------------|
--6----6----8--8--8--L\--|-------------------|-------------------|
--6----6----8--8--8--L\--|-------------------|-------------------|
--4----4----6--6--6--L\--|-------------------|-------------------|


  W                   W                   W                   W                 
-------------------|-------------------|-------------------|-------------------|
-------------------|-------------------|-------------------|-------------------|
-------------------|-------------------|-------------------|-------------------|
-------------------|-------------------|-------------------|-------------------|
-------------------|-------------------|-------------------|-------------------|
-------------------|-------------------|-------------------|-------------------|


  W                   W                     W                  
-------------------|-------------------|----------------------|
-------------------|-------------------|----------------------|
-------------------|-------------------|--/10~----------------|
-------------------|-------------------|----------------------|
-------------------|-------------------|----------------------|
-------------------|-------------------|----------------------|


  H        Q    E   E      W                    H        Q    E   E   
-----------------------|---------------------|-----------------------|
-----------9----9--11--|---------------------|-----------9----9--11--|
--L--------------------|--10~----------------|--L--------------------|
-----------------------|---------------------|-----------------------|
-----------------------|---------------------|-----------------------|
-----------------------|---------------------|-----------------------|


   W                    H        Q    E   E      W                  
---------------------|-----------------------|---------------------|
---------------------|-----------9----9--11--|---------------------|
--10~----------------|--L--------------------|--10~----------------|
---------------------|-----------------------|---------------------|
---------------------|-----------------------|---------------------|
---------------------|-----------------------|---------------------|


   E   E  E   E  E   E  Q         W                    H        Q    E   E   
-----------------------------|----------------------|-----------------------|
------11--9------9-----------|----------------------|-----------9----9--11--|
---L---------10-----10--8----|--/10~----------------|--L--------------------|
-----------------------------|----------------------|-----------------------|
-----------------------------|----------------------|-----------------------|
-----------------------------|----------------------|-----------------------|


   W                    H         Q    E   E     E   E  H.            
---------------------|------------------------|----------------------|
---------------------|-----------11----9------|---------9------------|
--10~----------------|--L-----------------10--|--8--10---------------|
---------------------|------------------------|----------------------|
---------------------|------------------------|----------------------|
---------------------|------------------------|----------------------|


  E   E  Q    E  Q     E     E  E  H        E  E     E   E  E  Q    E  E   E   
---------8----9--8--------|-----------------------|---------------------------|
--9--11---------------11--|--9--8--8--------L--9--|--L--11--9--8----9--8------|
--------------------------|-----------------------|-----------------------10--|
--------------------------|-----------------------|---------------------------|
--------------------------|-----------------------|---------------------------|
--------------------------|-----------------------|---------------------------|


    W                    H        Q    E   E      W                  
----------------------|-----------------------|---------------------|
----------------------|-----------9----9--11--|---------------------|
--/10~----------------|--L--------------------|--10~----------------|
----------------------|-----------------------|---------------------|
----------------------|-----------------------|---------------------|
----------------------|-----------------------|---------------------|


  H         Q    E   E     E   E  H.              E   E  Q    E  Q     E   
------------------------|----------------------|---------8----9--8--------|
-----------11----9------|---------9------------|--9--11---------------11--|
--L-----------------10--|--8--10---------------|--------------------------|
------------------------|----------------------|--------------------------|
------------------------|----------------------|--------------------------|
------------------------|----------------------|--------------------------|


                                                         PM      PM PM        
  E  E  H        E  E     E   E  E  Q    E  E   E     E  E  Q    E  E  E  E   
-----------------------|---------------------------|-------------------------|
--9--8--8--------L--9--|--L--11--9--8----9--8------|-------------------------|
-----------------------|-----------------------10--|-------------------------|
-----------------------|---------------------------|--3-----3----------------|
-----------------------|---------------------------|--3--3--3----3--3-----3--|
-----------------------|---------------------------|--1--1--1----1--1-----1--|


     PM      PM PM             PM      PM PM                                  
  E  E  Q    E  E  E  E     E  E  Q    E  E  E  E     Q    Q    E  E  E  E    
-------------------------|-------------------------|-------------------------|
-------------------------|-------------------------|-------------------------|
-------------------------|-------------------------|-------------------------|
--3-----3----------------|--3-----3----------------|--6----6----8--8--8--L\--|
--3--3--3----3--3-----3--|--3--3--3----3--3-----3--|--6----6----8--8--8--L\--|
--1--1--1----1--1-----1--|--1--1--1----1--1-----1--|--4----4----6--6--6--L\--|


     PM      PM PM             PM      PM PM             PM      PM PM    PM  
  E  E  Q    E  E  E  E     E  E  Q    E  E  E  E     E  E  Q    E  E  E  E   
-------------------------|-------------------------|-------------------------|
-------------------------|-------------------------|-------------------------|
-------------------------|-------------------------|-------------------------|
--3-----3----------------|--3-----3----------------|--3-----3----------------|
--3--3--3----3--3-----3--|--3--3--3----3--3-----3--|--3--3--3----3--3-----3--|
--1--1--1----1--1-----1--|--1--1--1----1--1-----1--|--1--1--1----1--1-----1--|


  Q    Q    E  E  E  E      W                   W                 
-------------------------|-------------------|-------------------|
-------------------------|-------------------|-------------------|
-------------------------|-------------------|-------------------|
--6----6----8--8--8--L\--|-------------------|-------------------|
--6----6----8--8--8--L\--|-------------------|-------------------|
--4----4----6--6--6--L\--|-------------------|-------------------|


  W                   W                   W                   W                 
-------------------|-------------------|-------------------|-------------------|
-------------------|-------------------|-------------------|-------------------|
-------------------|-------------------|-------------------|-------------------|
-------------------|-------------------|-------------------|-------------------|
-------------------|-------------------|-------------------|-------------------|
-------------------|-------------------|-------------------|-------------------|


  W                   W                     W                  
-------------------|-------------------|----------------------|
-------------------|-------------------|----------------------|
-------------------|-------------------|--/10~----------------|
-------------------|-------------------|----------------------|
-------------------|-------------------|----------------------|
-------------------|-------------------|----------------------|


  H        Q    E   E      W                    H        Q    E   E   
-----------------------|---------------------|-----------------------|
-----------9----9--11--|---------------------|-----------9----9--11--|
--L--------------------|--10~----------------|--L--------------------|
-----------------------|---------------------|-----------------------|
-----------------------|---------------------|-----------------------|
-----------------------|---------------------|-----------------------|


   W                    H        Q    E   E      W                  
---------------------|-----------------------|---------------------|
---------------------|-----------9----9--11--|---------------------|
--10~----------------|--L--------------------|--10~----------------|
---------------------|-----------------------|---------------------|
---------------------|-----------------------|---------------------|
---------------------|-----------------------|---------------------|


   E   E  E   E  E   E  Q         W                    H        Q    E   E   
-----------------------------|----------------------|-----------------------|
------11--9------9-----------|----------------------|-----------9----9--11--|
---L---------10-----10--8----|--/10~----------------|--L--------------------|
-----------------------------|----------------------|-----------------------|
-----------------------------|----------------------|-----------------------|
-----------------------------|----------------------|-----------------------|


   W                    H         Q    E   E     E   E  H.            
---------------------|------------------------|----------------------|
---------------------|-----------11----9------|---------9------------|
--10~----------------|--L-----------------10--|--8--10---------------|
---------------------|------------------------|----------------------|
---------------------|------------------------|----------------------|
---------------------|------------------------|----------------------|


  E   E  Q    E  Q     E     E  E  H        E  E     E   E  E  Q    E  E   E   
---------8----9--8--------|-----------------------|---------------------------|
--9--11---------------11--|--9--8--8--------L--9--|--L--11--9--8----9--8------|
--------------------------|-----------------------|-----------------------10--|
--------------------------|-----------------------|---------------------------|
--------------------------|-----------------------|---------------------------|
--------------------------|-----------------------|---------------------------|


    W                    H        Q    E   E      W                  
----------------------|-----------------------|---------------------|
----------------------|-----------9----9--11--|---------------------|
--/10~----------------|--L--------------------|--10~----------------|
----------------------|-----------------------|---------------------|
----------------------|-----------------------|---------------------|
----------------------|-----------------------|---------------------|


  H         Q    E   E     E   E  H.              E   E  Q    E  Q     E   
------------------------|----------------------|---------8----9--8--------|
-----------11----9------|---------9------------|--9--11---------------11--|
--L-----------------10--|--8--10---------------|--------------------------|
------------------------|----------------------|--------------------------|
------------------------|----------------------|--------------------------|
------------------------|----------------------|--------------------------|


                                                         PM      PM PM        
  E  E  H        E  E     E   E  E  Q    E  E   E     E  E  Q    E  E  E  E   
-----------------------|---------------------------|-------------------------|
--9--8--8--------L--9--|--L--11--9--8----9--8------|-------------------------|
-----------------------|-----------------------10--|-------------------------|
-----------------------|---------------------------|--3-----3----------------|
-----------------------|---------------------------|--3--3--3----3--3-----3--|
-----------------------|---------------------------|--1--1--1----1--1-----1--|


     PM      PM PM             PM      PM PM                                  
  E  E  Q    E  E  E  E     E  E  Q    E  E  E  E     Q    Q    E  E  E  E    
-------------------------|-------------------------|-------------------------|
-------------------------|-------------------------|-------------------------|
-------------------------|-------------------------|-------------------------|
--3-----3----------------|--3-----3----------------|--6----6----8--8--8--L\--|
--3--3--3----3--3-----3--|--3--3--3----3--3-----3--|--6----6----8--8--8--L\--|
--1--1--1----1--1-----1--|--1--1--1----1--1-----1--|--4----4----6--6--6--L\--|


     PM      PM PM             PM      PM PM             PM      PM PM    PM  
  E  E  Q    E  E  E  E     E  E  Q    E  E  E  E     E  E  Q    E  E  E  E   
-------------------------|-------------------------|-------------------------|
-------------------------|-------------------------|-------------------------|
-------------------------|-------------------------|-------------------------|
--3-----3----------------|--3-----3----------------|--3-----3----------------|
--3--3--3----3--3-----3--|--3--3--3----3--3-----3--|--3--3--3----3--3-----3--|
--1--1--1----1--1-----1--|--1--1--1----1--1-----1--|--1--1--1----1--1-----1--|


  Q    Q    E  E  E  E       W                   Q     Q     Q     Q     
-------------------------|--------------------|-------------15----------|
-------------------------|--------------------|-------13----------13----|
-------------------------|--------------------|-------------------------|
--6----6----8--8--8--L\--|--15----------------|--L----------------------|
--6----6----8--8--8--L\--|--------------------|-------------------------|
--4----4----6--6--6--L\--|--------------------|-------------------------|


   W                   H.            Q        W                 
--------------------|---------------------|--------------------|
--13----------------|--L------------------|--------------------|
--------------------|---------------12----|--13----------------|
--------------------|---------------------|--------------------|
--------------------|---------------------|--------------------|
--------------------|---------------------|--------------------|


  Q     Q     Q     Q        H         H            H         E.   E.   E   
-------------------------|----------------------|--------------------------|
-------------------------|----------------------|--------------------------|
--L----12----13----12----|--12--------13--------|--15--------15---13---12--|
-------------------------|----------------------|--------------------------|
-------------------------|----------------------|--------------------------|
-------------------------|----------------------|--------------------------|


   W                   Q     Q     Q     Q        W                 
--------------------|-------------------------|--------------------|
--------------------|-------------------------|--------------------|
--------------------|-------12----13----12----|--12----------------|
--15----------------|--L----------------------|--------------------|
--------------------|-------------------------|--------------------|
--------------------|-------------------------|--------------------|


  H         Q    Q         W                   Q     Q     Q     Q     
-----------------------|--------------------|-------------------------|
-----------------------|--------------------|-------------------------|
--L--------12----LS----|--13----------------|--L----12----13----12----|
-----------------------|--------------------|-------------------------|
-----------------------|--------------------|-------------------------|
-----------------------|--------------------|-------------------------|


                                                   PM      PM PM        
   H         H            Q     H.              E  E  Q    E  E  E  E   
----------------------|--------13------------|-------------------------|
----------------------|----------------------|-------------------------|
--12--------13--------|----------------------|-------------------------|
----------------------|--15------------------|--3-----3----------------|
----------------------|----------------------|--3--3--3----3--3-----3--|
----------------------|----------------------|--1--1--1----1--1-----1--|


     PM      PM PM             PM      PM PM                                  
  E  E  Q    E  E  E  E     E  E  Q    E  E  E  E     Q    Q    E  E  E  E    
-------------------------|-------------------------|-------------------------|
-------------------------|-------------------------|-------------------------|
-------------------------|-------------------------|-------------------------|
--3-----3----------------|--3-----3----------------|--6----6----8--8--8--L\--|
--3--3--3----3--3-----3--|--3--3--3----3--3-----3--|--6----6----8--8--8--L\--|
--1--1--1----1--1-----1--|--1--1--1----1--1-----1--|--4----4----6--6--6--L\--|


     PM      PM PM             PM      PM PM             PM      PM PM    PM  
  E  E  Q    E  E  E  E     E  E  Q    E  E  E  E     E  E  Q    E  E  E  E   
-------------------------|-------------------------|-------------------------|
-------------------------|-------------------------|-------------------------|
-------------------------|-------------------------|-------------------------|
--3-----3----------------|--3-----3----------------|--3-----3----------------|
--3--3--3----3--3-----3--|--3--3--3----3--3-----3--|--3--3--3----3--3-----3--|
--1--1--1----1--1-----1--|--1--1--1----1--1-----1--|--1--1--1----1--1-----1--|


                               PM      PM PM             PM      PM PM        
  Q    Q    E  E  E  E      E  E  Q    E  E  E  E     E  E  Q    E  E  E  E   
-------------------------|-------------------------|-------------------------|
-------------------------|-------------------------|-------------------------|
-------------------------|-------------------------|-------------------------|
--6----6----8--8--8--L\--|--3-----3----------------|--3-----3----------------|
--6----6----8--8--8--L\--|--3--3--3----3--3-----3--|--3--3--3----3--3-----3--|
--4----4----6--6--6--L\--|--1--1--1----1--1-----1--|--1--1--1----1--1-----1--|


     PM      PM PM                                       PM      PM PM        
  E  E  Q    E  E  E  E     Q    Q    E  E  E  E      E  E  Q    E  E  E  E   
-------------------------|-------------------------|-------------------------|
-------------------------|-------------------------|-------------------------|
-------------------------|-------------------------|-------------------------|
--3-----3----------------|--6----6----8--8--8--L\--|--3-----3----------------|
--3--3--3----3--3-----3--|--6----6----8--8--8--L\--|--3--3--3----3--3-----3--|
--1--1--1----1--1-----1--|--4----4----6--6--6--L\--|--1--1--1----1--1-----1--|


     PM      PM PM             PM      PM PM    PM                            
  E  E  Q    E  E  E  E     E  E  Q    E  E  E  E     Q    Q    E  E  E  E    
-------------------------|-------------------------|-------------------------|
-------------------------|-------------------------|-------------------------|
-------------------------|-------------------------|-------------------------|
--3-----3----------------|--3-----3----------------|--6----6----8--8--8--L\--|
--3--3--3----3--3-----3--|--3--3--3----3--3-----3--|--6----6----8--8--8--L\--|
--1--1--1----1--1-----1--|--1--1--1----1--1-----1--|--4----4----6--6--6--L\--|


    W                    H.           Q         W                  
----------------------|--------------------|----------------------|
----------------------|--------------------|----------------------|
--/10~----------------|--L------------8----|--/10~----------------|
----------------------|--------------------|----------------------|
----------------------|--------------------|----------------------|
----------------------|--------------------|----------------------|


  Q    Q    Q    Q         W                    H.           Q     
----------------------|----------------------|--------------------|
-------9----8---------|----------------------|--------------------|
--L--------------8----|--/10~----------------|--L------------8----|
----------------------|----------------------|--------------------|
----------------------|----------------------|--------------------|
----------------------|----------------------|--------------------|


    W                     W                   W                 
----------------------|--------------------|-------------------|
----------------------|--------------------|-------------------|
--/10~----------------|---L----------------|--L----------------|
----------------------|--------------------|-------------------|
----------------------|--------------------|-------------------|
----------------------|--------------------|-------------------|


  W                  
-------------------||
-------------------||
--L----------------||
-------------------||
-------------------||
-------------------||

Rhythm Guitar

       Q        E   E   E   E   E   E   E   E   
B ||--------|----------------------------------|
F#||--------|----------13----------14----------|
D ||--/8----|--10--10------10--10------10--10--|
A ||--------|----------------------------------|
E ||--------|----------------------------------|
B ||--------|----------------------------------|


   E   E   E   Q     E   E   E      Q     E   E   E   E   E   E   
--------------------------------|--------------------------------|
--13----------11--------11--13--|--------13----------14----------|
------10--10--------10----------|--10--------10--10------10--10--|
--------------------------------|--------------------------------|
--------------------------------|--------------------------------|
--------------------------------|--------------------------------|


   E   E   E   Q     E   S   S   E      Q    E  E  E  E  E  E   
------------------------------------|--------------------------|
--13----------11--------11h-13p-11--|--------9--------9--------|
------10--10--------10--------------|--\6-------6--6-----6--6--|
------------------------------------|--------------------------|
------------------------------------|--------------------------|
------------------------------------|--------------------------|


  E  E  E  Q    E  Q        Q     E  E  E   E  E  E   
------------------------|----------------------------|
--9--------9-------9----|--------11--------11--------|
-----6--6-------6-------|--/8--------8--8------8--8--|
------------------------|----------------------------|
------------------------|----------------------------|
------------------------|----------------------------|


   E  E  E   Q    E   E    E      E   E   E   E   E   E   E   E   
------------------------------|----------------------------------|
--11--------11-------11s--13--|----------13----------14----------|
------8--8--------8-----------|--10--10------10--10------10--10--|
------------------------------|----------------------------------|
------------------------------|----------------------------------|
------------------------------|----------------------------------|


   E   E   E   Q     E   E   E      Q     E   E   E   E   E   E   
--------------------------------|--------------------------------|
--13----------11--------11--13--|--------13----------14----------|
------10--10--------10----------|--10--------10--10------10--10--|
--------------------------------|--------------------------------|
--------------------------------|--------------------------------|
--------------------------------|--------------------------------|


   E   E   E   Q     E   S   S   E      Q    E  E  E  E  E  E   
------------------------------------|--------------------------|
--13----------11--------11h-13p-11--|--------9--------9--------|
------10--10--------10--------------|--\6-------6--6-----6--6--|
------------------------------------|--------------------------|
------------------------------------|--------------------------|
------------------------------------|--------------------------|


  E  E  E  Q    E  Q        Q     E  E  E   E  E  E   
------------------------|----------------------------|
--9--------9-------9----|--------11--------11--------|
-----6--6-------6-------|--/8--------8--8------8--8--|
------------------------|----------------------------|
------------------------|----------------------------|
------------------------|----------------------------|


   E  E  E   Q    E   E    E      E   E   E   E   E   E   E   E   
------------------------------|----------------------------------|
--11--------11-------11s--13--|----------13----------14----------|
------8--8--------8-----------|--10--10------10--10------10--10--|
------------------------------|----------------------------------|
------------------------------|----------------------------------|
------------------------------|----------------------------------|


   E   E   E   Q     E   E   E      Q     E   E   E   E   E   E   
--------------------------------|--------------------------------|
--13----------11--------11--13--|--------13----------14----------|
------10--10--------10----------|--10--------10--10------10--10--|
--------------------------------|--------------------------------|
--------------------------------|--------------------------------|
--------------------------------|--------------------------------|


   E   E   E   Q     E   S   S   E      Q    E  E  E  E  E  E   
------------------------------------|--------------------------|
--13----------11--------11h-13p-11--|--------9--------9--------|
------10--10--------10--------------|--\6-------6--6-----6--6--|
------------------------------------|--------------------------|
------------------------------------|--------------------------|
------------------------------------|--------------------------|


  E  E  E  Q    E  Q        Q     E  E  E   E  E  E   
------------------------|----------------------------|
--9--------9-------9----|--------11--------11--------|
-----6--6-------6-------|--/8--------8--8------8--8--|
------------------------|----------------------------|
------------------------|----------------------------|
------------------------|----------------------------|


                                      PM  PM      PM  PM      PM  
   E  E  E   Q    E   E    E      E   E   E   E   E   E   E   E   
------------------------------|----------------------------------|
--11--------11-------11s--13--|----------------------------------|
------8--8--------8-----------|----------------------------------|
------------------------------|--10----------10----------10------|
------------------------------|--10--10--10--10--10--10--10--10--|
------------------------------|---8---8---8---8---8---8---8---8--|


   PM      PM  PM                    PM  PM      PM  PM      PM  
   E   E   E   E   Q    Q        E   E   E   E   E   E   E   E   
-----------------------------|----------------------------------|
-----------------------------|----------------------------------|
-----------------------------|----------------------------------|
------10----------10----8----|--10----------10----------10------|
--10--10--10--10--10----8----|--10--10--10--10--10--10--10--10--|
---8---8---8---8---8----8----|---8---8---8---8---8---8---8---8--|


   PM      PM  PM                  PM PM    PM PM    PM  
   E   E   E   E   Q    Q       E  E  E  E  E  E  E  E   
-----------------------------|--------------------------|
-----------------------------|--------------------------|
-----------------------------|--------------------------|
------10----------10----8----|--6--------6--------6-----|
--10--10--10--10--10----8----|--6--6--6--6--6--6--6--6--|
---8---8---8---8---8----8----|--4--4--4--4--4--4--4--4--|


  PM    PM PM                 PM PM    PM PM    PM    PM    PM PM            
  E  E  E  E  Q    Q       E  E  E  E  E  E  E  E     E  E  E  E  Q    Q     
------------------------|--------------------------|------------------------|
------------------------|--------------------------|------------------------|
------------------------|--------------------------|------------------------|
-----6--------6----6----|--8--------8--------8-----|-----8--------8----6----|
--6--6--6--6--6----6----|--8--8--8--8--8--8--8--8--|--8--8--8--8--8----6----|
--4--4--4--4--4----4----|--6--6--6--6--6--6--6--6--|--6--6--6--6--6----6----|


                           PM PM                                
  W                   Q    E  E  Q    Q       W                 
-------------------|-----------------------|-------------------|
-------------------|-----------------------|-------------------|
-------------------|-----------------------|--5----------------|
--3----------------|--L----------3----3----|--5----------------|
--3----------------|--L----3--3--3----3----|--3----------------|
--1----------------|--L----1--1--1----1----|-------------------|


       PM PM                                       PM PM            
  Q    E  E  Q    Q       W                   Q    E  E  Q    Q     
-----------------------|-------------------|-----------------------|
-----------------------|-------------------|-----------------------|
--L----------5----5----|-------------------|-----------------------|
--L----5--5--5----5----|--6----------------|--L----------6----6----|
--L----3--3--3----3----|--6----------------|--L----6--6--6----6----|
-----------------------|--4----------------|--L----4--4--4----4----|


                      PM         PM                              
  W                   E  Q    E  E  Q    E     W                 
-------------------|------------------------|-------------------|
-------------------|------------------------|-------------------|
--8----------------|-----3----3-----3----3--|-------------------|
--8----------------|--3--3----3--3--3----3--|--3----------------|
--6----------------|--1--1----1--1--1----1--|--3----------------|
-------------------|------------------------|--1----------------|


       PM PM                                       PM PM            
  Q    E  E  Q    Q       W                   Q    E  E  Q    Q     
-----------------------|-------------------|-----------------------|
-----------------------|-------------------|-----------------------|
-----------------------|--5----------------|--L----------5----5----|
--L----------3----3----|--5----------------|--L----5--5--5----5----|
--L----3--3--3----3----|--3----------------|--L----3--3--3----3----|
--L----1--1--1----1----|-------------------|-----------------------|


                           PM PM                                
  W                   Q    E  E  Q    Q       W                 
-------------------|-----------------------|-------------------|
-------------------|-----------------------|-------------------|
-------------------|-----------------------|--8----------------|
--6----------------|--L----------6----6----|--8----------------|
--6----------------|--L----6--6--6----6----|--6----------------|
--4----------------|--L----4--4--4----4----|-------------------|


  PM         PM               PM      PM PM    PM       PM      PM PM    PM  
  E  Q    E  E  Q    E     E  E  Q    E  E  E  E     E  E  Q    E  E  E  E   
------------------------|-------------------------|-------------------------|
------------------------|-------------------------|-------------------------|
-----3----3-----3----3--|-------------------------|-------------------------|
--3--3----3--3--3----3--|--3-----3----------------|--3-----3----------------|
--1--1----1--1--1----1--|--3--3--3----3--3-----3--|--3--3--3----3--3-----3--|
------------------------|--1--1--1----1--1-----1--|--1--1--1----1--1-----1--|


     PM      PM PM    PM                                 PM      PM PM    PM  
  E  E  Q    E  E  E  E     Q    Q    E  E  E  E      E  E  Q    E  E  E  E   
-------------------------|-------------------------|-------------------------|
-------------------------|-------------------------|-------------------------|
-------------------------|-------------------------|-------------------------|
--3-----3----------------|--6----6----8--8--8--L\--|--3-----3----------------|
--3--3--3----3--3-----3--|--6----6----8--8--8--L\--|--3--3--3----3--3-----3--|
--1--1--1----1--1-----1--|--4----4----6--6--6--L\--|--1--1--1----1--1-----1--|


     PM      PM PM    PM       PM      PM PM    PM                            
  E  E  Q    E  E  E  E     E  E  Q    E  E  E  E     Q    Q    E  E  E  E    
-------------------------|-------------------------|-------------------------|
-------------------------|-------------------------|-------------------------|
-------------------------|-------------------------|-------------------------|
--3-----3----------------|--3-----3----------------|--6----6----8--8--8--L\--|
--3--3--3----3--3-----3--|--3--3--3----3--3-----3--|--6----6----8--8--8--L\--|
--1--1--1----1--1-----1--|--1--1--1----1--1-----1--|--4----4----6--6--6--L\--|


   E   E   E   E   E   E   E   E      E   E   E   Q     E   E   E   
----------------------------------|--------------------------------|
----------13----------14----------|--13----------11--------11--13--|
--10--10------10--10------10--10--|------10--10--------10----------|
----------------------------------|--------------------------------|
----------------------------------|--------------------------------|
----------------------------------|--------------------------------|


   Q     E   E   E   E   E   E      E   E   E   Q     E   S   S   E   
--------------------------------|------------------------------------|
--------13----------14----------|--13----------11--------11h-13p-11--|
--10--------10--10------10--10--|------10--10--------10--------------|
--------------------------------|------------------------------------|
--------------------------------|------------------------------------|
--------------------------------|------------------------------------|


   Q    E  E  E  E  E  E     E  E  E  Q    E  Q     
--------------------------|------------------------|
--------9--------9--------|--9--------9-------9----|
--\6-------6--6-----6--6--|-----6--6-------6-------|
--------------------------|------------------------|
--------------------------|------------------------|
--------------------------|------------------------|


   Q     E  E  E   E  E  E      E  E  E   Q    E   E    E   
----------------------------|------------------------------|
--------11--------11--------|--11--------11-------11s--13--|
--/8--------8--8------8--8--|------8--8--------8-----------|
----------------------------|------------------------------|
----------------------------|------------------------------|
----------------------------|------------------------------|


   E   E   E   E   E   E   E   E      E   E   E   Q     E   E   E   
----------------------------------|--------------------------------|
----------13----------14----------|--13----------11--------11--13--|
--10--10------10--10------10--10--|------10--10--------10----------|
----------------------------------|--------------------------------|
----------------------------------|--------------------------------|
----------------------------------|--------------------------------|


   Q     E   E   E   E   E   E      E   E   E   Q     E   S   S   E   
--------------------------------|------------------------------------|
--------13----------14----------|--13----------11--------11h-13p-11--|
--10--------10--10------10--10--|------10--10--------10--------------|
--------------------------------|------------------------------------|
--------------------------------|------------------------------------|
--------------------------------|------------------------------------|


   Q    E  E  E  E  E  E     E  E  E  Q    E  Q     
--------------------------|------------------------|
--------9--------9--------|--9--------9-------9----|
--\6-------6--6-----6--6--|-----6--6-------6-------|
--------------------------|------------------------|
--------------------------|------------------------|
--------------------------|------------------------|


   Q     E  E  E   E  E  E      E  E  E   Q    E   E    E   
----------------------------|------------------------------|
--------11--------11--------|--11--------11-------11s--13--|
--/8--------8--8------8--8--|------8--8--------8-----------|
----------------------------|------------------------------|
----------------------------|------------------------------|
----------------------------|------------------------------|


       PM  PM      PM  PM      PM     PM      PM  PM             
   E   E   E   E   E   E   E   E      E   E   E   E   Q    Q     
----------------------------------|-----------------------------|
----------------------------------|-----------------------------|
----------------------------------|-----------------------------|
--10----------10----------10------|------10----------10----8----|
--10--10--10--10--10--10--10--10--|--10--10--10--10--10----8----|
---8---8---8---8---8---8---8---8--|---8---8---8---8---8----8----|


       PM  PM      PM  PM      PM     PM      PM  PM             
   E   E   E   E   E   E   E   E      E   E   E   E   Q    Q     
----------------------------------|-----------------------------|
----------------------------------|-----------------------------|
----------------------------------|-----------------------------|
--10----------10----------10------|------10----------10----8----|
--10--10--10--10--10--10--10--10--|--10--10--10--10--10----8----|
---8---8---8---8---8---8---8---8--|---8---8---8---8---8----8----|


     PM PM    PM PM    PM    PM    PM PM                 PM PM    PM PM    PM  
  E  E  E  E  E  E  E  E     E  E  E  E  Q    Q       E  E  E  E  E  E  E  E   
--------------------------|------------------------|--------------------------|
--------------------------|------------------------|--------------------------|
--------------------------|------------------------|--------------------------|
--6--------6--------6-----|-----6--------6----6----|--8--------8--------8-----|
--6--6--6--6--6--6--6--6--|--6--6--6--6--6----6----|--8--8--8--8--8--8--8--8--|
--4--4--4--4--4--4--4--4--|--4--4--4--4--4----4----|--6--6--6--6--6--6--6--6--|


  PM    PM PM                   PM  PM      PM  PM      PM  
  E  E  E  E  Q    Q        E   E   E   E   E   E   E   E   
------------------------|----------------------------------|
------------------------|----------------------------------|
------------------------|----------------------------------|
-----8--------8----6----|--10----------10----------10------|
--8--8--8--8--8----6----|--10--10--10--10--10--10--10--10--|
--6--6--6--6--6----6----|---8---8---8---8---8---8---8---8--|


   PM      PM  PM                    PM  PM      PM  PM      PM  
   E   E   E   E   Q    Q        E   E   E   E   E   E   E   E   
-----------------------------|----------------------------------|
-----------------------------|----------------------------------|
-----------------------------|----------------------------------|
------10----------10----8----|--10----------10----------10------|
--10--10--10--10--10----8----|--10--10--10--10--10--10--10--10--|
---8---8---8---8---8----8----|---8---8---8---8---8---8---8---8--|


   PM      PM  PM                  PM PM    PM PM    PM  
   E   E   E   E   Q    Q       E  E  E  E  E  E  E  E   
-----------------------------|--------------------------|
-----------------------------|--------------------------|
-----------------------------|--------------------------|
------10----------10----8----|--6--------6--------6-----|
--10--10--10--10--10----8----|--6--6--6--6--6--6--6--6--|
---8---8---8---8---8----8----|--4--4--4--4--4--4--4--4--|


  PM    PM PM                 PM PM    PM PM    PM    PM    PM PM            
  E  E  E  E  Q    Q       E  E  E  E  E  E  E  E     E  E  E  E  Q    Q     
------------------------|--------------------------|------------------------|
------------------------|--------------------------|------------------------|
------------------------|--------------------------|------------------------|
-----6--------6----6----|--8--------8--------8-----|-----8--------8----6----|
--6--6--6--6--6----6----|--8--8--8--8--8--8--8--8--|--8--8--8--8--8----6----|
--4--4--4--4--4----4----|--6--6--6--6--6--6--6--6--|--6--6--6--6--6----6----|


     PM      PM PM    PM       PM      PM PM    PM       PM      PM PM    PM  
  E  E  Q    E  E  E  E     E  E  Q    E  E  E  E     E  E  Q    E  E  E  E   
-------------------------|-------------------------|-------------------------|
-------------------------|-------------------------|-------------------------|
-------------------------|-------------------------|-------------------------|
--3-----3----------------|--3-----3----------------|--3-----3----------------|
--3--3--3----3--3-----3--|--3--3--3----3--3-----3--|--3--3--3----3--3-----3--|
--1--1--1----1--1-----1--|--1--1--1----1--1-----1--|--1--1--1----1--1-----1--|


                               PM      PM PM    PM       PM      PM PM    PM  
  Q    Q    E  E  E  E      E  E  Q    E  E  E  E     E  E  Q    E  E  E  E   
-------------------------|-------------------------|-------------------------|
-------------------------|-------------------------|-------------------------|
-------------------------|-------------------------|-------------------------|
--6----6----8--8--8--L\--|--3-----3----------------|--3-----3----------------|
--6----6----8--8--8--L\--|--3--3--3----3--3-----3--|--3--3--3----3--3-----3--|
--4----4----6--6--6--L\--|--1--1--1----1--1-----1--|--1--1--1----1--1-----1--|


     PM      PM PM    PM                            
  E  E  Q    E  E  E  E     Q    Q    E  E  E  E    
-------------------------|-------------------------|
-------------------------|-------------------------|
-------------------------|-------------------------|
--3-----3----------------|--6----6----8--8--8--L\--|
--3--3--3----3--3-----3--|--6----6----8--8--8--L\--|
--1--1--1----1--1-----1--|--4----4----6--6--6--L\--|


   E   E   E   E   E   E   E   E      E   E   E   Q     E   E   E   
----------------------------------|--------------------------------|
----------13----------14----------|--13----------11--------11--13--|
--10--10------10--10------10--10--|------10--10--------10----------|
----------------------------------|--------------------------------|
----------------------------------|--------------------------------|
----------------------------------|--------------------------------|


   Q     E   E   E   E   E   E      E   E   E   Q     E   S   S   E   
--------------------------------|------------------------------------|
--------13----------14----------|--13----------11--------11h-13p-11--|
--10--------10--10------10--10--|------10--10--------10--------------|
--------------------------------|------------------------------------|
--------------------------------|------------------------------------|
--------------------------------|------------------------------------|


   Q    E  E  E  E  E  E     E  E  E  Q    E  Q     
--------------------------|------------------------|
--------9--------9--------|--9--------9-------9----|
--\6-------6--6-----6--6--|-----6--6-------6-------|
--------------------------|------------------------|
--------------------------|------------------------|
--------------------------|------------------------|


   Q     E  E  E   E  E  E      E  E  E   Q    E   E    E   
----------------------------|------------------------------|
--------11--------11--------|--11--------11-------11s--13--|
--/8--------8--8------8--8--|------8--8--------8-----------|
----------------------------|------------------------------|
----------------------------|------------------------------|
----------------------------|------------------------------|


   E   E   E   E   E   E   E   E      E   E   E   Q     E   E   E   
----------------------------------|--------------------------------|
----------13----------14----------|--13----------11--------11--13--|
--10--10------10--10------10--10--|------10--10--------10----------|
----------------------------------|--------------------------------|
----------------------------------|--------------------------------|
----------------------------------|--------------------------------|


   Q     E   E   E   E   E   E      E   E   E   Q     E   S   S   E   
--------------------------------|------------------------------------|
--------13----------14----------|--13----------11--------11h-13p-11--|
--10--------10--10------10--10--|------10--10--------10--------------|
--------------------------------|------------------------------------|
--------------------------------|------------------------------------|
--------------------------------|------------------------------------|


   Q    E  E  E  E  E  E     E  E  E  Q    E  Q     
--------------------------|------------------------|
--------9--------9--------|--9--------9-------9----|
--\6-------6--6-----6--6--|-----6--6-------6-------|
--------------------------|------------------------|
--------------------------|------------------------|
--------------------------|------------------------|


   Q     E  E  E   E  E  E      E  E  E   Q    E   E    E   
----------------------------|------------------------------|
--------11--------11--------|--11--------11-------11s--13--|
--/8--------8--8------8--8--|------8--8--------8-----------|
----------------------------|------------------------------|
----------------------------|------------------------------|
----------------------------|------------------------------|


       PM  PM      PM  PM      PM     PM      PM  PM             
   E   E   E   E   E   E   E   E      E   E   E   E   Q    Q     
----------------------------------|-----------------------------|
----------------------------------|-----------------------------|
----------------------------------|-----------------------------|
--10----------10----------10------|------10----------10----8----|
--10--10--10--10--10--10--10--10--|--10--10--10--10--10----8----|
---8---8---8---8---8---8---8---8--|---8---8---8---8---8----8----|


       PM  PM      PM  PM      PM     PM      PM  PM             
   E   E   E   E   E   E   E   E      E   E   E   E   Q    Q     
----------------------------------|-----------------------------|
----------------------------------|-----------------------------|
----------------------------------|-----------------------------|
--10----------10----------10------|------10----------10----8----|
--10--10--10--10--10--10--10--10--|--10--10--10--10--10----8----|
---8---8---8---8---8---8---8---8--|---8---8---8---8---8----8----|


     PM PM    PM PM    PM    PM    PM PM                 PM PM    PM PM    PM  
  E  E  E  E  E  E  E  E     E  E  E  E  Q    Q       E  E  E  E  E  E  E  E   
--------------------------|------------------------|--------------------------|
--------------------------|------------------------|--------------------------|
--------------------------|------------------------|--------------------------|
--6--------6--------6-----|-----6--------6----6----|--8--------8--------8-----|
--6--6--6--6--6--6--6--6--|--6--6--6--6--6----6----|--8--8--8--8--8--8--8--8--|
--4--4--4--4--4--4--4--4--|--4--4--4--4--4----4----|--6--6--6--6--6--6--6--6--|


  PM    PM PM                   PM  PM      PM  PM      PM  
  E  E  E  E  Q    Q        E   E   E   E   E   E   E   E   
------------------------|----------------------------------|
------------------------|----------------------------------|
------------------------|----------------------------------|
-----8--------8----6----|--10----------10----------10------|
--8--8--8--8--8----6----|--10--10--10--10--10--10--10--10--|
--6--6--6--6--6----6----|---8---8---8---8---8---8---8---8--|


   PM      PM  PM                    PM  PM      PM  PM      PM  
   E   E   E   E   Q    Q        E   E   E   E   E   E   E   E   
-----------------------------|----------------------------------|
-----------------------------|----------------------------------|
-----------------------------|----------------------------------|
------10----------10----8----|--10----------10----------10------|
--10--10--10--10--10----8----|--10--10--10--10--10--10--10--10--|
---8---8---8---8---8----8----|---8---8---8---8---8---8---8---8--|


   PM      PM  PM                  PM PM    PM PM    PM  
   E   E   E   E   Q    Q       E  E  E  E  E  E  E  E   
-----------------------------|--------------------------|
-----------------------------|--------------------------|
-----------------------------|--------------------------|
------10----------10----8----|--6--------6--------6-----|
--10--10--10--10--10----8----|--6--6--6--6--6--6--6--6--|
---8---8---8---8---8----8----|--4--4--4--4--4--4--4--4--|


  PM    PM PM                 PM PM    PM PM    PM    PM    PM PM            
  E  E  E  E  Q    Q       E  E  E  E  E  E  E  E     E  E  E  E  Q    Q     
------------------------|--------------------------|------------------------|
------------------------|--------------------------|------------------------|
------------------------|--------------------------|------------------------|
-----6--------6----6----|--8--------8--------8-----|-----8--------8----6----|
--6--6--6--6--6----6----|--8--8--8--8--8--8--8--8--|--8--8--8--8--8----6----|
--4--4--4--4--4----4----|--6--6--6--6--6--6--6--6--|--6--6--6--6--6----6----|


     PM      PM PM    PM       PM      PM PM    PM       PM      PM PM    PM  
  E  E  Q    E  E  E  E     E  E  Q    E  E  E  E     E  E  Q    E  E  E  E   
-------------------------|-------------------------|-------------------------|
-------------------------|-------------------------|-------------------------|
-------------------------|-------------------------|-------------------------|
--3-----3----------------|--3-----3----------------|--3-----3----------------|
--3--3--3----3--3-----3--|--3--3--3----3--3-----3--|--3--3--3----3--3-----3--|
--1--1--1----1--1-----1--|--1--1--1----1--1-----1--|--1--1--1----1--1-----1--|


                               PM      PM PM    PM       PM      PM PM    PM  
  Q    Q    E  E  E  E      E  E  Q    E  E  E  E     E  E  Q    E  E  E  E   
-------------------------|-------------------------|-------------------------|
-------------------------|-------------------------|-------------------------|
-------------------------|-------------------------|-------------------------|
--6----6----8--8--8--L\--|--3-----3----------------|--3-----3----------------|
--6----6----8--8--8--L\--|--3--3--3----3--3-----3--|--3--3--3----3--3-----3--|
--4----4----6--6--6--L\--|--1--1--1----1--1-----1--|--1--1--1----1--1-----1--|


     PM      PM PM    PM                                                
  E  E  Q    E  E  E  E     Q    Q    E  E  E  E      W                 
-------------------------|-------------------------|-------------------|
-------------------------|-------------------------|-------------------|
-------------------------|-------------------------|-------------------|
--3-----3----------------|--6----6----8--8--8--L\--|--3----------------|
--3--3--3----3--3-----3--|--6----6----8--8--8--L\--|--3----------------|
--1--1--1----1--1-----1--|--4----4----6--6--6--L\--|--1----------------|


       PM PM                                       PM PM            
  Q    E  E  Q    Q       W                   Q    E  E  Q    Q     
-----------------------|-------------------|-----------------------|
-----------------------|-------------------|-----------------------|
-----------------------|--5----------------|--L----------5----5----|
--L----------3----3----|--5----------------|--L----5--5--5----5----|
--L----3--3--3----3----|--3----------------|--L----3--3--3----3----|
--L----1--1--1----1----|-------------------|-----------------------|


                           PM PM                                
  W                   Q    E  E  Q    Q       W                 
-------------------|-----------------------|-------------------|
-------------------|-----------------------|-------------------|
-------------------|-----------------------|--8----------------|
--6----------------|--L----------6----6----|--8----------------|
--6----------------|--L----6--6--6----6----|--6----------------|
--4----------------|--L----4--4--4----4----|-------------------|


  PM         PM                                     PM PM            
  E  Q    E  E  Q    E     W                   Q    E  E  Q    Q     
------------------------|-------------------|-----------------------|
------------------------|-------------------|-----------------------|
-----3----3-----3----3--|-------------------|-----------------------|
--3--3----3--3--3----3--|--3----------------|--L----------3----3----|
--1--1----1--1--1----1--|--3----------------|--L----3--3--3----3----|
------------------------|--1----------------|--L----1--1--1----1----|


                           PM PM                                
  W                   Q    E  E  Q    Q       W                 
-------------------|-----------------------|-------------------|
-------------------|-----------------------|-------------------|
--5----------------|--L----------5----5----|-------------------|
--5----------------|--L----5--5--5----5----|--6----------------|
--3----------------|--L----3--3--3----3----|--6----------------|
-------------------|-----------------------|--4----------------|


       PM PM                                  PM         PM          
  Q    E  E  Q    Q       W                   E  Q    E  E  Q    E   
-----------------------|-------------------|------------------------|
-----------------------|-------------------|------------------------|
-----------------------|--8----------------|-----3----3-----3----3--|
--L----------6----6----|--8----------------|--3--3----3--3--3----3--|
--L----6--6--6----6----|--6----------------|--1--1----1--1--1----1--|
--L----4--4--4----4----|-------------------|------------------------|


     PM      PM PM    PM       PM      PM PM    PM       PM      PM PM    PM  
  E  E  Q    E  E  E  E     E  E  Q    E  E  E  E     E  E  Q    E  E  E  E   
-------------------------|-------------------------|-------------------------|
-------------------------|-------------------------|-------------------------|
-------------------------|-------------------------|-------------------------|
--3-----3----------------|--3-----3----------------|--3-----3----------------|
--3--3--3----3--3-----3--|--3--3--3----3--3-----3--|--3--3--3----3--3-----3--|
--1--1--1----1--1-----1--|--1--1--1----1--1-----1--|--1--1--1----1--1-----1--|


                               PM      PM PM    PM       PM      PM PM    PM  
  Q    Q    E  E  E  E      E  E  Q    E  E  E  E     E  E  Q    E  E  E  E   
-------------------------|-------------------------|-------------------------|
-------------------------|-------------------------|-------------------------|
-------------------------|-------------------------|-------------------------|
--6----6----8--8--8--L\--|--3-----3----------------|--3-----3----------------|
--6----6----8--8--8--L\--|--3--3--3----3--3-----3--|--3--3--3----3--3-----3--|
--4----4----6--6--6--L\--|--1--1--1----1--1-----1--|--1--1--1----1--1-----1--|


     PM      PM PM    PM                                 PM      PM PM    PM  
  E  E  Q    E  E  E  E     Q    Q    E  E  E  E      E  E  Q    E  E  E  E   
-------------------------|-------------------------|-------------------------|
-------------------------|-------------------------|-------------------------|
-------------------------|-------------------------|-------------------------|
--3-----3----------------|--6----6----8--8--8--L\--|--3-----3----------------|
--3--3--3----3--3-----3--|--6----6----8--8--8--L\--|--3--3--3----3--3-----3--|
--1--1--1----1--1-----1--|--4----4----6--6--6--L\--|--1--1--1----1--1-----1--|


     PM      PM PM    PM       PM      PM PM    PM                            
  E  E  Q    E  E  E  E     E  E  Q    E  E  E  E     Q    Q    E  E  E  E    
-------------------------|-------------------------|-------------------------|
-------------------------|-------------------------|-------------------------|
-------------------------|-------------------------|-------------------------|
--3-----3----------------|--3-----3----------------|--6----6----8--8--8--L\--|
--3--3--3----3--3-----3--|--3--3--3----3--3-----3--|--6----6----8--8--8--L\--|
--1--1--1----1--1-----1--|--1--1--1----1--1-----1--|--4----4----6--6--6--L\--|


     PM      PM PM    PM       PM      PM PM    PM       PM      PM PM    PM  
  E  E  Q    E  E  E  E     E  E  Q    E  E  E  E     E  E  Q    E  E  E  E   
-------------------------|-------------------------|-------------------------|
-------------------------|-------------------------|-------------------------|
-------------------------|-------------------------|-------------------------|
--3-----3----------------|--3-----3----------------|--3-----3----------------|
--3--3--3----3--3-----3--|--3--3--3----3--3-----3--|--3--3--3----3--3-----3--|
--1--1--1----1--1-----1--|--1--1--1----1--1-----1--|--1--1--1----1--1-----1--|


  Q    Q    E  E  E  E       E   E   E   E   E   E   E   E   
-------------------------|----------------------------------|
-------------------------|----------13----------14----------|
-------------------------|--10--10------10--10------10--10--|
--6----6----8--8--8--L\--|----------------------------------|
--6----6----8--8--8--L\--|----------------------------------|
--4----4----6--6--6--L\--|----------------------------------|


   E   E   E   Q     E   E   E      Q     E   E   E   E   E   E   
--------------------------------|--------------------------------|
--13----------11--------11--13--|--------13----------14----------|
------10--10--------10----------|--10--------10--10------10--10--|
--------------------------------|--------------------------------|
--------------------------------|--------------------------------|
--------------------------------|--------------------------------|


   E   E   E   Q     E   S   S   E      Q    E  E  E  E  E  E   
------------------------------------|--------------------------|
--13----------11--------11h-13p-11--|--------9--------9--------|
------10--10--------10--------------|--\6-------6--6-----6--6--|
------------------------------------|--------------------------|
------------------------------------|--------------------------|
------------------------------------|--------------------------|


  E  E  E  Q    E  Q        Q     E  E  E   E  E  E      W                 
------------------------|----------------------------|--------------------|
--9--------9-------9----|--------11--------11--------|--11----------------|
-----6--6-------6-------|--/8--------8--8------8--8--|--------------------|
------------------------|----------------------------|--------------------|
------------------------|----------------------------|--------------------|
------------------------|----------------------------|--------------------|


  W                   W                  
-------------------|-------------------||
--L----------------|--L----------------||
-------------------|-------------------||
-------------------|-------------------||
-------------------|-------------------||
-------------------|-------------------||

Bass Guitar

     Q       W                   W                   W                 
G||-------|-------------------|-------------------|-------------------|
D||-------|-------------------|-------------------|-------------------|
A||-------|-------------------|-------------------|-------------------|
E||-------|-------------------|-------------------|-------------------|
B||-------|-------------------|-------------------|-------------------|


  W                   W                   W                   W                 
-------------------|-------------------|-------------------|-------------------|
-------------------|-------------------|-------------------|-------------------|
-------------------|-------------------|-------------------|-------------------|
-------------------|-------------------|-------------------|-------------------|
-------------------|-------------------|-------------------|-------------------|


  W                   W                   W                   W                 
-------------------|-------------------|-------------------|-------------------|
-------------------|-------------------|-------------------|-------------------|
-------------------|-------------------|-------------------|-------------------|
-------------------|-------------------|-------------------|-------------------|
-------------------|--1----------------|--L----------------|--1----------------|


  H         Q     Q       W                   H.            E   E   
-----------------------|-------------------|-----------------------|
-----------------------|-------------------|-----------------------|
-----------------------|-------------------|-----------------------|
-----------10----11----|-------------------|---------------10--11--|
--L--------------------|--9----------------|--L--------------------|


   W                   W                   E  E  H.            
--------------------|-------------------|---------------------|
--------------------|-------------------|---------------------|
--------------------|-------------------|---------------------|
--------------------|-------------------|---------------------|
--11----------------|--L----------------|--1-----1------------|


  W                   E  E  H.              H.             E   E   
-------------------|---------------------|------------------------|
-------------------|---------------------|------------------------|
-------------------|---------------------|------------------------|
-------------------|---------------------|---------------/10--11--|
--L----------------|--1-----1------------|--L---------------------|


  E  E  H.              H.             E   E      E  E   H.            
---------------------|------------------------|-----------------------|
---------------------|------------------------|-----------------------|
---------------------|------------------------|-----------------------|
---------------------|---------------/10--11--|-----------------------|
--9-----9------------|--L---------------------|--11-----11------------|


  W                   E  E  E  E  E  E  E  E     E  E  E  E  Q    Q     
-------------------|--------------------------|------------------------|
-------------------|--------------------------|------------------------|
-------------------|--------------------------|------------------------|
-------------------|--3--3--3--3--3--3--3--3--|--3--3--3--3--3----3----|
--L----------------|--------------------------|------------------------|


  E  E  E  E  E  E  E  E     E  E  E  E  Q    Q       E  E  E  E  E  E  E  E   
--------------------------|------------------------|--------------------------|
--------------------------|------------------------|--------------------------|
--------------------------|------------------------|--------------------------|
--3--3--3--3--3--3--3--3--|--3--3--3--3--3----3----|--------------------------|
--------------------------|------------------------|--4--4--4--4--4--4--4--4--|


  E  E  E  E  Q    Q       E  E  E  E  E  E  E  E     E  E  E  E  Q    Q     
------------------------|--------------------------|------------------------|
------------------------|--------------------------|------------------------|
------------------------|--------------------------|------------------------|
------------------------|--1--1--1--1--1--1--1--1--|--1--1--1--1--1----1----|
--4--4--4--4--4----4----|--------------------------|------------------------|


  W                   Q    E  E  Q    Q       W                 
-------------------|-----------------------|-------------------|
-------------------|-----------------------|-------------------|
-------------------|-----------------------|-------------------|
-------------------|-----------------------|--3----------------|
--1----------------|--L----1--1--1----1----|-------------------|


  Q    E  E  Q    Q       W                   Q    E  E  Q    Q     
-----------------------|-------------------|-----------------------|
-----------------------|-------------------|-----------------------|
-----------------------|-------------------|-----------------------|
--L----3--3--3----3----|-------------------|-----------------------|
-----------------------|--4----------------|--L----4--4--4----4----|


  W                   E  Q    E  E  Q    E     W                 
-------------------|------------------------|-------------------|
-------------------|------------------------|-------------------|
--1----------------|------------------------|-------------------|
-------------------|--1--1----1--1--1----1--|-------------------|
-------------------|------------------------|--1----------------|


  Q    E  E  Q    Q       W                   Q    E  E  Q    Q     
-----------------------|-------------------|-----------------------|
-----------------------|-------------------|-----------------------|
-----------------------|-------------------|-----------------------|
-----------------------|--3----------------|--L----3--3--3----3----|
--L----1--1--1----1----|-------------------|-----------------------|


  W                   Q    E  E  Q    Q       W                 
-------------------|-----------------------|-------------------|
-------------------|-----------------------|-------------------|
-------------------|-----------------------|--1----------------|
-------------------|-----------------------|-------------------|
--4----------------|--L----4--4--4----4----|-------------------|


  E  Q    E  E  Q    E     E  E  Q    E  E  E  E     E  E  Q    E  E  E  E   
------------------------|-------------------------|-------------------------|
------------------------|-------------------------|-------------------------|
------------------------|-------------------------|-------------------------|
--1--1----1--1--1----1--|-------------------------|-------------------------|
------------------------|--1--1--1----1--1-----1--|--1--1--1----1--1-----1--|


  E  E  Q    E  E  E  E     Q    Q    E  E  E  E      E  E  Q    E  E  E  E   
-------------------------|-------------------------|-------------------------|
-------------------------|-------------------------|-------------------------|
-------------------------|-------------------------|-------------------------|
-------------------------|-------------------------|-------------------------|
--1--1--1----1--1-----1--|--4----4----6--6--6--L\--|--1--1--1----1--1-----1--|


  E  E  Q    E  E  E  E     E  E  Q    E  E  E  E     Q    Q    E  E  E  E    
-------------------------|-------------------------|-------------------------|
-------------------------|-------------------------|-------------------------|
-------------------------|-------------------------|-------------------------|
-------------------------|-------------------------|-------------------------|
--1--1--1----1--1-----1--|--1--1--1----1--1-----1--|--4----4----6--6--6--L\--|


  W                   W                   W                 
-------------------|-------------------|-------------------|
-------------------|-------------------|-------------------|
--3----------------|--L----------------|--L----------------|
-------------------|-------------------|-------------------|
-------------------|-------------------|-------------------|


  H.           Q        W                   W                 
---------------------|-------------------|-------------------|
---------------------|-------------------|-------------------|
--L------------3\----|-------------------|-------------------|
---------------------|--4----------------|--L----------------|
---------------------|-------------------|-------------------|


  W                   W                   W                   W                 
-------------------|-------------------|-------------------|-------------------|
-------------------|-------------------|-------------------|-------------------|
--1----------------|--L----------------|--3----------------|--L----------------|
-------------------|-------------------|-------------------|-------------------|
-------------------|-------------------|-------------------|-------------------|


  W                   H.           Q        W                 
-------------------|---------------------|-------------------|
-------------------|---------------------|-------------------|
--L----------------|--L------------3\----|-------------------|
-------------------|---------------------|--4----------------|
-------------------|---------------------|-------------------|


  W                   W                   W                 
-------------------|-------------------|-------------------|
-------------------|-------------------|-------------------|
-------------------|--1----------------|--L----------------|
--L----------------|-------------------|-------------------|
-------------------|-------------------|-------------------|


  E  E  E  E  E  E  E  E     E  E  E  E  Q    Q       E  E  E  E  E  E  E  E   
--------------------------|------------------------|--------------------------|
--------------------------|------------------------|--------------------------|
--------------------------|------------------------|--------------------------|
--3--3--3--3--3--3--3--3--|--3--3--3--3--3----3----|--3--3--3--3--3--3--3--3--|
--------------------------|------------------------|--------------------------|


  E  E  E  E  Q    Q       E  E  E  E  E  E  E  E     E  E  E  E  Q    Q     
------------------------|--------------------------|------------------------|
------------------------|--------------------------|------------------------|
------------------------|--------------------------|------------------------|
--3--3--3--3--3----3----|--------------------------|------------------------|
------------------------|--4--4--4--4--4--4--4--4--|--4--4--4--4--4----4----|


  E  E  E  E  E  E  E  E     E  E  E  E  Q    Q       E  E  E  E  E  E  E  E   
--------------------------|------------------------|--------------------------|
--------------------------|------------------------|--------------------------|
--------------------------|------------------------|--------------------------|
--1--1--1--1--1--1--1--1--|--1--1--1--1--1----1----|--3--3--3--3--3--3--3--3--|
--------------------------|------------------------|--------------------------|


  E  E  E  E  Q    Q       E  E  E  E  E  E  E  E     E  E  E  E  Q    Q     
------------------------|--------------------------|------------------------|
------------------------|--------------------------|------------------------|
------------------------|--------------------------|------------------------|
--3--3--3--3--3----3----|--3--3--3--3--3--3--3--3--|--3--3--3--3--3----3----|
------------------------|--------------------------|------------------------|


  E  E  E  E  E  E  E  E     E  E  E  E  Q    Q       E  E  E  E  E  E  E  E   
--------------------------|------------------------|--------------------------|
--------------------------|------------------------|--------------------------|
--------------------------|------------------------|--------------------------|
--------------------------|------------------------|--1--1--1--1--1--1--1--1--|
--4--4--4--4--4--4--4--4--|--4--4--4--4--4----4----|--------------------------|


  E  E  E  E  Q    Q       E  E  Q    E  E  E  E     E  E  Q    E  E  E  E   
------------------------|-------------------------|-------------------------|
------------------------|-------------------------|-------------------------|
------------------------|-------------------------|-------------------------|
--1--1--1--1--1----1----|-------------------------|-------------------------|
------------------------|--1--1--1----1--1-----1--|--1--1--1----1--1-----1--|


  E  E  Q    E  E  E  E     Q    Q    E  E  E  E      E  E  Q    E  E  E  E   
-------------------------|-------------------------|-------------------------|
-------------------------|-------------------------|-------------------------|
-------------------------|-------------------------|-------------------------|
-------------------------|-------------------------|-------------------------|
--1--1--1----1--1-----1--|--4----4----6--6--6--L\--|--1--1--1----1--1-----1--|


  E  E  Q    E  E  E  E     E  E  Q    E  E  E  E     Q    Q    E  E  E  E    
-------------------------|-------------------------|-------------------------|
-------------------------|-------------------------|-------------------------|
-------------------------|-------------------------|-------------------------|
-------------------------|-------------------------|-------------------------|
--1--1--1----1--1-----1--|--1--1--1----1--1-----1--|--4----4----6--6--6--L\--|


  W                   W                   W                 
-------------------|-------------------|-------------------|
-------------------|-------------------|-------------------|
--3----------------|--L----------------|--L----------------|
-------------------|-------------------|-------------------|
-------------------|-------------------|-------------------|


  H.           Q        W                   W                 
---------------------|-------------------|-------------------|
---------------------|-------------------|-------------------|
--L------------3\----|-------------------|-------------------|
---------------------|--4----------------|--L----------------|
---------------------|-------------------|-------------------|


  W                   W                   W                   W                 
-------------------|-------------------|-------------------|-------------------|
-------------------|-------------------|-------------------|-------------------|
--1----------------|--L----------------|--3----------------|--L----------------|
-------------------|-------------------|-------------------|-------------------|
-------------------|-------------------|-------------------|-------------------|


  W                   H.           Q        W                 
-------------------|---------------------|-------------------|
-------------------|---------------------|-------------------|
--L----------------|--L------------3\----|-------------------|
-------------------|---------------------|--4----------------|
-------------------|---------------------|-------------------|


  W                   W                   W                 
-------------------|-------------------|-------------------|
-------------------|-------------------|-------------------|
-------------------|--1----------------|--L----------------|
--L----------------|-------------------|-------------------|
-------------------|-------------------|-------------------|


  E  E  E  E  E  E  E  E     E  E  E  E  Q    Q       E  E  E  E  E  E  E  E   
--------------------------|------------------------|--------------------------|
--------------------------|------------------------|--------------------------|
--------------------------|------------------------|--------------------------|
--3--3--3--3--3--3--3--3--|--3--3--3--3--3----3----|--3--3--3--3--3--3--3--3--|
--------------------------|------------------------|--------------------------|


  E  E  E  E  Q    Q       E  E  E  E  E  E  E  E     E  E  E  E  Q    Q     
------------------------|--------------------------|------------------------|
------------------------|--------------------------|------------------------|
------------------------|--------------------------|------------------------|
--3--3--3--3--3----3----|--------------------------|------------------------|
------------------------|--4--4--4--4--4--4--4--4--|--4--4--4--4--4----4----|


  E  E  E  E  E  E  E  E     E  E  E  E  Q    Q       E  E  E  E  E  E  E  E   
--------------------------|------------------------|--------------------------|
--------------------------|------------------------|--------------------------|
--------------------------|------------------------|--------------------------|
--1--1--1--1--1--1--1--1--|--1--1--1--1--1----1----|--3--3--3--3--3--3--3--3--|
--------------------------|------------------------|--------------------------|


  E  E  E  E  Q    Q       E  E  E  E  E  E  E  E     E  E  E  E  Q    Q     
------------------------|--------------------------|------------------------|
------------------------|--------------------------|------------------------|
------------------------|--------------------------|------------------------|
--3--3--3--3--3----3----|--3--3--3--3--3--3--3--3--|--3--3--3--3--3----3----|
------------------------|--------------------------|------------------------|


  E  E  E  E  E  E  E  E     E  E  E  E  Q    Q       E  E  E  E  E  E  E  E   
--------------------------|------------------------|--------------------------|
--------------------------|------------------------|--------------------------|
--------------------------|------------------------|--------------------------|
--------------------------|------------------------|--1--1--1--1--1--1--1--1--|
--4--4--4--4--4--4--4--4--|--4--4--4--4--4----4----|--------------------------|


  E  E  E  E  Q    Q       E  E  Q    E  E  E  E     E  E  Q    E  E  E  E   
------------------------|-------------------------|-------------------------|
------------------------|-------------------------|-------------------------|
------------------------|-------------------------|-------------------------|
--1--1--1--1--1----1----|-------------------------|-------------------------|
------------------------|--1--1--1----1--1-----1--|--1--1--1----1--1-----1--|


  E  E  Q    E  E  E  E     Q    Q    E  E  E  E      E  E  Q    E  E  E  E   
-------------------------|-------------------------|-------------------------|
-------------------------|-------------------------|-------------------------|
-------------------------|-------------------------|-------------------------|
-------------------------|-------------------------|-------------------------|
--1--1--1----1--1-----1--|--4----4----6--6--6--L\--|--1--1--1----1--1-----1--|


  E  E  Q    E  E  E  E     E  E  Q    E  E  E  E     Q    Q    E  E  E  E    
-------------------------|-------------------------|-------------------------|
-------------------------|-------------------------|-------------------------|
-------------------------|-------------------------|-------------------------|
-------------------------|-------------------------|-------------------------|
--1--1--1----1--1-----1--|--1--1--1----1--1-----1--|--4----4----6--6--6--L\--|


  W                   Q    E  E  Q    Q       W                 
-------------------|-----------------------|-------------------|
-------------------|-----------------------|-------------------|
-------------------|-----------------------|-------------------|
-------------------|-----------------------|--3----------------|
--1----------------|--L----1--1--1----1----|-------------------|


  Q    E  E  Q    Q       W                   Q    E  E  Q    Q     
-----------------------|-------------------|-----------------------|
-----------------------|-------------------|-----------------------|
-----------------------|-------------------|-----------------------|
--L----3--3--3----3----|-------------------|-----------------------|
-----------------------|--4----------------|--L----4--4--4----4----|


  W                   E  Q    E  E  Q    E     W                 
-------------------|------------------------|-------------------|
-------------------|------------------------|-------------------|
--1----------------|------------------------|-------------------|
-------------------|--1--1----1--1--1----1--|-------------------|
-------------------|------------------------|--1----------------|


  Q    E  E  Q    Q       W                   Q    E  E  Q    Q     
-----------------------|-------------------|-----------------------|
-----------------------|-------------------|-----------------------|
-----------------------|-------------------|-----------------------|
-----------------------|--3----------------|--L----3--3--3----3----|
--L----1--1--1----1----|-------------------|-----------------------|


  W                   Q    E  E  Q    Q       W                 
-------------------|-----------------------|-------------------|
-------------------|-----------------------|-------------------|
-------------------|-----------------------|--1----------------|
-------------------|-----------------------|-------------------|
--4----------------|--L----4--4--4----4----|-------------------|


  E  Q    E  E  Q    E     E  E  Q    E  E  E  E     E  E  Q    E  E  E  E   
------------------------|-------------------------|-------------------------|
------------------------|-------------------------|-------------------------|
------------------------|-------------------------|-------------------------|
--1--1----1--1--1----1--|-------------------------|-------------------------|
------------------------|--1--1--1----1--1-----1--|--1--1--1----1--1-----1--|


  E  E  Q    E  E  E  E     Q    Q    E  E  E  E      E  E  Q    E  E  E  E   
-------------------------|-------------------------|-------------------------|
-------------------------|-------------------------|-------------------------|
-------------------------|-------------------------|-------------------------|
-------------------------|-------------------------|-------------------------|
--1--1--1----1--1-----1--|--4----4----6--6--6--L\--|--1--1--1----1--1-----1--|


  E  E  Q    E  E  E  E     E  E  Q    E  E  E  E     Q    Q    E  E  E  E    
-------------------------|-------------------------|-------------------------|
-------------------------|-------------------------|-------------------------|
-------------------------|-------------------------|-------------------------|
-------------------------|-------------------------|-------------------------|
--1--1--1----1--1-----1--|--1--1--1----1--1-----1--|--4----4----6--6--6--L\--|


  E  E  Q    E  E  E  E     E  E  Q    E  E  E  E     E  E  Q    E  E  E  E   
-------------------------|-------------------------|-------------------------|
-------------------------|-------------------------|-------------------------|
-------------------------|-------------------------|-------------------------|
-------------------------|-------------------------|-------------------------|
--1--1--1----1--1-----1--|--1--1--1----1--1-----1--|--1--1--1----1--1-----1--|


  Q    Q    E  E  E  E      E  E  Q    E  E  E  E     E  E  Q    E  E  E  E   
-------------------------|-------------------------|-------------------------|
-------------------------|-------------------------|-------------------------|
-------------------------|-------------------------|-------------------------|
-------------------------|-------------------------|-------------------------|
--4----4----6--6--6--L\--|--1--1--1----1--1-----1--|--1--1--1----1--1-----1--|


  E  E  Q    E  E  E  E     Q    Q    E  E  E  E      W                 
-------------------------|-------------------------|-------------------|
-------------------------|-------------------------|-------------------|
-------------------------|-------------------------|-------------------|
-------------------------|-------------------------|-------------------|
--1--1--1----1--1-----1--|--4----4----6--6--6--L\--|-------------------|


  W                   W                   W                   W                 
-------------------|-------------------|-------------------|-------------------|
-------------------|-------------------|-------------------|-------------------|
-------------------|-------------------|-------------------|-------------------|
-------------------|-------------------|-------------------|-------------------|
-------------------|-------------------|-------------------|-------------------|


  W                   W                   W                   W                 
-------------------|-------------------|-------------------|-------------------|
-------------------|-------------------|-------------------|-------------------|
-------------------|-------------------|-------------------|-------------------|
-------------------|-------------------|-------------------|-------------------|
-------------------|-------------------|-------------------|-------------------|


  W                  
-------------------||
-------------------||
-------------------||
-------------------||
-------------------||




Duration Legend
---------------
W - whole
H - half
Q - quarter
E - 8th
S - 16th
T - 32nd
X - 64th
. - note dotted
|-n-|  - n-tuplets


Tablature Legend
----------------
L - tied note
x - dead note
g - grace note
(n) - ghost note
> - accentuded note
NH - natural harmonic
AH - artificial harmonic
TH - tapped harmonic
SH - semi harmonic
PH - pitch harmonic
h - hammer on
p - pull off
b - bend
br - bendRelease
pb - preBend
pbr - preBendRelease
brb - bendReleaseBend
\n/ - tremolo bar dip
\n - tremolo bar dive
-/n - tremolo bar Release up
/n\ - tremolo bar inverted dip
/n - tremolo bar return
-\n - tremolo bar Release down
S - shift slide
s - legato slide
/ -  slide into from below or out of upwards
\ -  slide into from above or out of downwards
~ - vibrato
W - wide vibrato
tr - trill
TP - tremolo picking
T - tapping
S - slap
P - pop
< - fade in
^ - brush up
v - brush down

==========A Place To DIe==========

Coming Soon

==========The Devil's Own==========

Lead Guitar

      E  E   Q.     E  Q       E  Q    E  E  Q    E     E  E   Q    E  Q    E   
B ||------------------------|------------------------|-------------------------|
F#||------------------------|------------------------|-------------------------|
D ||--4--LS--9------9--9----|--9--9----9--9--9----4--|--L--4S--9----9--9----9--|
A ||------------------------|------------------------|-------------------------|
E ||--2--LS--7------7--7----|--7--7----7--7--7----2--|--L--2S--7----7--7----7--|
B ||------------------------|------------------------|-------------------------|


  Q    E  E  E  E   E   E      E   E   E   E   E   E   E   E   
---------------------------|----------------------------------|
---------------------------|----------------------------------|
--9----9--9--9--9--12--12--|--12--12--14--14--14--14--14--14--|
---------------------------|----------------------------------|
--7----7--7--7--7--10--10--|--10--10--12--12--12--12--12--12--|
---------------------------|----------------------------------|


   E   E   E   E   E   E   E   E      E   E   E   E   E   E   E   E   
----------------------------------|----------------------------------|
----------------------------------|----------------------------------|
--14--14--14--14--14--14--14--14--|--14--14--12--12--12--12--12--12--|
----------------------------------|----------------------------------|
--12--12--12--12--12--12--12--12--|--12--12--10--10--10--10--10--10--|
----------------------------------|----------------------------------|


   E   E  E  E  E  E  E  E     Q     E  E   E  E   Q     
----------------------------|---------------------------|
----------------------------|---------------------------|
--12--12--9--9--9--9--7--7--|--9----12--9--12--9--------|
----------------------------|---------------------12----|
--10--10--7--7--7--7--5--5--|---------------------------|
----------------------------|---------------------------|


  E   E   E  E   E  E   E  E     Q     E  E   E  E   Q     
------------------------------|---------------------------|
----------------12------------|---------------------------|
-----12--11--9------9------9--|--9----12--9--12--9--------|
--L--------------------12-----|---------------------12----|
------------------------------|---------------------------|
------------------------------|---------------------------|


  E   E   E  E   E  E   E  E     Q     E  E   E  E   Q     
----------------10------------|---------------------------|
------------------------------|---------------------------|
-----12--11--9------9------9--|--9----12--9--12--9--------|
--L--------------------12-----|---------------------12----|
------------------------------|---------------------------|
------------------------------|---------------------------|


  E   E   E  E   E  E   E  E      S  S  S  S  E   E   E   E  E   E   
------------------------------|--------10-10------------------------|
----------------12------------|--10-12-------12--10-----------------|
-----12--11--9------9------9--|----------------------12--11--9------|
--L--------------------12-----|---------------------------------12--|
------------------------------|-------------------------------------|
------------------------------|-------------------------------------|


  E   E   E   E   E   E  Q       Q     E  E   E  E   Q     
------------------------------|---------------------------|
-------------10---------------|---------------------------|
--9--11--12------12--11--9----|--9----12--9--12--9--------|
------------------------------|---------------------12----|
------------------------------|---------------------------|
------------------------------|---------------------------|


  E   E   E  E   E  E   E  E     Q     E  E   E  E   Q     
------------------------------|---------------------------|
----------------12------------|---------------------------|
-----12--11--9------9------9--|--9----12--9--12--9--------|
--L--------------------12-----|---------------------12----|
------------------------------|---------------------------|
------------------------------|---------------------------|


  E   E   E  E   E  E   E  E     Q     E  E   E  E   Q     
----------------10------------|---------------------------|
------------------------------|---------------------------|
-----12--11--9------9------9--|--9----12--9--12--9--------|
--L--------------------12-----|---------------------12----|
------------------------------|---------------------------|
------------------------------|---------------------------|


  E   E   E  E   E  E   E  E      S  S  S  S  E   E   E   E  E   E   
------------------------------|--------10-10------------------------|
----------------12------------|--10-12-------12--10-----------------|
-----12--11--9------9------9--|----------------------12--11--9------|
--L--------------------12-----|---------------------------------12--|
------------------------------|-------------------------------------|
------------------------------|-------------------------------------|


                                 PM PM PM     PM PM PM   PM   PM PM PM    
  E   E   E   E   E   E  Q       S  S  S  E.  S  S  S  S S  S S  S  S  S  
------------------------------|------------------------------------------|
-------------10---------------|------------------------------------------|
--9--11--12------12--11--9----|------------------------------------------|
------------------------------|------------------------------------------|
------------------------------|--5--5--5------5--5--5----5----5--5--5----|
------------------------------|--3--3--3------3--3--3----3----3--3--3----|


  PM PM PM     PM PM PM   PM   PM PM PM    
  S  S  S  E.  S  S  S  S S  S S  S  S  S  
------------------------------------------|
------------------------------------------|
------------------------------------------|
------------------------------------------|
--5--5--5------5--5--5----5----5--5--5----|
--3--3--3------3--3--3----3----3--3--3----|


  PM PM PM     PM PM PM   PM   PM PM PM    
  S  S  S  E.  S  S  S  S S  S S  S  S  S  
------------------------------------------|
------------------------------------------|
------------------------------------------|
------------------------------------------|
--5--5--5------5--5--5----5----5--5--5----|
--3--3--3------3--3--3----3----3--3--3----|


  PM PM PM PM PM PM PM PM PM PM PM PM PM PM PM PM  
  S  S  S  S  S  S  S  S  S  S  S  S  S  S  S  S   
--------------------------------------------------|
--------------------------------------------------|
--------------------------------------------------|
--------------------------------------------------|
--------------------------------------------------|
--0--1--2--3--4--3--2--1--7--6--5--4--6--5--4--3--|


  PM PM PM     PM PM PM   PM   PM PM PM    
  S  S  S  E.  S  S  S  S S  S S  S  S  S  
------------------------------------------|
------------------------------------------|
------------------------------------------|
------------------------------------------|
--5--5--5------5--5--5----5----5--5--5----|
--3--3--3------3--3--3----3----3--3--3----|


  PM PM PM     PM PM PM   PM   PM PM PM    
  S  S  S  E.  S  S  S  S S  S S  S  S  S  
------------------------------------------|
------------------------------------------|
------------------------------------------|
------------------------------------------|
--5--5--5------5--5--5----5----5--5--5----|
--3--3--3------3--3--3----3----3--3--3----|


  PM PM PM     PM PM PM   PM   PM PM PM    
  S  S  S  E.  S  S  S  S S  S S  S  S  S  
------------------------------------------|
------------------------------------------|
------------------------------------------|
------------------------------------------|
--5--5--5------5--5--5----5----5--5--5----|
--3--3--3------3--3--3----3----3--3--3----|


  PM PM PM PM PM PM PM PM PM PM PM PM PM PM PM PM  
  S  S  S  S  S  S  S  S  S  S  S  S  S  S  S  S   
--------------------------------------------------|
--------------------------------------------------|
--------------------------------------------------|
--------------------------------------------------|
--------------------------------------------------|
--0--1--2--3--4--3--2--1--7--6--5--4--6--5--4--3--|


  PM PM PM     PM PM PM   PM   PM PM PM    
  S  S  S  E.  S  S  S  S S  S S  S  S  S  
------------------------------------------|
------------------------------------------|
------------------------------------------|
------------------------------------------|
--5--5--5------5--5--5----5----5--5--5----|
--3--3--3------3--3--3----3----3--3--3----|


  PM PM PM     PM PM PM   PM   PM PM PM    
  S  S  S  E.  S  S  S  S S  S S  S  S  S  
------------------------------------------|
------------------------------------------|
------------------------------------------|
------------------------------------------|
--5--5--5------5--5--5----5----5--5--5----|
--3--3--3------3--3--3----3----3--3--3----|


  PM PM PM     PM PM PM   PM   PM PM PM    
  S  S  S  E.  S  S  S  S S  S S  S  S  S  
------------------------------------------|
------------------------------------------|
------------------------------------------|
------------------------------------------|
--5--5--5------5--5--5----5----5--5--5----|
--3--3--3------3--3--3----3----3--3--3----|


  PM PM PM PM PM PM PM PM PM PM PM PM PM PM PM PM  
  S  S  S  S  S  S  S  S  S  S  S  S  S  S  S  S   
--------------------------------------------------|
--------------------------------------------------|
--------------------------------------------------|
--------------------------------------------------|
--------------------------------------------------|
--0--1--2--3--4--3--2--1--7--6--5--4--6--5--4--3--|


  PM PM PM     PM PM PM   PM   PM PM PM    
  S  S  S  E.  S  S  S  S S  S S  S  S  S  
------------------------------------------|
------------------------------------------|
------------------------------------------|
------------------------------------------|
--5--5--5------5--5--5----5----5--5--5----|
--3--3--3------3--3--3----3----3--3--3----|


  PM PM PM     PM PM PM   PM   PM PM PM    
  S  S  S  E.  S  S  S  S S  S S  S  S  S  
------------------------------------------|
------------------------------------------|
------------------------------------------|
------------------------------------------|
--5--5--5------5--5--5----5----5--5--5----|
--3--3--3------3--3--3----3----3--3--3----|


  PM PM PM     PM PM PM   PM   PM PM PM    
  S  S  S  E.  S  S  S  S S  S S  S  S  S  
------------------------------------------|
------------------------------------------|
------------------------------------------|
------------------------------------------|
--5--5--5------5--5--5----5----5--5--5----|
--3--3--3------3--3--3----3----3--3--3----|


  PM PM PM PM PM PM PM PM PM PM PM PM PM PM PM PM  
  S  S  S  S  S  S  S  S  S  S  S  S  S  S  S  S   
--------------------------------------------------|
--------------------------------------------------|
--------------------------------------------------|
--------------------------------------------------|
--------------------------------------------------|
--0--1--2--3--4--3--2--1--7--6--5--4--6--5--4--3--|


       PM PM PM PM      PM PM PM PM         PM PM PM PM            
  Q    S  S  S  S  Q    S  S  S  S     Q    S  S  S  S  Q    Q     
------------------------------------|-----------------------------|
------------------------------------|-----------------------------|
------------------------------------|-------------------5----4----|
--2----------------2----------------|--2----------------5----4----|
--2----------------2----------------|--2----------------3----2----|
--0----0--0--0--0--0----0--0--0--0--|--0----0--0--0--0------------|


       PM PM PM PM      PM PM PM PM         PM PM PM PM PM   PM   PM    
                                                        |----3----|     
  Q    S  S  S  S  Q    S  S  S  S     Q    S  S  S  S  Q    Q    Q     
------------------------------------|----------------------------------|
------------------------------------|----------------------------------|
------------------------------------|----------------------------------|
--5----------------5----------------|--7----------------7----6----5----|
--5----------------5----------------|--7----------------7----6----5----|
--3----3--3--3--3--3----3--3--3--3--|--5----5--5--5--5--5----4----3----|


       PM PM PM PM      PM PM PM PM         PM PM PM PM            
  Q    S  S  S  S  Q    S  S  S  S     Q    S  S  S  S  Q    Q     
------------------------------------|-----------------------------|
------------------------------------|-----------------------------|
------------------------------------|-------------------5----4----|
--2----------------2----------------|--2----------------5----4----|
--2----------------2----------------|--2----------------3----2----|
--0----0--0--0--0--0----0--0--0--0--|--0----0--0--0--0------------|


       PM PM PM PM      PM PM PM PM         PM PM PM PM PM   PM   PM    
                                                        |----3----|     
  Q    S  S  S  S  Q    S  S  S  S     Q    S  S  S  S  Q    Q    Q     
------------------------------------|----------------------------------|
------------------------------------|----------------------------------|
------------------------------------|----------------------------------|
--5----------------5----------------|--7----------------7----6----5----|
--5----------------5----------------|--7----------------7----6----5----|
--3----3--3--3--3--3----3--3--3--3--|--5----5--5--5--5--5----4----3----|


   E  E   E   E   E  E   E   E      E  E   E   E   E   E   E  E   
--------------------------------|--------------------------------|
--------------------------------|-----------------10-------------|
------9--11--12------9--11--12--|------9--11--12------12--11--9--|
--12-------------12-------------|--12----------------------------|
--------------------------------|--------------------------------|
--------------------------------|--------------------------------|


   E   E   E   E   E   E   E   E      E   E   E   E   E   E   E   E   
----------------------------------|------------------10--------------|
------10--12--13------10--12--13--|------10--12--13------13--12--10--|
--12--------------12--------------|--12------------------------------|
----------------------------------|----------------------------------|
----------------------------------|----------------------------------|
----------------------------------|----------------------------------|


   E  E   E   E   E  E   E   E      E  E   E   E   E   E   E  E   
--------------------------------|--------------------------------|
--------------------------------|-----------------10-------------|
------9--11--12------9--11--12--|------9--11--12------12--11--9--|
--12-------------12-------------|--12----------------------------|
--------------------------------|--------------------------------|
--------------------------------|--------------------------------|


                                                      |-----3-----|     
   E   E   E   E   E   E   E   E      E   E   E   E   Q     Q     Q     
----------------------------------|------------------10----------------|
------10--12--13------10--12--13--|------10--12--13--------13----12----|
--12--------------12--------------|--12--------------------------------|
----------------------------------|------------------------------------|
----------------------------------|------------------------------------|
----------------------------------|------------------------------------|


  Q     E  E   E  E   Q       E   E   E  E   E  E   E  E   
---------------------------|------------------------------|
---------------------------|----------------12------------|
--9----12--9--12--9--------|-----12--11--9------9------9--|
---------------------12----|--L--------------------12-----|
---------------------------|------------------------------|
---------------------------|------------------------------|


  Q     E  E   E  E   Q       E   E   E  E   E  E   E  E   
---------------------------|----------------10------------|
---------------------------|------------------------------|
--9----12--9--12--9--------|-----12--11--9------9------9--|
---------------------12----|--L--------------------12-----|
---------------------------|------------------------------|
---------------------------|------------------------------|


  Q     E  E   E  E   Q       E   E   E  E   E  E   E  E   
---------------------------|------------------------------|
---------------------------|----------------12------------|
--9----12--9--12--9--------|-----12--11--9------9------9--|
---------------------12----|--L--------------------12-----|
---------------------------|------------------------------|
---------------------------|------------------------------|


   S  S  S  S  E   E   E   E  E   E     E   E   E   E   E   E  Q     
--------10-10------------------------|------------------------------|
--10-12-------12--10-----------------|-------------10---------------|
----------------------12--11--9------|--9--11--12------12--11--9----|
---------------------------------12--|------------------------------|
-------------------------------------|------------------------------|
-------------------------------------|------------------------------|


  Q     E  E   E  E   Q       E   E   E  E   E  E   E  E   
---------------------------|------------------------------|
---------------------------|----------------12------------|
--9----12--9--12--9--------|-----12--11--9------9------9--|
---------------------12----|--L--------------------12-----|
---------------------------|------------------------------|
---------------------------|------------------------------|


  Q     E  E   E  E   Q       E   E   E  E   E  E   E  E   
---------------------------|----------------10------------|
---------------------------|------------------------------|
--9----12--9--12--9--------|-----12--11--9------9------9--|
---------------------12----|--L--------------------12-----|
---------------------------|------------------------------|
---------------------------|------------------------------|


  Q     E  E   E  E   Q       E   E   E  E   E  E   E  E   
---------------------------|------------------------------|
---------------------------|----------------12------------|
--9----12--9--12--9--------|-----12--11--9------9------9--|
---------------------12----|--L--------------------12-----|
---------------------------|------------------------------|
---------------------------|------------------------------|


   S  S  S  S  E   E   E   E  E   E     E   E   E   E   E   E  Q     
--------10-10------------------------|------------------------------|
--10-12-------12--10-----------------|-------------10---------------|
----------------------12--11--9------|--9--11--12------12--11--9----|
---------------------------------12--|------------------------------|
-------------------------------------|------------------------------|
-------------------------------------|------------------------------|


  PM PM PM     PM PM PM   PM   PM PM PM    
  S  S  S  E.  S  S  S  S S  S S  S  S  S  
------------------------------------------|
------------------------------------------|
------------------------------------------|
------------------------------------------|
--5--5--5------5--5--5----5----5--5--5----|
--3--3--3------3--3--3----3----3--3--3----|


  PM PM PM     PM PM PM   PM   PM PM PM    
  S  S  S  E.  S  S  S  S S  S S  S  S  S  
------------------------------------------|
------------------------------------------|
------------------------------------------|
------------------------------------------|
--5--5--5------5--5--5----5----5--5--5----|
--3--3--3------3--3--3----3----3--3--3----|


  PM PM PM     PM PM PM   PM   PM PM PM    
  S  S  S  E.  S  S  S  S S  S S  S  S  S  
------------------------------------------|
------------------------------------------|
------------------------------------------|
------------------------------------------|
--5--5--5------5--5--5----5----5--5--5----|
--3--3--3------3--3--3----3----3--3--3----|


  PM PM PM PM PM PM PM PM PM PM PM PM PM PM PM PM  
  S  S  S  S  S  S  S  S  S  S  S  S  S  S  S  S   
--------------------------------------------------|
--------------------------------------------------|
--------------------------------------------------|
--------------------------------------------------|
--------------------------------------------------|
--0--1--2--3--4--3--2--1--7--6--5--4--6--5--4--3--|


  PM PM PM     PM PM PM   PM   PM PM PM    
  S  S  S  E.  S  S  S  S S  S S  S  S  S  
------------------------------------------|
------------------------------------------|
------------------------------------------|
------------------------------------------|
--5--5--5------5--5--5----5----5--5--5----|
--3--3--3------3--3--3----3----3--3--3----|


  PM PM PM     PM PM PM   PM   PM PM PM    
  S  S  S  E.  S  S  S  S S  S S  S  S  S  
------------------------------------------|
------------------------------------------|
------------------------------------------|
------------------------------------------|
--5--5--5------5--5--5----5----5--5--5----|
--3--3--3------3--3--3----3----3--3--3----|


  PM PM PM     PM PM PM   PM   PM PM PM    
  S  S  S  E.  S  S  S  S S  S S  S  S  S  
------------------------------------------|
------------------------------------------|
------------------------------------------|
------------------------------------------|
--5--5--5------5--5--5----5----5--5--5----|
--3--3--3------3--3--3----3----3--3--3----|


  PM PM PM PM PM PM PM PM PM PM PM PM PM PM PM PM  
  S  S  S  S  S  S  S  S  S  S  S  S  S  S  S  S   
--------------------------------------------------|
--------------------------------------------------|
--------------------------------------------------|
--------------------------------------------------|
--------------------------------------------------|
--0--1--2--3--4--3--2--1--7--6--5--4--6--5--4--3--|


  PM PM PM     PM PM PM   PM   PM PM PM    
  S  S  S  E.  S  S  S  S S  S S  S  S  S  
------------------------------------------|
------------------------------------------|
------------------------------------------|
------------------------------------------|
--5--5--5------5--5--5----5----5--5--5----|
--3--3--3------3--3--3----3----3--3--3----|


  PM PM PM     PM PM PM   PM   PM PM PM    
  S  S  S  E.  S  S  S  S S  S S  S  S  S  
------------------------------------------|
------------------------------------------|
------------------------------------------|
------------------------------------------|
--5--5--5------5--5--5----5----5--5--5----|
--3--3--3------3--3--3----3----3--3--3----|


  PM PM PM     PM PM PM   PM   PM PM PM    
  S  S  S  E.  S  S  S  S S  S S  S  S  S  
------------------------------------------|
------------------------------------------|
------------------------------------------|
------------------------------------------|
--5--5--5------5--5--5----5----5--5--5----|
--3--3--3------3--3--3----3----3--3--3----|


  PM PM PM PM PM PM PM PM PM PM PM PM PM PM PM PM  
  S  S  S  S  S  S  S  S  S  S  S  S  S  S  S  S   
--------------------------------------------------|
--------------------------------------------------|
--------------------------------------------------|
--------------------------------------------------|
--------------------------------------------------|
--0--1--2--3--4--3--2--1--7--6--5--4--6--5--4--3--|


  PM PM PM     PM PM PM   PM   PM PM PM    
  S  S  S  E.  S  S  S  S S  S S  S  S  S  
------------------------------------------|
------------------------------------------|
------------------------------------------|
------------------------------------------|
--5--5--5------5--5--5----5----5--5--5----|
--3--3--3------3--3--3----3----3--3--3----|


  PM PM PM     PM PM PM   PM   PM PM PM    
  S  S  S  E.  S  S  S  S S  S S  S  S  S  
------------------------------------------|
------------------------------------------|
------------------------------------------|
------------------------------------------|
--5--5--5------5--5--5----5----5--5--5----|
--3--3--3------3--3--3----3----3--3--3----|


  PM PM PM     PM PM PM   PM   PM PM PM    
  S  S  S  E.  S  S  S  S S  S S  S  S  S  
------------------------------------------|
------------------------------------------|
------------------------------------------|
------------------------------------------|
--5--5--5------5--5--5----5----5--5--5----|
--3--3--3------3--3--3----3----3--3--3----|


  PM PM PM PM PM PM PM PM PM PM PM PM PM PM PM PM  
  S  S  S  S  S  S  S  S  S  S  S  S  S  S  S  S   
--------------------------------------------------|
--------------------------------------------------|
--------------------------------------------------|
--------------------------------------------------|
--------------------------------------------------|
--0--1--2--3--4--3--2--1--7--6--5--4--6--5--4--3--|


       PM PM PM PM      PM PM PM PM         PM PM PM PM            
  Q    S  S  S  S  Q    S  S  S  S     Q    S  S  S  S  Q    Q     
------------------------------------|-----------------------------|
------------------------------------|-----------------------------|
------------------------------------|-------------------5----4----|
--2----------------2----------------|--2----------------5----4----|
--2----------------2----------------|--2----------------3----2----|
--0----0--0--0--0--0----0--0--0--0--|--0----0--0--0--0------------|


       PM PM PM PM      PM PM PM PM         PM PM PM PM PM   PM   PM    
                                                        |----3----|     
  Q    S  S  S  S  Q    S  S  S  S     Q    S  S  S  S  Q    Q    Q     
------------------------------------|----------------------------------|
------------------------------------|----------------------------------|
------------------------------------|----------------------------------|
--5----------------5----------------|--7----------------7----6----5----|
--5----------------5----------------|--7----------------7----6----5----|
--3----3--3--3--3--3----3--3--3--3--|--5----5--5--5--5--5----4----3----|


       PM PM PM PM      PM PM PM PM         PM PM PM PM            
  Q    S  S  S  S  Q    S  S  S  S     Q    S  S  S  S  Q    Q     
------------------------------------|-----------------------------|
------------------------------------|-----------------------------|
------------------------------------|-------------------5----4----|
--2----------------2----------------|--2----------------5----4----|
--2----------------2----------------|--2----------------3----2----|
--0----0--0--0--0--0----0--0--0--0--|--0----0--0--0--0------------|


       PM PM PM PM      PM PM PM PM         PM PM PM PM PM   PM   PM    
                                                        |----3----|     
  Q    S  S  S  S  Q    S  S  S  S     Q    S  S  S  S  Q    Q    Q     
------------------------------------|----------------------------------|
------------------------------------|----------------------------------|
------------------------------------|----------------------------------|
--5----------------5----------------|--7----------------7----6----5----|
--5----------------5----------------|--7----------------7----6----5----|
--3----3--3--3--3--3----3--3--3--3--|--5----5--5--5--5--5----4----3----|


   E  E   E   E   E  E   E   E      E  E   E   E   E   E   E  E   
--------------------------------|--------------------------------|
--------------------------------|-----------------10-------------|
------9--11--12------9--11--12--|------9--11--12------12--11--9--|
--12-------------12-------------|--12----------------------------|
--------------------------------|--------------------------------|
--------------------------------|--------------------------------|


   E   E   E   E   E   E   E   E      E   E   E   E   E   E   E   E   
----------------------------------|------------------10--------------|
------10--12--13------10--12--13--|------10--12--13------13--12--10--|
--12--------------12--------------|--12------------------------------|
----------------------------------|----------------------------------|
----------------------------------|----------------------------------|
----------------------------------|----------------------------------|


   E  E   E   E   E  E   E   E      E  E   E   E   E   E   E  E   
--------------------------------|--------------------------------|
--------------------------------|-----------------10-------------|
------9--11--12------9--11--12--|------9--11--12------12--11--9--|
--12-------------12-------------|--12----------------------------|
--------------------------------|--------------------------------|
--------------------------------|--------------------------------|


                                                      |-----3-----|     
   E   E   E   E   E   E   E   E      E   E   E   E   Q     Q     Q     
----------------------------------|------------------10----------------|
------10--12--13------10--12--13--|------10--12--13--------13----12----|
--12--------------12--------------|--12--------------------------------|
----------------------------------|------------------------------------|
----------------------------------|------------------------------------|
----------------------------------|------------------------------------|


  PM PM PM PM PM     PM PM PM PM PM      
  S  S  S  S  S  E.  S  S  S  S  S  E.   
----------------------------------------|
----------------------------------------|
----------------------------------------|
----------------------------------------|
--5--5--5--5--5------5--5--5--5--5------|
--3--3--3--3--3------3--3--3--3--3------|


  PM PM PM PM PM     PM PM PM PM PM      
  S  S  S  S  S  E.  S  S  S  S  S  E.   
----------------------------------------|
----------------------------------------|
----------------------------------------|
----------------------------------------|
--5--5--5--5--5------5--5--5--5--5------|
--3--3--3--3--3------3--3--3--3--3------|


  PM PM PM PM PM     PM PM PM PM PM      
  S  S  S  S  S  E.  S  S  S  S  S  E.   
----------------------------------------|
----------------------------------------|
----------------------------------------|
----------------------------------------|
--5--5--5--5--5------5--5--5--5--5------|
--3--3--3--3--3------3--3--3--3--3------|


  PM PM PM PM PM     PM PM PM PM PM      
  S  S  S  S  S  E.  S  S  S  S  S  E.   
----------------------------------------|
----------------------------------------|
----------------------------------------|
----------------------------------------|
--5--5--5--5--5------5--5--5--5--5------|
--3--3--3--3--3------3--3--3--3--3------|


  PM PM PM PM PM     PM PM PM PM PM      
  S  S  S  S  S  E.  S  S  S  S  S  E.   
----------------------------------------|
----------------------------------------|
----------------------------------------|
----------------------------------------|
--5--5--5--5--5------5--5--5--5--5------|
--3--3--3--3--3------3--3--3--3--3------|


  PM PM PM PM PM     PM PM PM PM PM      
  S  S  S  S  S  E.  S  S  S  S  S  E.   
----------------------------------------|
----------------------------------------|
----------------------------------------|
----------------------------------------|
--5--5--5--5--5------5--5--5--5--5------|
--3--3--3--3--3------3--3--3--3--3------|


  PM PM PM PM PM     PM PM PM PM PM      
  S  S  S  S  S  E.  S  S  S  S  S  E.   
----------------------------------------|
----------------------------------------|
----------------------------------------|
----------------------------------------|
--5--5--5--5--5------5--5--5--5--5------|
--3--3--3--3--3------3--3--3--3--3------|


  PM PM PM PM PM     PM PM PM PM PM        PM PM PM PM              
  S  S  S  S  S  E.  S  S  S  S  S  E.     E  E  E  E  E  E  E  E   
----------------------------------------|--------------------------|
----------------------------------------|--------------------------|
----------------------------------------|-----------0--4--2--0--2--|
----------------------------------------|--0--0--0-----------------|
--5--5--5--5--5------5--5--5--5--5------|--------------------------|
--3--3--3--3--3------3--3--3--3--3------|--------------------------|


  PM PM PM PM               PM PM PM PM              
  E  E  E  E  E  E  Q       E  E  E  E  E  E  E  E   
-------------------------|--------------------------|
-------------------------|--------------------------|
-----------0--4--2--0----|-----------0--4--2--0--2--|
--0--0--0----------------|--0--0--0-----------------|
-------------------------|--------------------------|
-------------------------|--------------------------|


  PM PM PM PM                  PM PM PM PM              
                 |-3-|                                  
  E  E  E  E  E  S S S Q       E  E  E  E  E  E  E  E   
----------------------------|--------------------------|
----------------------------|--------------------------|
-----------0--4--2-4-2-0----|-----------0--4--2--0--2--|
--0--0--0-------------------|--0--0--0-----------------|
----------------------------|--------------------------|
----------------------------|--------------------------|


  PM PM PM PM                PM PM PM PM              
  E  E  E  E  E  E  E  E     E  E  E  E  E  E  E  E   
--------------------------|--------------------------|
--------------------------|--------------------------|
-----------0--4--2--0--2--|-----------0--4--2--0--2--|
--0--0--0-----------------|--0--0--0-----------------|
--------------------------|--------------------------|
--------------------------|--------------------------|


  PM PM PM PM                PM PM PM PM                PM PM PM PM             
  E  E  E  E  E  E  E  E     E  E  E  E  E  E  E  E     E  E  E  E  E  E  Q     
--------------------------|--------------------------|-------------------------|
--------------------------|--------------------------|-------------------------|
-----------0--4--2--0--2--|-----------0--4--2--0--2--|-----------0--4--2--0----|
--0--0--0-----------------|--0--0--0-----------------|--0--0--0----------------|
--------------------------|--------------------------|-------------------------|
--------------------------|--------------------------|-------------------------|


  PM PM PM PM                PM PM PM PM                
                                            |-3-|       
  E  E  E  E  E  E  E  E     E  E  E  E  E  S S S Q     
--------------------------|----------------------------|
--------------------------|----------------------------|
-----------0--4--2--0--2--|-----------0--4--2-4-2-0----|
--0--0--0-----------------|--0--0--0-------------------|
--------------------------|----------------------------|
--------------------------|----------------------------|


  PM PM PM PM                PM PM PM PM              
  E  E  E  E  E  E  E  E     E  E  E  E  E  E  E  E   
--------------------------|--------------------------|
--------------------------|--------------------------|
-----------0--4--2--0--2--|-----------0--4--2--0--2--|
--0--0--0-----------------|--0--0--0-----------------|
--------------------------|--------------------------|
--------------------------|--------------------------|


  PM PM PM PM                PM PM PM PM              
  E  E  E  E  E  E  E  E     E  E  E  E  E  E  E  E   
--------------------------|--------------------------|
--------------------------|--------------------------|
-----------0--4--2--0--2--|-----------0--4--2--0--2--|
--0--0--0-----------------|--0--0--0-----------------|
--------------------------|--------------------------|
--------------------------|--------------------------|


  PM PM PM PM PM   PM                PM PM PM PM PM   PM             
  S  S  S  S  S  S E  E  E  E  E     S  S  S  S  S  S E  E  E  Q     
----------------------------------|---------------------------------|
----------------------------------|---------------------------------|
-------------------0--4--2--0--2--|-------------------0--4--2--0----|
----------------------------------|---------------------------------|
--5--5--5--5--5-------------------|--5--5--5--5--5------------------|
--3--3--3--3--3-------------------|--3--3--3--3--3------------------|


  PM PM PM PM PM   PM                PM PM PM PM PM   PM             
  S  S  S  S  S  S E  E  E  E  E     S  S  S  S  S  S E  E  E  Q     
----------------------------------|---------------------------------|
----------------------------------|---------------------------------|
-------------------0--4--2--0--2--|-------------------0--5--2--4----|
----------------------------------|---------------------------------|
--5--5--5--5--5-------------------|--5--5--5--5--5------------------|
--3--3--3--3--3-------------------|--3--3--3--3--3------------------|


  PM PM PM PM PM   PM                PM PM PM PM PM   PM              
  S  S  S  S  S  S E  E  E  E  E     S  S  S  S  S  S E  E  E  E  E   
----------------------------------|----------------------------------|
----------------------------------|----------------------------------|
-------------------0--4--2--0--2--|-------------------0--4--2--0--2--|
----------------------------------|----------------------------------|
--5--5--5--5--5-------------------|--5--5--5--5--5-------------------|
--3--3--3--3--3-------------------|--3--3--3--3--3-------------------|


  PM PM PM PM PM   PM                PM PM PM PM PM   PM       PM PM  
  S  S  S  S  S  S E  E  E  E  E     S  S  S  S  S  S E  E  E  E  E   
----------------------------------|----------------------------------|
----------------------------------|----------------------------------|
----------------------------------|----------------------------------|
-------------------0--4--2--0--2--|----------------------2-----------|
--5--5--5--5--5-------------------|--5--5--5--5--5----4-----5--4--5--|
--3--3--3--3--3-------------------|--3--3--3--3--3-------------------|


  PM PM PM     PM PM PM   PM   PM PM PM    
  S  S  S  E.  S  S  S  S S  S S  S  S  S  
------------------------------------------|
------------------------------------------|
------------------------------------------|
------------------------------------------|
--5--5--5------5--5--5----5----5--5--5----|
--3--3--3------3--3--3----3----3--3--3----|


  PM PM PM     PM PM PM   PM   PM PM PM           PM PM PM PM      PM PM PM PM  
  S  S  S  E.  S  S  S  S S  S S  S  S  S    Q    S  S  S  S  Q    S  S  S  S   
------------------------------------------|------------------------------------|
------------------------------------------|------------------------------------|
------------------------------------------|------------------------------------|
------------------------------------------|--2----------------2----------------|
--5--5--5------5--5--5----5----5--5--5----|--2----------------2----------------|
--3--3--3------3--3--3----3----3--3--3----|--0----0--0--0--0--0----0--0--0--0--|


       PM PM PM PM                   PM PM PM PM      PM PM PM PM  
  Q    S  S  S  S  Q    Q       Q    S  S  S  S  Q    S  S  S  S   
-----------------------------|------------------------------------|
-----------------------------|------------------------------------|
-------------------5----4----|------------------------------------|
--2----------------5----4----|--5----------------5----------------|
--2----------------3----2----|--5----------------5----------------|
--0----0--0--0--0------------|--3----3--3--3--3--3----3--3--3--3--|


       PM PM PM PM PM   PM   PM           PM PM PM PM      PM PM PM PM  
                   |----3----|                                          
  Q    S  S  S  S  Q    Q    Q       Q    S  S  S  S  Q    S  S  S  S   
----------------------------------|------------------------------------|
----------------------------------|------------------------------------|
----------------------------------|------------------------------------|
--7----------------7----6----5----|--2----------------2----------------|
--7----------------7----6----5----|--2----------------2----------------|
--5----5--5--5--5--5----4----3----|--0----0--0--0--0--0----0--0--0--0--|


       PM PM PM PM                   PM PM PM PM      PM PM PM PM  
  Q    S  S  S  S  Q    Q       Q    S  S  S  S  Q    S  S  S  S   
-----------------------------|------------------------------------|
-----------------------------|------------------------------------|
-------------------5----4----|------------------------------------|
--2----------------5----4----|--5----------------5----------------|
--2----------------3----2----|--5----------------5----------------|
--0----0--0--0--0------------|--3----3--3--3--3--3----3--3--3--3--|


       PM PM PM PM PM   PM   PM                                
                   |----3----|                                 
  Q    S  S  S  S  Q    Q    Q       Q     E  E   E  E   Q     
----------------------------------|---------------------------|
----------------------------------|---------------------------|
----------------------------------|--9----12--9--12--9--------|
--7----------------7----6----5----|---------------------12----|
--7----------------7----6----5----|---------------------------|
--5----5--5--5--5--5----4----3----|---------------------------|


  E   E   E  E   E  E   E  E     Q     E  E   E  E   Q     
------------------------------|---------------------------|
----------------12------------|---------------------------|
-----12--11--9------9------9--|--9----12--9--12--9--------|
--L--------------------12-----|---------------------12----|
------------------------------|---------------------------|
------------------------------|---------------------------|


  E   E   E  E   E  E   E  E     Q     E  E   E  E   Q     
----------------10------------|---------------------------|
------------------------------|---------------------------|
-----12--11--9------9------9--|--9----12--9--12--9--------|
--L--------------------12-----|---------------------12----|
------------------------------|---------------------------|
------------------------------|---------------------------|


  E   E   E  E   E  E   E  E      S  S  S  S  E   E   E   E  E   E   
------------------------------|--------10-10------------------------|
----------------12------------|--10-12-------12--10-----------------|
-----12--11--9------9------9--|----------------------12--11--9------|
--L--------------------12-----|---------------------------------12--|
------------------------------|-------------------------------------|
------------------------------|-------------------------------------|


  E   E   E   E   E   E  Q       Q     E  E   E  E   Q     
------------------------------|---------------------------|
-------------10---------------|---------------------------|
--9--11--12------12--11--9----|--9----12--9--12--9--------|
------------------------------|---------------------12----|
------------------------------|---------------------------|
------------------------------|---------------------------|


  E   E   E  E   E  E   E  E     Q     E  E   E  E   Q     
------------------------------|---------------------------|
----------------12------------|---------------------------|
-----12--11--9------9------9--|--9----12--9--12--9--------|
--L--------------------12-----|---------------------12----|
------------------------------|---------------------------|
------------------------------|---------------------------|


  E   E   E  E   E  E   E  E     Q     E  E   E  E   Q     
----------------10------------|---------------------------|
------------------------------|---------------------------|
-----12--11--9------9------9--|--9----12--9--12--9--------|
--L--------------------12-----|---------------------12----|
------------------------------|---------------------------|
------------------------------|---------------------------|


  E   E   E  E   E  E   E  E      S  S  S  S  E   E   E   E  E   E   
------------------------------|--------10-10------------------------|
----------------12------------|--10-12-------12--10-----------------|
-----12--11--9------9------9--|----------------------12--11--9------|
--L--------------------12-----|---------------------------------12--|
------------------------------|-------------------------------------|
------------------------------|-------------------------------------|


  E   E   E   E   E   E  Q       W                   W                 
------------------------------|-------------------|-------------------|
-------------10---------------|-------------------|-------------------|
--9--11--12------12--11--9----|-------------------|-------------------|
------------------------------|--2----------------|--L----------------|
------------------------------|--2----------------|--L----------------|
------------------------------|--0----------------|--L----------------|


  W                   W                  
-------------------|-------------------||
-------------------|-------------------||
-------------------|-------------------||
--L----------------|--L----------------||
--L----------------|--L----------------||
--L----------------|--L----------------||

Rhythm Guitar

       PM  PM  PM  PM  PM  PM  PM  PM     PM  PM  PM  PM  PM  PM  PM  PM  
       E   E   E   E   E   E   E   E      E   E   E   E   E   E   E   E   
B ||----------------------------------|----------------------------------|
F#||----------------------------------|----------------------------------|
D ||----------------------------------|----------------------------------|
A ||----------------------------------|----------------------------------|
E ||----------------------------------|----------------------------------|
B ||--12--12--12--12--12--12--12--12--|--12--12--12--12--12--12--12--12--|


   PM  PM  PM  PM  PM  PM  PM  PM     PM  PM  PM  PM  PM  PM  PM  PM  
   E   E   E   E   E   E   E   E      E   E   E   E   E   E   E   E   
----------------------------------|----------------------------------|
----------------------------------|----------------------------------|
----------------------------------|----------------------------------|
----------------------------------|----------------------------------|
----------------------------------|----------------------------------|
--12--12--12--12--12--12--12--12--|--12--12--12--12--12--12--12--12--|


   PM  PM  PM  PM  PM  PM  PM  PM     PM  PM  PM  PM  PM  PM  PM  PM  
   E   E   E   E   E   E   E   E      E   E   E   E   E   E   E   E   
----------------------------------|----------------------------------|
----------------------------------|----------------------------------|
----------------------------------|----------------------------------|
----------------------------------|----------------------------------|
----------------------------------|----------------------------------|
--12--12--12--12--12--12--12--12--|--12--12--12--12--12--12--12--12--|


   PM  PM                                                             
   E   E   E   E   E   E   E   E      E   E   E   E   E   E   E   E   
----------------------------------|----------------------------------|
----------------------------------|----------------------------------|
----------------------------------|----------------------------------|
----------------------------------|----------------------------------|
----------------------------------|----------------------------------|
--12--12--12--12--12--12--12--12--|--12--12--12--12--12--12--12--12--|


                                   PM PM                      
  W                   H.           E  E     W                 
-------------------|---------------------|-------------------|
-------------------|---------------------|-------------------|
-------------------|---------------------|-------------------|
--7----------------|--L------------------|--7----------------|
--7----------------|--L------------7--7--|--7----------------|
--5----------------|--L------------5--5--|--5----------------|


  H         T  T  T  T  T  T  T  T  T  T  T  T  T  T  T  T    W                 
-----------------------------------------------------------|-------------------|
-----------------------------------------------------------|-------------------|
-----------------------------------------------------------|-------------------|
--L--------------------------------------------------------|--5----------------|
--L--------------------------------------------------------|--5----------------|
--L--------30-29-28-27-26-25-24-23-22-21-20-19-18-17-16-15-|--3----------------|


  W                   W                   W                   W                 
-------------------|-------------------|-------------------|-------------------|
-------------------|-------------------|-------------------|-------------------|
-------------------|-------------------|-------------------|-------------------|
--L----------------|--3----------------|--2----------------|--7----------------|
--L----------------|--3----------------|--2----------------|--7----------------|
--L----------------|--1----------------|--0----------------|--5----------------|


               PM PM                      
  H.           E  E     W                 
---------------------|-------------------|
---------------------|-------------------|
---------------------|-------------------|
--L------------------|--7----------------|
--L------------7--7--|--7----------------|
--L------------5--5--|--5----------------|


  H         T  T  T  T  T  T  T  T  T  T  T  T  T  T  T  T    W                 
-----------------------------------------------------------|-------------------|
-----------------------------------------------------------|-------------------|
-----------------------------------------------------------|-------------------|
--L--------------------------------------------------------|--5----------------|
--L--------------------------------------------------------|--5----------------|
--L--------30-29-28-27-26-25-24-23-22-21-20-19-18-17-16-15-|--3----------------|


  W                   W                   W                 
-------------------|-------------------|-------------------|
-------------------|-------------------|-------------------|
-------------------|-------------------|-------------------|
--L----------------|--3----------------|--2----------------|
--L----------------|--3----------------|--2----------------|
--L----------------|--1----------------|--0----------------|


  PM PM PM     PM PM PM   PM   PM PM PM    
  S  S  S  E.  S  S  S  S S  S S  S  S  S  
------------------------------------------|
------------------------------------------|
------------------------------------------|
------------------------------------------|
--5--5--5------5--5--5----5----5--5--5----|
--3--3--3------3--3--3----3----3--3--3----|


  PM PM PM     PM PM PM   PM   PM PM PM    
  S  S  S  E.  S  S  S  S S  S S  S  S  S  
------------------------------------------|
------------------------------------------|
------------------------------------------|
------------------------------------------|
--5--5--5------5--5--5----5----5--5--5----|
--3--3--3------3--3--3----3----3--3--3----|


  PM PM PM     PM PM PM   PM   PM PM PM    
  S  S  S  E.  S  S  S  S S  S S  S  S  S  
------------------------------------------|
------------------------------------------|
------------------------------------------|
------------------------------------------|
--5--5--5------5--5--5----5----5--5--5----|
--3--3--3------3--3--3----3----3--3--3----|


  PM PM PM PM PM PM PM PM PM PM PM PM PM PM PM PM  
  S  S  S  S  S  S  S  S  S  S  S  S  S  S  S  S   
--------------------------------------------------|
--------------------------------------------------|
--------------------------------------------------|
--------------------------------------------------|
--------------------------------------------------|
--0--1--2--3--4--3--2--1--7--6--5--4--6--5--4--3--|


  PM PM PM     PM PM PM   PM   PM PM PM    
  S  S  S  E.  S  S  S  S S  S S  S  S  S  
------------------------------------------|
------------------------------------------|
------------------------------------------|
------------------------------------------|
--5--5--5------5--5--5----5----5--5--5----|
--3--3--3------3--3--3----3----3--3--3----|


  PM PM PM     PM PM PM   PM   PM PM PM    
  S  S  S  E.  S  S  S  S S  S S  S  S  S  
------------------------------------------|
------------------------------------------|
------------------------------------------|
------------------------------------------|
--5--5--5------5--5--5----5----5--5--5----|
--3--3--3------3--3--3----3----3--3--3----|


  PM PM PM     PM PM PM   PM   PM PM PM    
  S  S  S  E.  S  S  S  S S  S S  S  S  S  
------------------------------------------|
------------------------------------------|
------------------------------------------|
------------------------------------------|
--5--5--5------5--5--5----5----5--5--5----|
--3--3--3------3--3--3----3----3--3--3----|


  PM PM PM PM PM PM PM PM PM PM PM PM PM PM PM PM  
  S  S  S  S  S  S  S  S  S  S  S  S  S  S  S  S   
--------------------------------------------------|
--------------------------------------------------|
--------------------------------------------------|
--------------------------------------------------|
--------------------------------------------------|
--0--1--2--3--4--3--2--1--7--6--5--4--6--5--4--3--|


  PM PM PM     PM PM PM   PM   PM PM PM    
  S  S  S  E.  S  S  S  S S  S S  S  S  S  
------------------------------------------|
------------------------------------------|
------------------------------------------|
------------------------------------------|
--5--5--5------5--5--5----5----5--5--5----|
--3--3--3------3--3--3----3----3--3--3----|


  PM PM PM     PM PM PM   PM   PM PM PM    
  S  S  S  E.  S  S  S  S S  S S  S  S  S  
------------------------------------------|
------------------------------------------|
------------------------------------------|
------------------------------------------|
--5--5--5------5--5--5----5----5--5--5----|
--3--3--3------3--3--3----3----3--3--3----|


  PM PM PM     PM PM PM   PM   PM PM PM    
  S  S  S  E.  S  S  S  S S  S S  S  S  S  
------------------------------------------|
------------------------------------------|
------------------------------------------|
------------------------------------------|
--5--5--5------5--5--5----5----5--5--5----|
--3--3--3------3--3--3----3----3--3--3----|


  PM PM PM PM PM PM PM PM PM PM PM PM PM PM PM PM  
  S  S  S  S  S  S  S  S  S  S  S  S  S  S  S  S   
--------------------------------------------------|
--------------------------------------------------|
--------------------------------------------------|
--------------------------------------------------|
--------------------------------------------------|
--0--1--2--3--4--3--2--1--7--6--5--4--6--5--4--3--|


  PM PM PM     PM PM PM   PM   PM PM PM    
  S  S  S  E.  S  S  S  S S  S S  S  S  S  
------------------------------------------|
------------------------------------------|
------------------------------------------|
------------------------------------------|
--5--5--5------5--5--5----5----5--5--5----|
--3--3--3------3--3--3----3----3--3--3----|


  PM PM PM     PM PM PM   PM   PM PM PM    
  S  S  S  E.  S  S  S  S S  S S  S  S  S  
------------------------------------------|
------------------------------------------|
------------------------------------------|
------------------------------------------|
--5--5--5------5--5--5----5----5--5--5----|
--3--3--3------3--3--3----3----3--3--3----|


  PM PM PM     PM PM PM   PM   PM PM PM    
  S  S  S  E.  S  S  S  S S  S S  S  S  S  
------------------------------------------|
------------------------------------------|
------------------------------------------|
------------------------------------------|
--5--5--5------5--5--5----5----5--5--5----|
--3--3--3------3--3--3----3----3--3--3----|


  PM PM PM PM PM PM PM PM PM PM PM PM PM PM PM PM  
  S  S  S  S  S  S  S  S  S  S  S  S  S  S  S  S   
--------------------------------------------------|
--------------------------------------------------|
--------------------------------------------------|
--------------------------------------------------|
--------------------------------------------------|
--0--1--2--3--4--3--2--1--7--6--5--4--6--5--4--3--|


       PM PM PM PM      PM PM PM PM         PM PM PM PM            
  Q    S  S  S  S  Q    S  S  S  S     Q    S  S  S  S  Q    Q     
------------------------------------|-----------------------------|
------------------------------------|-----------------------------|
------------------------------------|-------------------5----4----|
--2----------------2----------------|--2----------------5----4----|
--2----------------2----------------|--2----------------3----2----|
--0----0--0--0--0--0----0--0--0--0--|--0----0--0--0--0------------|


       PM PM PM PM      PM PM PM PM         PM PM PM PM PM   PM   PM    
                                                        |----3----|     
  Q    S  S  S  S  Q    S  S  S  S     Q    S  S  S  S  Q    Q    Q     
------------------------------------|----------------------------------|
------------------------------------|----------------------------------|
------------------------------------|----------------------------------|
--5----------------5----------------|--7----------------7----6----5----|
--5----------------5----------------|--7----------------7----6----5----|
--3----3--3--3--3--3----3--3--3--3--|--5----5--5--5--5--5----4----3----|


       PM PM PM PM      PM PM PM PM         PM PM PM PM            
  Q    S  S  S  S  Q    S  S  S  S     Q    S  S  S  S  Q    Q     
------------------------------------|-----------------------------|
------------------------------------|-----------------------------|
------------------------------------|-------------------5----4----|
--2----------------2----------------|--2----------------5----4----|
--2----------------2----------------|--2----------------3----2----|
--0----0--0--0--0--0----0--0--0--0--|--0----0--0--0--0------------|


       PM PM PM PM      PM PM PM PM         PM PM PM PM PM   PM   PM    
                                                        |----3----|     
  Q    S  S  S  S  Q    S  S  S  S     Q    S  S  S  S  Q    Q    Q     
------------------------------------|----------------------------------|
------------------------------------|----------------------------------|
------------------------------------|----------------------------------|
--5----------------5----------------|--7----------------7----6----5----|
--5----------------5----------------|--7----------------7----6----5----|
--3----3--3--3--3--3----3--3--3--3--|--5----5--5--5--5--5----4----3----|


       PM PM PM PM      PM PM PM PM         PM PM PM PM            
  Q    S  S  S  S  Q    S  S  S  S     Q    S  S  S  S  Q    Q     
------------------------------------|-----------------------------|
------------------------------------|-----------------------------|
------------------------------------|-------------------5----4----|
--2----------------2----------------|--2----------------5----4----|
--2----------------2----------------|--2----------------3----2----|
--0----0--0--0--0--0----0--0--0--0--|--0----0--0--0--0------------|


       PM PM PM PM      PM PM PM PM         PM PM PM PM PM   PM   PM    
                                                        |----3----|     
  Q    S  S  S  S  Q    S  S  S  S     Q    S  S  S  S  Q    Q    Q     
------------------------------------|----------------------------------|
------------------------------------|----------------------------------|
------------------------------------|----------------------------------|
--5----------------5----------------|--7----------------7----6----5----|
--5----------------5----------------|--7----------------7----6----5----|
--3----3--3--3--3--3----3--3--3--3--|--5----5--5--5--5--5----4----3----|


       PM PM PM PM      PM PM PM PM         PM PM PM PM            
  Q    S  S  S  S  Q    S  S  S  S     Q    S  S  S  S  Q    Q     
------------------------------------|-----------------------------|
------------------------------------|-----------------------------|
------------------------------------|-------------------5----4----|
--2----------------2----------------|--2----------------5----4----|
--2----------------2----------------|--2----------------3----2----|
--0----0--0--0--0--0----0--0--0--0--|--0----0--0--0--0------------|


       PM PM PM PM      PM PM PM PM         PM PM PM PM PM   PM   PM    
                                                        |----3----|     
  Q    S  S  S  S  Q    S  S  S  S     Q    S  S  S  S  Q    Q    Q     
------------------------------------|----------------------------------|
------------------------------------|----------------------------------|
------------------------------------|----------------------------------|
--5----------------5----------------|--7----------------7----6----5----|
--5----------------5----------------|--7----------------7----6----5----|
--3----3--3--3--3--3----3--3--3--3--|--5----5--5--5--5--5----4----3----|


                                   PM PM                      
  W                   H.           E  E     W                 
-------------------|---------------------|-------------------|
-------------------|---------------------|-------------------|
-------------------|---------------------|-------------------|
--7----------------|--L------------------|--7----------------|
--7----------------|--L------------7--7--|--7----------------|
--5----------------|--L------------5--5--|--5----------------|


  H         T  T  T  T  T  T  T  T  T  T  T  T  T  T  T  T    W                 
-----------------------------------------------------------|-------------------|
-----------------------------------------------------------|-------------------|
-----------------------------------------------------------|-------------------|
--L--------------------------------------------------------|--5----------------|
--L--------------------------------------------------------|--5----------------|
--L--------30-29-28-27-26-25-24-23-22-21-20-19-18-17-16-15-|--3----------------|


  W                   W                   W                   W                 
-------------------|-------------------|-------------------|-------------------|
-------------------|-------------------|-------------------|-------------------|
-------------------|-------------------|-------------------|-------------------|
--L----------------|--3----------------|--2----------------|--7----------------|
--L----------------|--3----------------|--2----------------|--7----------------|
--L----------------|--1----------------|--0----------------|--5----------------|


               PM PM                      
  H.           E  E     W                 
---------------------|-------------------|
---------------------|-------------------|
---------------------|-------------------|
--L------------------|--7----------------|
--L------------7--7--|--7----------------|
--L------------5--5--|--5----------------|


  H         T  T  T  T  T  T  T  T  T  T  T  T  T  T  T  T    W                 
-----------------------------------------------------------|-------------------|
-----------------------------------------------------------|-------------------|
-----------------------------------------------------------|-------------------|
--L--------------------------------------------------------|--5----------------|
--L--------------------------------------------------------|--5----------------|
--L--------30-29-28-27-26-25-24-23-22-21-20-19-18-17-16-15-|--3----------------|


  W                   W                   W                 
-------------------|-------------------|-------------------|
-------------------|-------------------|-------------------|
-------------------|-------------------|-------------------|
--L----------------|--3----------------|--2----------------|
--L----------------|--3----------------|--2----------------|
--L----------------|--1----------------|--0----------------|


  PM PM PM     PM PM PM   PM   PM PM PM    
  S  S  S  E.  S  S  S  S S  S S  S  S  S  
------------------------------------------|
------------------------------------------|
------------------------------------------|
------------------------------------------|
--5--5--5------5--5--5----5----5--5--5----|
--3--3--3------3--3--3----3----3--3--3----|


  PM PM PM     PM PM PM   PM   PM PM PM    
  S  S  S  E.  S  S  S  S S  S S  S  S  S  
------------------------------------------|
------------------------------------------|
------------------------------------------|
------------------------------------------|
--5--5--5------5--5--5----5----5--5--5----|
--3--3--3------3--3--3----3----3--3--3----|


  PM PM PM     PM PM PM   PM   PM PM PM    
  S  S  S  E.  S  S  S  S S  S S  S  S  S  
------------------------------------------|
------------------------------------------|
------------------------------------------|
------------------------------------------|
--5--5--5------5--5--5----5----5--5--5----|
--3--3--3------3--3--3----3----3--3--3----|


  PM PM PM PM PM PM PM PM PM PM PM PM PM PM PM PM  
  S  S  S  S  S  S  S  S  S  S  S  S  S  S  S  S   
--------------------------------------------------|
--------------------------------------------------|
--------------------------------------------------|
--------------------------------------------------|
--------------------------------------------------|
--0--1--2--3--4--3--2--1--7--6--5--4--6--5--4--3--|


  PM PM PM     PM PM PM   PM   PM PM PM    
  S  S  S  E.  S  S  S  S S  S S  S  S  S  
------------------------------------------|
------------------------------------------|
------------------------------------------|
------------------------------------------|
--5--5--5------5--5--5----5----5--5--5----|
--3--3--3------3--3--3----3----3--3--3----|


  PM PM PM     PM PM PM   PM   PM PM PM    
  S  S  S  E.  S  S  S  S S  S S  S  S  S  
------------------------------------------|
------------------------------------------|
------------------------------------------|
------------------------------------------|
--5--5--5------5--5--5----5----5--5--5----|
--3--3--3------3--3--3----3----3--3--3----|


  PM PM PM     PM PM PM   PM   PM PM PM    
  S  S  S  E.  S  S  S  S S  S S  S  S  S  
------------------------------------------|
------------------------------------------|
------------------------------------------|
------------------------------------------|
--5--5--5------5--5--5----5----5--5--5----|
--3--3--3------3--3--3----3----3--3--3----|


  PM PM PM PM PM PM PM PM PM PM PM PM PM PM PM PM  
  S  S  S  S  S  S  S  S  S  S  S  S  S  S  S  S   
--------------------------------------------------|
--------------------------------------------------|
--------------------------------------------------|
--------------------------------------------------|
--------------------------------------------------|
--0--1--2--3--4--3--2--1--7--6--5--4--6--5--4--3--|


  PM PM PM     PM PM PM   PM   PM PM PM    
  S  S  S  E.  S  S  S  S S  S S  S  S  S  
------------------------------------------|
------------------------------------------|
------------------------------------------|
------------------------------------------|
--5--5--5------5--5--5----5----5--5--5----|
--3--3--3------3--3--3----3----3--3--3----|


  PM PM PM     PM PM PM   PM   PM PM PM    
  S  S  S  E.  S  S  S  S S  S S  S  S  S  
------------------------------------------|
------------------------------------------|
------------------------------------------|
------------------------------------------|
--5--5--5------5--5--5----5----5--5--5----|
--3--3--3------3--3--3----3----3--3--3----|


  PM PM PM     PM PM PM   PM   PM PM PM    
  S  S  S  E.  S  S  S  S S  S S  S  S  S  
------------------------------------------|
------------------------------------------|
------------------------------------------|
------------------------------------------|
--5--5--5------5--5--5----5----5--5--5----|
--3--3--3------3--3--3----3----3--3--3----|


  PM PM PM PM PM PM PM PM PM PM PM PM PM PM PM PM  
  S  S  S  S  S  S  S  S  S  S  S  S  S  S  S  S   
--------------------------------------------------|
--------------------------------------------------|
--------------------------------------------------|
--------------------------------------------------|
--------------------------------------------------|
--0--1--2--3--4--3--2--1--7--6--5--4--6--5--4--3--|


  PM PM PM     PM PM PM   PM   PM PM PM    
  S  S  S  E.  S  S  S  S S  S S  S  S  S  
------------------------------------------|
------------------------------------------|
------------------------------------------|
------------------------------------------|
--5--5--5------5--5--5----5----5--5--5----|
--3--3--3------3--3--3----3----3--3--3----|


  PM PM PM     PM PM PM   PM   PM PM PM    
  S  S  S  E.  S  S  S  S S  S S  S  S  S  
------------------------------------------|
------------------------------------------|
------------------------------------------|
------------------------------------------|
--5--5--5------5--5--5----5----5--5--5----|
--3--3--3------3--3--3----3----3--3--3----|


  PM PM PM     PM PM PM   PM   PM PM PM    
  S  S  S  E.  S  S  S  S S  S S  S  S  S  
------------------------------------------|
------------------------------------------|
------------------------------------------|
------------------------------------------|
--5--5--5------5--5--5----5----5--5--5----|
--3--3--3------3--3--3----3----3--3--3----|


  PM PM PM PM PM PM PM PM PM PM PM PM PM PM PM PM  
  S  S  S  S  S  S  S  S  S  S  S  S  S  S  S  S   
--------------------------------------------------|
--------------------------------------------------|
--------------------------------------------------|
--------------------------------------------------|
--------------------------------------------------|
--0--1--2--3--4--3--2--1--7--6--5--4--6--5--4--3--|


       PM PM PM PM      PM PM PM PM         PM PM PM PM            
  Q    S  S  S  S  Q    S  S  S  S     Q    S  S  S  S  Q    Q     
------------------------------------|-----------------------------|
------------------------------------|-----------------------------|
------------------------------------|-------------------5----4----|
--2----------------2----------------|--2----------------5----4----|
--2----------------2----------------|--2----------------3----2----|
--0----0--0--0--0--0----0--0--0--0--|--0----0--0--0--0------------|


       PM PM PM PM      PM PM PM PM         PM PM PM PM PM   PM   PM    
                                                        |----3----|     
  Q    S  S  S  S  Q    S  S  S  S     Q    S  S  S  S  Q    Q    Q     
------------------------------------|----------------------------------|
------------------------------------|----------------------------------|
------------------------------------|----------------------------------|
--5----------------5----------------|--7----------------7----6----5----|
--5----------------5----------------|--7----------------7----6----5----|
--3----3--3--3--3--3----3--3--3--3--|--5----5--5--5--5--5----4----3----|


       PM PM PM PM      PM PM PM PM         PM PM PM PM            
  Q    S  S  S  S  Q    S  S  S  S     Q    S  S  S  S  Q    Q     
------------------------------------|-----------------------------|
------------------------------------|-----------------------------|
------------------------------------|-------------------5----4----|
--2----------------2----------------|--2----------------5----4----|
--2----------------2----------------|--2----------------3----2----|
--0----0--0--0--0--0----0--0--0--0--|--0----0--0--0--0------------|


       PM PM PM PM      PM PM PM PM         PM PM PM PM PM   PM   PM    
                                                        |----3----|     
  Q    S  S  S  S  Q    S  S  S  S     Q    S  S  S  S  Q    Q    Q     
------------------------------------|----------------------------------|
------------------------------------|----------------------------------|
------------------------------------|----------------------------------|
--5----------------5----------------|--7----------------7----6----5----|
--5----------------5----------------|--7----------------7----6----5----|
--3----3--3--3--3--3----3--3--3--3--|--5----5--5--5--5--5----4----3----|


       PM PM PM PM      PM PM PM PM         PM PM PM PM            
  Q    S  S  S  S  Q    S  S  S  S     Q    S  S  S  S  Q    Q     
------------------------------------|-----------------------------|
------------------------------------|-----------------------------|
------------------------------------|-------------------5----4----|
--2----------------2----------------|--2----------------5----4----|
--2----------------2----------------|--2----------------3----2----|
--0----0--0--0--0--0----0--0--0--0--|--0----0--0--0--0------------|


       PM PM PM PM      PM PM PM PM         PM PM PM PM PM   PM   PM    
                                                        |----3----|     
  Q    S  S  S  S  Q    S  S  S  S     Q    S  S  S  S  Q    Q    Q     
------------------------------------|----------------------------------|
------------------------------------|----------------------------------|
------------------------------------|----------------------------------|
--5----------------5----------------|--7----------------7----6----5----|
--5----------------5----------------|--7----------------7----6----5----|
--3----3--3--3--3--3----3--3--3--3--|--5----5--5--5--5--5----4----3----|


       PM PM PM PM      PM PM PM PM         PM PM PM PM            
  Q    S  S  S  S  Q    S  S  S  S     Q    S  S  S  S  Q    Q     
------------------------------------|-----------------------------|
------------------------------------|-----------------------------|
------------------------------------|-------------------5----4----|
--2----------------2----------------|--2----------------5----4----|
--2----------------2----------------|--2----------------3----2----|
--0----0--0--0--0--0----0--0--0--0--|--0----0--0--0--0------------|


       PM PM PM PM      PM PM PM PM         PM PM PM PM PM   PM   PM    
                                                        |----3----|     
  Q    S  S  S  S  Q    S  S  S  S     Q    S  S  S  S  Q    Q    Q     
------------------------------------|----------------------------------|
------------------------------------|----------------------------------|
------------------------------------|----------------------------------|
--5----------------5----------------|--7----------------7----6----5----|
--5----------------5----------------|--7----------------7----6----5----|
--3----3--3--3--3--3----3--3--3--3--|--5----5--5--5--5--5----4----3----|


  PM PM PM PM PM     PM PM PM PM PM      
  S  S  S  S  S  E.  S  S  S  S  S  E.   
----------------------------------------|
----------------------------------------|
----------------------------------------|
----------------------------------------|
--5--5--5--5--5------5--5--5--5--5------|
--3--3--3--3--3------3--3--3--3--3------|


  PM PM PM PM PM     PM PM PM PM PM      
  S  S  S  S  S  E.  S  S  S  S  S  E.   
----------------------------------------|
----------------------------------------|
----------------------------------------|
----------------------------------------|
--5--5--5--5--5------5--5--5--5--5------|
--3--3--3--3--3------3--3--3--3--3------|


  PM PM PM PM PM     PM PM PM PM PM      
  S  S  S  S  S  E.  S  S  S  S  S  E.   
----------------------------------------|
----------------------------------------|
----------------------------------------|
----------------------------------------|
--5--5--5--5--5------5--5--5--5--5------|
--3--3--3--3--3------3--3--3--3--3------|


  PM PM PM PM PM     PM PM PM PM PM      
  S  S  S  S  S  E.  S  S  S  S  S  E.   
----------------------------------------|
----------------------------------------|
----------------------------------------|
----------------------------------------|
--5--5--5--5--5------5--5--5--5--5------|
--3--3--3--3--3------3--3--3--3--3------|


  PM PM PM PM PM     PM PM PM PM PM      
  S  S  S  S  S  E.  S  S  S  S  S  E.   
----------------------------------------|
----------------------------------------|
----------------------------------------|
----------------------------------------|
--5--5--5--5--5------5--5--5--5--5------|
--3--3--3--3--3------3--3--3--3--3------|


  PM PM PM PM PM     PM PM PM PM PM      
  S  S  S  S  S  E.  S  S  S  S  S  E.   
----------------------------------------|
----------------------------------------|
----------------------------------------|
----------------------------------------|
--5--5--5--5--5------5--5--5--5--5------|
--3--3--3--3--3------3--3--3--3--3------|


  PM PM PM PM PM     PM PM PM PM PM      
  S  S  S  S  S  E.  S  S  S  S  S  E.   
----------------------------------------|
----------------------------------------|
----------------------------------------|
----------------------------------------|
--5--5--5--5--5------5--5--5--5--5------|
--3--3--3--3--3------3--3--3--3--3------|


  PM PM PM PM PM     PM PM PM PM PM      
  S  S  S  S  S  E.  S  S  S  S  S  E.   
----------------------------------------|
----------------------------------------|
----------------------------------------|
----------------------------------------|
--5--5--5--5--5------5--5--5--5--5------|
--3--3--3--3--3------3--3--3--3--3------|


  PM PM PM PM PM     PM PM PM PM PM      
  S  S  S  S  S  E.  S  S  S  S  S  E.   
----------------------------------------|
----------------------------------------|
----------------------------------------|
----------------------------------------|
--5--5--5--5--5------5--5--5--5--5------|
--3--3--3--3--3------3--3--3--3--3------|


  PM PM PM PM PM     PM PM PM PM PM      
  S  S  S  S  S  E.  S  S  S  S  S  E.   
----------------------------------------|
----------------------------------------|
----------------------------------------|
----------------------------------------|
--5--5--5--5--5------5--5--5--5--5------|
--3--3--3--3--3------3--3--3--3--3------|


  PM PM PM PM PM     PM PM PM PM PM      
  S  S  S  S  S  E.  S  S  S  S  S  E.   
----------------------------------------|
----------------------------------------|
----------------------------------------|
----------------------------------------|
--5--5--5--5--5------5--5--5--5--5------|
--3--3--3--3--3------3--3--3--3--3------|


  PM PM PM PM PM     PM PM PM PM PM      
  S  S  S  S  S  E.  S  S  S  S  S  E.   
----------------------------------------|
----------------------------------------|
----------------------------------------|
----------------------------------------|
--5--5--5--5--5------5--5--5--5--5------|
--3--3--3--3--3------3--3--3--3--3------|


  PM PM PM PM PM     PM PM PM PM PM      
  S  S  S  S  S  E.  S  S  S  S  S  E.   
----------------------------------------|
----------------------------------------|
----------------------------------------|
----------------------------------------|
--5--5--5--5--5------5--5--5--5--5------|
--3--3--3--3--3------3--3--3--3--3------|


  PM PM PM PM PM     PM PM PM PM PM      
  S  S  S  S  S  E.  S  S  S  S  S  E.   
----------------------------------------|
----------------------------------------|
----------------------------------------|
----------------------------------------|
--5--5--5--5--5------5--5--5--5--5------|
--3--3--3--3--3------3--3--3--3--3------|


  PM PM PM PM PM     PM PM PM PM PM      
  S  S  S  S  S  E.  S  S  S  S  S  E.   
----------------------------------------|
----------------------------------------|
----------------------------------------|
----------------------------------------|
--5--5--5--5--5------5--5--5--5--5------|
--3--3--3--3--3------3--3--3--3--3------|


  PM PM PM PM PM     PM PM PM PM PM      
  S  S  S  S  S  E.  S  S  S  S  S  E.   
----------------------------------------|
----------------------------------------|
----------------------------------------|
----------------------------------------|
--5--5--5--5--5------5--5--5--5--5------|
--3--3--3--3--3------3--3--3--3--3------|


  PM PM PM PM PM     PM PM PM PM PM      
  S  S  S  S  S  E.  S  S  S  S  S  E.   
----------------------------------------|
----------------------------------------|
----------------------------------------|
----------------------------------------|
--5--5--5--5--5------5--5--5--5--5------|
--3--3--3--3--3------3--3--3--3--3------|


  PM PM PM PM PM     PM PM PM PM PM      
  S  S  S  S  S  E.  S  S  S  S  S  E.   
----------------------------------------|
----------------------------------------|
----------------------------------------|
----------------------------------------|
--5--5--5--5--5------5--5--5--5--5------|
--3--3--3--3--3------3--3--3--3--3------|


  PM PM PM PM PM     PM PM PM PM PM      
  S  S  S  S  S  E.  S  S  S  S  S  E.   
----------------------------------------|
----------------------------------------|
----------------------------------------|
----------------------------------------|
--5--5--5--5--5------5--5--5--5--5------|
--3--3--3--3--3------3--3--3--3--3------|


  PM PM PM PM PM     PM PM PM PM PM      
  S  S  S  S  S  E.  S  S  S  S  S  E.   
----------------------------------------|
----------------------------------------|
----------------------------------------|
----------------------------------------|
--5--5--5--5--5------5--5--5--5--5------|
--3--3--3--3--3------3--3--3--3--3------|


  PM PM PM PM PM     PM PM PM PM PM      
  S  S  S  S  S  E.  S  S  S  S  S  E.   
----------------------------------------|
----------------------------------------|
----------------------------------------|
----------------------------------------|
--5--5--5--5--5------5--5--5--5--5------|
--3--3--3--3--3------3--3--3--3--3------|


  PM PM PM PM PM     PM PM PM PM PM      
  S  S  S  S  S  E.  S  S  S  S  S  E.   
----------------------------------------|
----------------------------------------|
----------------------------------------|
----------------------------------------|
--5--5--5--5--5------5--5--5--5--5------|
--3--3--3--3--3------3--3--3--3--3------|


  PM PM PM PM PM     PM PM PM PM PM      
  S  S  S  S  S  E.  S  S  S  S  S  E.   
----------------------------------------|
----------------------------------------|
----------------------------------------|
----------------------------------------|
--5--5--5--5--5------5--5--5--5--5------|
--3--3--3--3--3------3--3--3--3--3------|


  PM PM PM PM PM     PM PM PM PM PM        PM PM PM PM PM   PM              
  S  S  S  S  S  E.  S  S  S  S  S  E.     S  S  S  S  S  S E  E  E  E  E   
----------------------------------------|----------------------------------|
----------------------------------------|----------------------------------|
----------------------------------------|-------------------4--7--5--4--5--|
----------------------------------------|----------------------------------|
--5--5--5--5--5------5--5--5--5--5------|--5--5--5--5--5-------------------|
--3--3--3--3--3------3--3--3--3--3------|--3--3--3--3--3-------------------|


  PM PM PM PM PM   PM               PM PM PM PM PM   PM              
  S  S  S  S  S  S E  E  E  Q       S  S  S  S  S  S E  E  E  E  E   
---------------------------------|----------------------------------|
---------------------------------|----------------------------------|
-------------------4--7--5--4----|-------------------4--7--5--4--5--|
---------------------------------|----------------------------------|
--5--5--5--5--5------------------|--5--5--5--5--5-------------------|
--3--3--3--3--3------------------|--3--3--3--3--3-------------------|


  PM PM PM PM PM   PM               PM PM PM PM PM   PM              
  S  S  S  S  S  S E  E  E  Q       S  S  S  S  S  S E  E  E  E  E   
---------------------------------|----------------------------------|
---------------------------------|----------------------------------|
-------------------4--9--5--7----|-------------------4--7--5--4--5--|
---------------------------------|----------------------------------|
--5--5--5--5--5------------------|--5--5--5--5--5-------------------|
--3--3--3--3--3------------------|--3--3--3--3--3-------------------|


  PM PM PM PM PM   PM                PM PM PM PM PM   PM              
  S  S  S  S  S  S E  E  E  E  E     S  S  S  S  S  S E  E  E  E  E   
----------------------------------|----------------------------------|
----------------------------------|----------------------------------|
-------------------4--7--5--4--5--|----------------------------------|
----------------------------------|-------------------0--4--2--0--2--|
--5--5--5--5--5-------------------|--5--5--5--5--5-------------------|
--3--3--3--3--3-------------------|--3--3--3--3--3-------------------|


  PM PM PM PM PM   PM       PM PM    PM PM PM     PM PM PM   PM   PM PM PM    
  S  S  S  S  S  S E  E  E  E  E     S  S  S  E.  S  S  S  S S  S S  S  S  S  
----------------------------------|------------------------------------------|
----------------------------------|------------------------------------------|
----------------------------------|------------------------------------------|
----------------------2-----------|------------------------------------------|
--5--5--5--5--5----4-----5--4--5--|--5--5--5------5--5--5----5----5--5--5----|
--3--3--3--3--3-------------------|--3--3--3------3--3--3----3----3--3--3----|


  PM PM PM     PM PM PM   PM   PM PM PM           PM PM PM PM      PM PM PM PM  
  S  S  S  E.  S  S  S  S S  S S  S  S  S    Q    S  S  S  S  Q    S  S  S  S   
------------------------------------------|------------------------------------|
------------------------------------------|------------------------------------|
------------------------------------------|------------------------------------|
------------------------------------------|--2----------------2----------------|
--5--5--5------5--5--5----5----5--5--5----|--2----------------2----------------|
--3--3--3------3--3--3----3----3--3--3----|--0----0--0--0--0--0----0--0--0--0--|


       PM PM PM PM                   PM PM PM PM      PM PM PM PM  
  Q    S  S  S  S  Q    Q       Q    S  S  S  S  Q    S  S  S  S   
-----------------------------|------------------------------------|
-----------------------------|------------------------------------|
-------------------5----4----|------------------------------------|
--2----------------5----4----|--5----------------5----------------|
--2----------------3----2----|--5----------------5----------------|
--0----0--0--0--0------------|--3----3--3--3--3--3----3--3--3--3--|


       PM PM PM PM PM   PM   PM           PM PM PM PM      PM PM PM PM  
                   |----3----|                                          
  Q    S  S  S  S  Q    Q    Q       Q    S  S  S  S  Q    S  S  S  S   
----------------------------------|------------------------------------|
----------------------------------|------------------------------------|
----------------------------------|------------------------------------|
--7----------------7----6----5----|--2----------------2----------------|
--7----------------7----6----5----|--2----------------2----------------|
--5----5--5--5--5--5----4----3----|--0----0--0--0--0--0----0--0--0--0--|


       PM PM PM PM                   PM PM PM PM      PM PM PM PM  
  Q    S  S  S  S  Q    Q       Q    S  S  S  S  Q    S  S  S  S   
-----------------------------|------------------------------------|
-----------------------------|------------------------------------|
-------------------5----4----|------------------------------------|
--2----------------5----4----|--5----------------5----------------|
--2----------------3----2----|--5----------------5----------------|
--0----0--0--0--0------------|--3----3--3--3--3--3----3--3--3--3--|


       PM PM PM PM PM   PM   PM                                       PM PM  
                   |----3----|                                               
  Q    S  S  S  S  Q    Q    Q       W                   H.           E  E   
----------------------------------|-------------------|---------------------|
----------------------------------|-------------------|---------------------|
----------------------------------|-------------------|---------------------|
--7----------------7----6----5----|--7----------------|--L------------------|
--7----------------7----6----5----|--7----------------|--L------------7--7--|
--5----5--5--5--5--5----4----3----|--5----------------|--L------------5--5--|


  W                   H         T  T  T  T  T  T  T  T  T  T  T  T  T  T  T  T  
-------------------|-----------------------------------------------------------|
-------------------|-----------------------------------------------------------|
-------------------|-----------------------------------------------------------|
--7----------------|--L--------------------------------------------------------|
--7----------------|--L--------------------------------------------------------|
--5----------------|--L--------30-29-28-27-26-25-24-23-22-21-20-19-18-17-16-15-|


  W                   W                   W                   W                 
-------------------|-------------------|-------------------|-------------------|
-------------------|-------------------|-------------------|-------------------|
-------------------|-------------------|-------------------|-------------------|
--5----------------|--L----------------|--3----------------|--2----------------|
--5----------------|--L----------------|--3----------------|--2----------------|
--3----------------|--L----------------|--1----------------|--0----------------|


                                   PM PM                      
  W                   H.           E  E     W                 
-------------------|---------------------|-------------------|
-------------------|---------------------|-------------------|
-------------------|---------------------|-------------------|
--7----------------|--L------------------|--7----------------|
--7----------------|--L------------7--7--|--7----------------|
--5----------------|--L------------5--5--|--5----------------|


  H         T  T  T  T  T  T  T  T  T  T  T  T  T  T  T  T    W                 
-----------------------------------------------------------|-------------------|
-----------------------------------------------------------|-------------------|
-----------------------------------------------------------|-------------------|
--L--------------------------------------------------------|--5----------------|
--L--------------------------------------------------------|--5----------------|
--L--------30-29-28-27-26-25-24-23-22-21-20-19-18-17-16-15-|--3----------------|


  W                   W                   W                   W                 
-------------------|-------------------|-------------------|-------------------|
-------------------|-------------------|-------------------|-------------------|
-------------------|-------------------|-------------------|-------------------|
--L----------------|--3----------------|--2----------------|--2----------------|
--L----------------|--3----------------|--2----------------|--2----------------|
--L----------------|--1----------------|--0----------------|--0----------------|


  W                   W                   W                  
-------------------|-------------------|-------------------||
-------------------|-------------------|-------------------||
-------------------|-------------------|-------------------||
--L----------------|--L----------------|--L----------------||
--L----------------|--L----------------|--L----------------||
--L----------------|--L----------------|--L----------------||

Bass Guitar

     W                   W                   W                 
G||-------------------|-------------------|-------------------|
D||-------------------|-------------------|-------------------|
A||-------------------|-------------------|-------------------|
E||-------------------|-------------------|-------------------|
B||-------------------|-------------------|-------------------|


  W                   W                   W                   W                 
-------------------|-------------------|-------------------|-------------------|
-------------------|-------------------|-------------------|-------------------|
-------------------|-------------------|-------------------|-------------------|
-------------------|-------------------|-------------------|-------------------|
-------------------|-------------------|-------------------|-------------------|


  W                   W                   H.           E  E   
-------------------|-------------------|---------------------|
-------------------|-------------------|---------------------|
-------------------|-------------------|---------------------|
-------------------|--0----------------|--L------------0--0--|
-------------------|-------------------|---------------------|


  W                   H.           E  E     W                 
-------------------|---------------------|-------------------|
-------------------|---------------------|-------------------|
-------------------|---------------------|-------------------|
--0----------------|--L------------0--0--|-------------------|
-------------------|---------------------|--3----------------|


  W                   W                   W                   W                 
-------------------|-------------------|-------------------|-------------------|
-------------------|-------------------|-------------------|-------------------|
-------------------|-------------------|-------------------|-------------------|
-------------------|-------------------|-------------------|--0----------------|
--L----------------|--1----------------|--0----------------|-------------------|


  H.           E  E     W                   H.           E  E   
---------------------|-------------------|---------------------|
---------------------|-------------------|---------------------|
---------------------|-------------------|---------------------|
--L------------0--0--|--0----------------|--L------------0--0--|
---------------------|-------------------|---------------------|


  W                   W                   W                   W                 
-------------------|-------------------|-------------------|-------------------|
-------------------|-------------------|-------------------|-------------------|
-------------------|-------------------|-------------------|-------------------|
-------------------|-------------------|-------------------|-------------------|
--3----------------|--L----------------|--1----------------|--0----------------|


  S S S E.  S S S S S S S S S S    S S S E.  S S S S S S S S S S  
--------------------------------|--------------------------------|
--------------------------------|--------------------------------|
--------------------------------|--------------------------------|
--------------------------------|--------------------------------|
--3-3-3-----3-3-3---3---3-3-3---|--3-3-3-----3-3-3---3---3-3-3---|


  S S S E.  S S S S S S S S S S    S S S S S S S S S S S S S S S S  
--------------------------------|----------------------------------|
--------------------------------|----------------------------------|
--------------------------------|----------------------------------|
--------------------------------|----------------------------------|
--3-3-3-----3-3-3---3---3-3-3---|--0-1-2-3-4-3-2-1-7-6-5-4-6-5-4-3-|


  S S S E.  S S S S S S S S S S    S S S E.  S S S S S S S S S S  
--------------------------------|--------------------------------|
--------------------------------|--------------------------------|
--------------------------------|--------------------------------|
--------------------------------|--------------------------------|
--3-3-3-----3-3-3---3---3-3-3---|--3-3-3-----3-3-3---3---3-3-3---|


  S S S E.  S S S S S S S S S S    S S S S S S S S S S S S S S S S  
--------------------------------|----------------------------------|
--------------------------------|----------------------------------|
--------------------------------|----------------------------------|
--------------------------------|----------------------------------|
--3-3-3-----3-3-3---3---3-3-3---|--0-1-2-3-4-3-2-1-7-6-5-4-6-5-4-3-|


  S S S E.  S S S S S S S S S S    S S S E.  S S S S S S S S S S  
--------------------------------|--------------------------------|
--------------------------------|--------------------------------|
--------------------------------|--------------------------------|
--------------------------------|--------------------------------|
--3-3-3-----3-3-3---3---3-3-3---|--3-3-3-----3-3-3---3---3-3-3---|


  S S S E.  S S S S S S S S S S    S S S S S S S S S S S S S S S S  
--------------------------------|----------------------------------|
--------------------------------|----------------------------------|
--------------------------------|----------------------------------|
--------------------------------|----------------------------------|
--3-3-3-----3-3-3---3---3-3-3---|--0-1-2-3-4-3-2-1-7-6-5-4-6-5-4-3-|


  S S S E.  S S S S S S S S S S    S S S E.  S S S S S S S S S S  
--------------------------------|--------------------------------|
--------------------------------|--------------------------------|
--------------------------------|--------------------------------|
--------------------------------|--------------------------------|
--3-3-3-----3-3-3---3---3-3-3---|--3-3-3-----3-3-3---3---3-3-3---|


  S S S E.  S S S S S S S S S S    S S S S S S S S S S S S S S S S  
--------------------------------|----------------------------------|
--------------------------------|----------------------------------|
--------------------------------|----------------------------------|
--------------------------------|----------------------------------|
--3-3-3-----3-3-3---3---3-3-3---|--0-1-2-3-4-3-2-1-7-6-5-4-6-5-4-3
comments
print report bad tab
2 comments total.
0 reply
schism0624 wrote on March 29 2009, 02:30 pm

Looks pretty good man. I can't wait for the rest of the songs to be put up here!

+5 reply
Kwonnie wrote on April 2 2009, 04:40 pm

Write your own tabs faggot. Don't just steal mine.

I want to post or [tab]
guest
You may want to rate the tab now too:
select rating
Please do not post tabs as comments. Select "correction" instead!