Oops, an error
Loading. Please wait.

The Way Of The Fist Part 2 Tab

4,876 views 3 this week
no commentswrite comment
1 2 3 4 5
poor
x 4
add to favorites launch autoscroll
font size
0
reset
Autoscroll
+/-
esc
set tempo
stop
Contributor
WARNING: You are trying to view
                                    content from Ultimate-Guitar.com
                                    in an unauthorized application,
                                    which is prohibited.

                                    Please use an official Ultimate
                                    Guitar Tabs application for iPhone,
                                    iPad or Android to access legitimate
                                    chords, guitar, bass, and drum tabs
                                    from Ultimate-Guitar.com database.

                                    Type "ultimate guitar tabs" in Apple
                                    App Store's or Android Market's
                                    search to find the application.
I submitted this with the other tab but it was too long i guess so it only took 
from Ashes to The Devil's Own

==========White Knuckles==========

Lead Guitar

             PM PM PM PM       PM PM PM PM      PM PM  
       S   S S  S  S  S  S   S S  S  S  S  S  S S  S   
B ||--------------------------------------------------|
F#||--------------------------------------------------|
D ||--------------------------------------------------|
A ||--------------------------------------------------|
E ||--------------------------------------------------|
B ||--10h-12-0--0--0--0--8h-10-0--0--0--0--7h-8-0--0--|


  PM PM      PM PM PM PM PM PM PM PM PM PM PM PM  
  S  S  S  S S  S  S  S  S  S  S  S  S  S  S  S   
-------------------------------------------------|
-------------------------------------------------|
-------------------------------------------------|
-------------------------------------------------|
-------------------------------------------------|
--0--0--5h-7-0--0--0--0--5--4--3--2--4--3--2--1--|


         PM PM PM PM       PM PM PM PM      PM PM  
   S   S S  S  S  S  S   S S  S  S  S  S  S S  S   
--------------------------------------------------|
--------------------------------------------------|
--------------------------------------------------|
--------------------------------------------------|
--------------------------------------------------|
--10h-12-0--0--0--0--8h-10-0--0--0--0--7h-8-0--0--|


  PM PM      PM PM PM PM PM PM PM PM       
  S  S  S  S S  S  S  S  S  S  S  S  Q     
------------------------------------------|
------------------------------------------|
------------------------------------------|
------------------------------------------|
-------------------------------------5----|
--0--0--5h-7-0--0--0--0--5--4--3--2--3----|


         PM PM PM PM       PM PM PM PM      PM PM  
   S   S S  S  S  S  S   S S  S  S  S  S  S S  S   
--------------------------------------------------|
--------------------------------------------------|
--------------------------------------------------|
--------------------------------------------------|
--------------------------------------------------|
--10h-12-0--0--0--0--8h-10-0--0--0--0--7h-8-0--0--|


  PM PM      PM PM PM PM PM PM PM PM PM PM PM PM  
  S  S  S  S S  S  S  S  S  S  S  S  S  S  S  S   
-------------------------------------------------|
-------------------------------------------------|
-------------------------------------------------|
-------------------------------------------------|
-------------------------------------------------|
--0--0--5h-7-0--0--0--0--5--4--3--2--4--3--2--1--|


         PM PM PM PM       PM PM PM PM      PM PM  
   S   S S  S  S  S  S   S S  S  S  S  S  S S  S   
--------------------------------------------------|
--------------------------------------------------|
--------------------------------------------------|
--------------------------------------------------|
--------------------------------------------------|
--10h-12-0--0--0--0--8h-10-0--0--0--0--7h-8-0--0--|


  PM PM      PM PM PM PM PM PM PM PM       
  S  S  S  S S  S  S  S  S  S  S  S  Q     
------------------------------------------|
------------------------------------------|
------------------------------------------|
------------------------------------------|
-------------------------------------5----|
--0--0--5h-7-0--0--0--0--5--4--3--2--3----|


         PM PM PM PM       PM PM PM PM      PM PM  
   S   S S  S  S  S  S   S S  S  S  S  S  S S  S   
--------------------------------------------------|
--------------------------------------------------|
--------------------------------------------------|
--------------------------------------------------|
--------------------------------------------------|
--10h-12-0--0--0--0--8h-10-0--0--0--0--7h-8-0--0--|


  PM PM      PM PM PM PM PM PM PM PM PM PM PM PM  
  S  S  S  S S  S  S  S  S  S  S  S  S  S  S  S   
-------------------------------------------------|
-------------------------------------------------|
-------------------------------------------------|
-------------------------------------------------|
-------------------------------------------------|
--0--0--5h-7-0--0--0--0--5--4--3--2--4--3--2--1--|


         PM PM PM PM       PM PM PM PM      PM PM  
   S   S S  S  S  S  S   S S  S  S  S  S  S S  S   
--------------------------------------------------|
--------------------------------------------------|
--------------------------------------------------|
--------------------------------------------------|
--------------------------------------------------|
--10h-12-0--0--0--0--8h-10-0--0--0--0--7h-8-0--0--|


  PM PM      PM PM PM PM PM PM PM PM       
  S  S  S  S S  S  S  S  S  S  S  S  Q     
------------------------------------------|
------------------------------------------|
------------------------------------------|
------------------------------------------|
-------------------------------------5----|
--0--0--5h-7-0--0--0--0--5--4--3--2--3----|


         PM PM PM PM       PM PM PM PM      PM PM  
   S   S S  S  S  S  S   S S  S  S  S  S  S S  S   
--------------------------------------------------|
--------------------------------------------------|
--------------------------------------------------|
--------------------------------------------------|
--------------------------------------------------|
--10h-12-0--0--0--0--8h-10-0--0--0--0--7h-8-0--0--|


  PM PM      PM PM PM PM PM PM PM PM PM PM PM PM  
  S  S  S  S S  S  S  S  S  S  S  S  S  S  S  S   
-------------------------------------------------|
-------------------------------------------------|
-------------------------------------------------|
-------------------------------------------------|
-------------------------------------------------|
--0--0--5h-7-0--0--0--0--5--4--3--2--4--3--2--1--|


         PM PM PM PM       PM PM PM PM      PM PM  
   S   S S  S  S  S  S   S S  S  S  S  S  S S  S   
--------------------------------------------------|
--------------------------------------------------|
--------------------------------------------------|
--------------------------------------------------|
--------------------------------------------------|
--10h-12-0--0--0--0--8h-10-0--0--0--0--7h-8-0--0--|


  PM PM      PM PM PM PM PM PM PM PM         PM PM    PM PM    PM PM  
  S  S  S  S S  S  S  S  S  S  S  S  Q       E  E  E  E  E  E  E  E   
------------------------------------------|--------------------------|
------------------------------------------|--------------------------|
------------------------------------------|--------------------------|
------------------------------------------|--------------------------|
-------------------------------------5----|--9--9-----7--7-----9--9--|
--0--0--5h-7-0--0--0--0--5--4--3--2--3----|--7--7-----5--5-----7--7--|


     PM PM    PM PM PM PM PM PM PM PM    PM PM    PM PM    PM PM  
  E  E  E  E  S  S  S  S  S  S  S  S     E  E  E  E  E  E  E  E   
--------------------------------------|--------------------------|
--------------------------------------|--------------------------|
--------------------------------------|--------------------------|
--------------------------------------|--------------------------|
-----7--7-----------------------------|--9--9-----7--7-----9--9--|
-----5--5-----5--4--3--2--4--3--2--1--|--7--7-----5--5-----7--7--|


     PM PM    PM PM PM PM         PM PM    PM PM    PM PM  
  E  E  E  E  S  S  S  S  Q       E  E  E  E  E  E  E  E   
-------------------------------|--------------------------|
-------------------------------|--------------------------|
-------------------------------|--------------------------|
-------------------------------|--------------------------|
-----7--7-----------------5----|--9--9-----7--7-----9--9--|
-----5--5-----5--4--3--2--3----|--7--7-----5--5-----7--7--|


     PM PM    PM PM PM PM PM PM PM PM    PM PM    PM PM    PM PM  
  E  E  E  E  S  S  S  S  S  S  S  S     E  E  E  E  E  E  E  E   
--------------------------------------|--------------------------|
--------------------------------------|--------------------------|
--------------------------------------|--------------------------|
--------------------------------------|--------------------------|
-----7--7-----------------------------|--9--9-----7--7-----9--9--|
-----5--5-----5--4--3--2--4--3--2--1--|--7--7-----5--5-----7--7--|


     PM PM    PM PM PM PM                  PM PM         PM PM         
  E  E  E  E  S  S  S  S  Q        E    E  S  S  E    E  S  S  E   E   
-------------------------------|--------------------------------------|
-------------------------------|--------------------------------------|
-------------------------------|--------------------------------------|
-------------------------------|--------------------------------------|
-----7--7-----------------5----|--------------------------------------|
-----5--5-----5--4--3--2--3----|--10h--12--0--0--8h--10--0--0--7h--8--|


  PM PM        PM PM PM PM PM PM PM PM PM PM  
  S  S  E   E  S  S  S  S  S  S  S  S  S  S   
---------------------------------------------|
---------------------------------------------|
---------------------------------------------|
---------------------------------------------|
---------------------------------------------|
--0--0--5h--7--0--0--5--4--3--2--4--3--2--1--|


           PM PM         PM PM           PM PM        PM PM PM PM PM PM       
   E    E  S  S  E    E  S  S  E   E     S  S  E   E  S  S  S  S  S  S  Q     
--------------------------------------|--------------------------------------|
--------------------------------------|--------------------------------------|
--------------------------------------|--------------------------------------|
--------------------------------------|--------------------------------------|
--------------------------------------|---------------------------------5----|
--10h--12--0--0--8h--10--0--0--7h--8--|--0--0--5h--7--0--0--5--4--3--2--3----|


           PM PM         PM PM         
   E    E  S  S  E    E  S  S  E   E   
--------------------------------------|
--------------------------------------|
--------------------------------------|
--------------------------------------|
--------------------------------------|
--10h--12--0--0--8h--10--0--0--7h--8--|


  PM PM        PM PM PM PM PM PM PM PM PM PM  
  S  S  E   E  S  S  S  S  S  S  S  S  S  S   
---------------------------------------------|
---------------------------------------------|
---------------------------------------------|
---------------------------------------------|
---------------------------------------------|
--0--0--5h--7--0--0--5--4--3--2--4--3--2--1--|


           PM PM         PM PM           PM PM        PM PM PM PM PM PM       
   E    E  S  S  E    E  S  S  E   E     S  S  E   E  S  S  S  S  S  S  Q     
--------------------------------------|--------------------------------------|
--------------------------------------|--------------------------------------|
--------------------------------------|--------------------------------------|
--------------------------------------|--------------------------------------|
--------------------------------------|---------------------------------5----|
--10h--12--0--0--8h--10--0--0--7h--8--|--0--0--5h--7--0--0--5--4--3--2--3----|


   Q.      E  E.  E.  E      Q.      E  E.  E.  E   
-------------------------|-------------------------|
--------------7----------|--------------7----------|
------------------9---7--|------------------9---7--|
--/9~------9-------------|--/9~------9-------------|
-------------------------|-------------------------|
-------------------------|-------------------------|


   Q.      E  E.  E.    E      H          H             Q.      E  E.  E.   E   
----------------------------|-----------------------|--------------------------|
--------------7-------<>8b--|--L--------<>7~--------|--------------7-----------|
------------------9---------|-----------------------|------------------9-------|
--/9~------9----------------|-----------------------|--/9~------9----------12--|
----------------------------|-----------------------|--------------------------|
----------------------------|-----------------------|--------------------------|


   Q.      E  E.  E.  E      Q.      E  E.  E.     E      H          H          
-------------------------|-----------------------------|-----------------------|
--------------7----------|--------------7-------<>10b--|--L--------<>8~--------|
------------------9---7--|------------------9----------|-----------------------|
--/9~------9-------------|--/9~------9-----------------|-----------------------|
-------------------------|-----------------------------|-----------------------|
-------------------------|-----------------------------|-----------------------|


         PM PM PM PM       PM PM PM PM      PM PM  
   S   S S  S  S  S  S   S S  S  S  S  S  S S  S   
--------------------------------------------------|
--------------------------------------------------|
--------------------------------------------------|
--------------------------------------------------|
--------------------------------------------------|
--10h-12-0--0--0--0--8h-10-0--0--0--0--7h-8-0--0--|


  PM PM      PM PM PM PM PM PM PM PM PM PM PM PM  
  S  S  S  S S  S  S  S  S  S  S  S  S  S  S  S   
-------------------------------------------------|
-------------------------------------------------|
-------------------------------------------------|
-------------------------------------------------|
-------------------------------------------------|
--0--0--5h-7-0--0--0--0--5--4--3--2--4--3--2--1--|


         PM PM PM PM       PM PM PM PM      PM PM  
   S   S S  S  S  S  S   S S  S  S  S  S  S S  S   
--------------------------------------------------|
--------------------------------------------------|
--------------------------------------------------|
--------------------------------------------------|
--------------------------------------------------|
--10h-12-0--0--0--0--8h-10-0--0--0--0--7h-8-0--0--|


  PM PM      PM PM PM PM PM PM PM PM       
  S  S  S  S S  S  S  S  S  S  S  S  Q     
------------------------------------------|
------------------------------------------|
------------------------------------------|
------------------------------------------|
-------------------------------------5----|
--0--0--5h-7-0--0--0--0--5--4--3--2--3----|


         PM PM PM PM       PM PM PM PM      PM PM  
   S   S S  S  S  S  S   S S  S  S  S  S  S S  S   
--------------------------------------------------|
--------------------------------------------------|
--------------------------------------------------|
--------------------------------------------------|
--------------------------------------------------|
--10h-12-0--0--0--0--8h-10-0--0--0--0--7h-8-0--0--|


  PM PM      PM PM PM PM PM PM PM PM PM PM PM PM  
  S  S  S  S S  S  S  S  S  S  S  S  S  S  S  S   
-------------------------------------------------|
-------------------------------------------------|
-------------------------------------------------|
-------------------------------------------------|
-------------------------------------------------|
--0--0--5h-7-0--0--0--0--5--4--3--2--4--3--2--1--|


         PM PM PM PM       PM PM PM PM      PM PM  
   S   S S  S  S  S  S   S S  S  S  S  S  S S  S   
--------------------------------------------------|
--------------------------------------------------|
--------------------------------------------------|
--------------------------------------------------|
--------------------------------------------------|
--10h-12-0--0--0--0--8h-10-0--0--0--0--7h-8-0--0--|


  PM PM      PM PM PM PM PM PM PM PM         PM PM    PM PM    PM PM  
  S  S  S  S S  S  S  S  S  S  S  S  Q       E  E  E  E  E  E  E  E   
------------------------------------------|--------------------------|
------------------------------------------|--------------------------|
------------------------------------------|--------------------------|
------------------------------------------|--------------------------|
-------------------------------------5----|--9--9-----7--7-----9--9--|
--0--0--5h-7-0--0--0--0--5--4--3--2--3----|--7--7-----5--5-----7--7--|


     PM PM    PM PM PM PM PM PM PM PM    PM PM    PM PM    PM PM  
  E  E  E  E  S  S  S  S  S  S  S  S     E  E  E  E  E  E  E  E   
--------------------------------------|--------------------------|
--------------------------------------|--------------------------|
--------------------------------------|--------------------------|
--------------------------------------|--------------------------|
-----7--7-----------------------------|--9--9-----7--7-----9--9--|
-----5--5-----5--4--3--2--4--3--2--1--|--7--7-----5--5-----7--7--|


     PM PM    PM PM PM PM         PM PM    PM PM    PM PM  
  E  E  E  E  S  S  S  S  Q       E  E  E  E  E  E  E  E   
-------------------------------|--------------------------|
-------------------------------|--------------------------|
-------------------------------|--------------------------|
-------------------------------|--------------------------|
-----7--7-----------------5----|--9--9-----7--7-----9--9--|
-----5--5-----5--4--3--2--3----|--7--7-----5--5-----7--7--|


     PM PM    PM PM PM PM PM PM PM PM    PM PM    PM PM    PM PM  
  E  E  E  E  S  S  S  S  S  S  S  S     E  E  E  E  E  E  E  E   
--------------------------------------|--------------------------|
--------------------------------------|--------------------------|
--------------------------------------|--------------------------|
--------------------------------------|--------------------------|
-----7--7-----------------------------|--9--9-----7--7-----9--9--|
-----5--5-----5--4--3--2--4--3--2--1--|--7--7-----5--5-----7--7--|


     PM PM    PM PM PM PM                  PM PM         PM PM         
  E  E  E  E  S  S  S  S  Q        E    E  S  S  E    E  S  S  E   E   
-------------------------------|--------------------------------------|
-------------------------------|--------------------------------------|
-------------------------------|--------------------------------------|
-------------------------------|--------------------------------------|
-----7--7-----------------5----|--------------------------------------|
-----5--5-----5--4--3--2--3----|--10h--12--0--0--8h--10--0--0--7h--8--|


  PM PM        PM PM PM PM PM PM PM PM PM PM  
  S  S  E   E  S  S  S  S  S  S  S  S  S  S   
---------------------------------------------|
---------------------------------------------|
---------------------------------------------|
---------------------------------------------|
---------------------------------------------|
--0--0--5h--7--0--0--5--4--3--2--4--3--2--1--|


           PM PM         PM PM           PM PM        PM PM PM PM PM PM       
   E    E  S  S  E    E  S  S  E   E     S  S  E   E  S  S  S  S  S  S  Q     
--------------------------------------|--------------------------------------|
--------------------------------------|--------------------------------------|
--------------------------------------|--------------------------------------|
--------------------------------------|--------------------------------------|
--------------------------------------|---------------------------------5----|
--10h--12--0--0--8h--10--0--0--7h--8--|--0--0--5h--7--0--0--5--4--3--2--3----|


           PM PM         PM PM         
   E    E  S  S  E    E  S  S  E   E   
--------------------------------------|
--------------------------------------|
--------------------------------------|
--------------------------------------|
--------------------------------------|
--10h--12--0--0--8h--10--0--0--7h--8--|


  PM PM        PM PM PM PM PM PM PM PM PM PM  
  S  S  E   E  S  S  S  S  S  S  S  S  S  S   
---------------------------------------------|
---------------------------------------------|
---------------------------------------------|
---------------------------------------------|
---------------------------------------------|
--0--0--5h--7--0--0--5--4--3--2--4--3--2--1--|


           PM PM         PM PM           PM PM        PM PM PM PM PM PM       
   E    E  S  S  E    E  S  S  E   E     S  S  E   E  S  S  S  S  S  S  Q     
--------------------------------------|--------------------------------------|
--------------------------------------|--------------------------------------|
--------------------------------------|--------------------------------------|
--------------------------------------|--------------------------------------|
--------------------------------------|---------------------------------5----|
--10h--12--0--0--8h--10--0--0--7h--8--|--0--0--5h--7--0--0--5--4--3--2--3----|


   Q.      E  E.  E.  E      Q.     E   E.  E.  E   
-------------------------|-------------------------|
--------------7----------|--------------7----------|
------------------9---7--|------------------9---7--|
--/9~------9-------------|--/9------9~-------------|
-------------------------|-------------------------|
-------------------------|-------------------------|


   Q.      E  E.  E.    E      H          H             Q.      E  E.  E.  E   
----------------------------|-----------------------|-------------------------|
--------------7-------<>8b--|--L--------<>7~--------|--------------7----------|
------------------9---------|-----------------------|------------------9---7--|
--/9~------9----------------|-----------------------|--/9~------9-------------|
----------------------------|-----------------------|-------------------------|
----------------------------|-----------------------|-------------------------|


   Q.      E  E.  E.  E      Q.      E  E.  E.     E      H          H          
-------------------------|-----------------------------|-----------------------|
--------------7----------|--------------7-------<>10b--|--L--------<>8~--------|
------------------9---7--|------------------9----------|-----------------------|
--/9~------9-------------|--/9~------9-----------------|-----------------------|
-------------------------|-----------------------------|-----------------------|
-------------------------|-----------------------------|-----------------------|


   Q.      E  E.  E.  E     H         E.  E.  E     H         E.  E.   E   
-------------------------|-----------------------|------------------------|
--------------7----------|-----------------------|------------------------|
------------------9---7--|------------7---9---7--|------------------------|
--/9~------9-------------|--9~-------------------|--7~--------9---7-------|
-------------------------|-----------------------|--------------------10--|
-------------------------|-----------------------|------------------------|


  E.   E.  E   E.  E.  E      Q.      E  E.  E.  E      Q.      E  E.  E.  E   
--------------------------|-------------------------|-------------------------|
--------------------------|--------------7----------|--------------7----------|
--------------------------|------------------9---7--|------------------9---7--|
--------------------------|--/9~------9-------------|--/9~------9-------------|
--7----------------7---9--|-------------------------|-------------------------|
------10---7--10----------|-------------------------|-------------------------|


   Q.      E  E.  E.     E      H          H            W                  
-----------------------------|-----------------------|--------------------|
--------------7-------<>10b--|--L--------<>8~--------|--------------------|
------------------9----------|-----------------------|--------------------|
--/9~------9-----------------|-----------------------|--9~----------------|
-----------------------------|-----------------------|--------------------|
-----------------------------|-----------------------|--------------------|


  W                   W                   W                 
-------------------|-------------------|-------------------|
-------------------|-------------------|-------------------|
-------------------|-------------------|-------------------|
--L----------------|--L----------------|--L----------------|
-------------------|-------------------|-------------------|
-------------------|-------------------|-------------------|


  PM PM PM PM PM PM PM PM PM PM PM PM PM PM PM PM  
  S  S  S  S  S  S  S  S  S  S  S  S  S  S  S  S   
--------------------------------------------------|
--------------------------------------------------|
--------------------------------------------------|
--------------------------------------------------|
--------------------------------------------------|
--0--0--0--0--0--0--0--0--0--0--0--0--0--0--0--0--|


  PM PM PM PM PM PM PM PM PM PM PM PM PM PM PM PM  
  S  S  S  S  S  S  S  S  S  S  S  S  S  S  S  S   
--------------------------------------------------|
--------------------------------------------------|
--------------------------------------------------|
--------------------------------------------------|
--------------------------------------------------|
--0--0--0--0--0--0--0--0--0--0--0--0--0--0--0--0--|


  PM PM PM PM PM PM PM PM PM PM PM PM PM PM PM PM  
  S  S  S  S  S  S  S  S  S  S  S  S  S  S  S  S   
--------------------------------------------------|
--------------------------------------------------|
--------------------------------------------------|
--------------------------------------------------|
--------------------------------------------------|
--0--0--0--0--0--0--0--0--0--0--0--0--0--0--0--0--|


  PM PM PM PM PM PM PM PM PM PM PM PM PM PM PM PM  
  S  S  S  S  S  S  S  S  S  S  S  S  S  S  S  S   
--------------------------------------------------|
--------------------------------------------------|
--------------------------------------------------|
--------------------------------------------------|
--------------------------------------------------|
--0--0--0--0--0--0--0--0--0--0--0--0--0--0--0--0--|


  PM PM PM PM PM PM PM PM PM PM PM PM PM PM PM PM  
  S  S  S  S  S  S  S  S  S  S  S  S  S  S  S  S   
--------------------------------------------------|
--------------------------------------------------|
--------------------------------------------------|
--------------------------------------------------|
--------------------------------------------------|
--0--0--0--0--0--0--0--0--0--0--0--0--0--0--0--0--|


  PM PM PM PM PM PM PM PM PM PM PM PM PM PM PM PM  
  S  S  S  S  S  S  S  S  S  S  S  S  S  S  S  S   
--------------------------------------------------|
--------------------------------------------------|
--------------------------------------------------|
--------------------------------------------------|
--------------------------------------------------|
--0--0--0--0--0--0--0--0--0--0--0--0--0--0--0--0--|


  PM PM PM PM PM PM PM PM PM PM PM PM PM PM PM PM  
  S  S  S  S  S  S  S  S  S  S  S  S  S  S  S  S   
--------------------------------------------------|
--------------------------------------------------|
--------------------------------------------------|
--------------------------------------------------|
--------------------------------------------------|
--0--0--0--0--0--0--0--0--0--0--0--0--0--0--0--0--|


  PM PM PM PM PM PM PM PM PM PM PM PM       
  S  S  S  S  S  S  S  S  S  S  S  S  Q     
-------------------------------------------|
-------------------------------------------|
-------------------------------------------|
-------------------------------------------|
-------------------------------------------|
--0--0--0--0--0--0--0--0--0--0--0--0-------|


  PM PM PM PM    PM PM PM PM PM PM PM PM PM PM  
  S  S  S  S  E  S  S  S  S  S  S  S  S  S  S   
-----------------------------------------------|
-----------------------------------------------|
-----------------------------------------------|
-----------------------------------------------|
-----------------------------------------------|
--4--3--2--1-----0--0--4--3--2--1--5--4--3--2--|


  PM PM PM PM    PM PM PM PM PM PM        
  S  S  S  S  E  S  S  S  S  S  S  Q      
-----------------------------------------|
-----------------------------------------|
-----------------------------------------|
-----------------------------------3b----|
-----------------------------------------|
--4--3--2--1-----0--0--5--4--3--2--3-----|


  PM PM PM PM    PM PM PM PM PM PM PM PM PM PM  
  S  S  S  S  E  S  S  S  S  S  S  S  S  S  S   
-----------------------------------------------|
-----------------------------------------------|
-----------------------------------------------|
-----------------------------------------------|
-----------------------------------------------|
--4--3--2--1-----0--0--4--3--2--1--5--4--3--2--|


  PM PM PM PM    PM PM PM PM PM PM       
  S  S  S  S  E  S  S  S  S  S  S  Q     
----------------------------------------|
----------------------------------------|
----------------------------------------|
-----------------------------------5----|
-----------------------------------5----|
--4--3--2--1-----0--0--5--4--3--2--3----|


  PM PM PM PM    PM PM PM PM PM PM PM PM PM PM  
  S  S  S  S  E  S  S  S  S  S  S  S  S  S  S   
-----------------------------------------------|
-----------------------------------------------|
-----------------------------------------------|
-----------------------------------------------|
-----------------------------------------------|
--4--3--2--1-----0--0--4--3--2--1--5--4--3--2--|


  PM PM PM PM    PM PM PM PM PM PM        
  S  S  S  S  E  S  S  S  S  S  S  Q      
-----------------------------------------|
-----------------------------------------|
-----------------------------------------|
-----------------------------------3b----|
-----------------------------------------|
--4--3--2--1-----0--0--5--4--3--2--3-----|


  PM PM PM PM    PM PM PM PM PM PM PM PM PM PM  
  S  S  S  S  E  S  S  S  S  S  S  S  S  S  S   
-----------------------------------------------|
-----------------------------------------------|
-----------------------------------------------|
-----------------------------------------------|
-----------------------------------------------|
--4--3--2--1-----0--0--4--3--2--1--5--4--3--2--|


  PM PM PM PM    PM PM PM PM PM PM       
  S  S  S  S  E  S  S  S  S  S  S  Q     
----------------------------------------|
----------------------------------------|
----------------------------------------|
-----------------------------------5----|
-----------------------------------5----|
--4--3--2--1-----0--0--5--4--3--2--3----|


  PM PM PM PM    PM PM PM PM PM PM PM PM PM PM  
  S  S  S  S  E  S  S  S  S  S  S  S  S  S  S   
-----------------------------------------------|
-----------------------------------------------|
-----------------------------------------------|
-----------------------------------------------|
-----------------------------------------------|
--4--3--2--1-----0--0--4--3--2--1--5--4--3--2--|


  PM PM PM PM    PM PM PM PM PM PM        
  S  S  S  S  E  S  S  S  S  S  S  Q      
-----------------------------------------|
-----------------------------------------|
-----------------------------------------|
-----------------------------------3b----|
-----------------------------------------|
--4--3--2--1-----0--0--5--4--3--2--3-----|


  PM PM PM PM    PM PM PM PM PM PM PM PM PM PM  
  S  S  S  S  E  S  S  S  S  S  S  S  S  S  S   
-----------------------------------------------|
-----------------------------------------------|
-----------------------------------------------|
-----------------------------------------------|
-----------------------------------------------|
--4--3--2--1-----0--0--4--3--2--1--5--4--3--2--|


  PM PM PM PM    PM PM PM PM PM PM       
  S  S  S  S  E  S  S  S  S  S  S  Q     
----------------------------------------|
----------------------------------------|
----------------------------------------|
-----------------------------------5----|
-----------------------------------5----|
--4--3--2--1-----0--0--5--4--3--2--3----|


  PM PM PM PM    PM PM PM PM PM PM PM PM PM PM  
  S  S  S  S  E  S  S  S  S  S  S  S  S  S  S   
-----------------------------------------------|
-----------------------------------------------|
-----------------------------------------------|
-----------------------------------------------|
-----------------------------------------------|
--4--3--2--1-----0--0--4--3--2--1--5--4--3--2--|


  PM PM PM PM    PM PM PM PM PM PM        
  S  S  S  S  E  S  S  S  S  S  S  Q      
-----------------------------------------|
-----------------------------------------|
-----------------------------------------|
-----------------------------------3b----|
-----------------------------------------|
--4--3--2--1-----0--0--5--4--3--2--3-----|


  PM PM PM PM    PM PM PM PM PM PM PM PM PM PM  
  S  S  S  S  E  S  S  S  S  S  S  S  S  S  S   
-----------------------------------------------|
-----------------------------------------------|
-----------------------------------------------|
-----------------------------------------------|
-----------------------------------------------|
--4--3--2--1-----0--0--4--3--2--1--5--4--3--2--|


  PM PM PM PM    PM PM PM PM PM PM                                      
  S  S  S  S  E  S  S  S  S  S  S  Q         H          E.   E.   S  S  
----------------------------------------|------------------------------|
----------------------------------------|------------------------------|
----------------------------------------|--/16~--------17---16---17-16-|
-----------------------------------5----|------------------------------|
-----------------------------------5----|------------------------------|
--4--3--2--1-----0--0--5--4--3--2--3----|------------------------------|


                                                    PM PM  
   H          H             E.   E.   E      Q      E  E   
------------------------|---------------------------------|
------------------------|---------------------------------|
--14~--------14~--------|--11---12---14--14g16~----11--9--|
------------------------|---------------------------------|
------------------------|---------------------------------|
------------------------|---------------------------------|


   S S  S S  S  S   H         E      E.   E.   E    Q     E   E   
---------------------------------|--12---14---15--/17----15--14--|
--10-8---------------------------|-------------------------------|
-------11-9----11-<>9~--------L--|-------------------------------|
------------12-------------------|-------------------------------|
---------------------------------|-------------------------------|
---------------------------------|-------------------------------|


   S  S  S  S  S  S  S  S  H          
--15-14-12---------------------------|
-----------15-13-12------------------|
--------------------14-12-11~--------|
-------------------------------------|
-------------------------------------|
-------------------------------------|


   T  T  T  T  T  T  T  T  S  S  S  S  S  S  S  S  S  S  S  S  
--19p-0-17p-0-------------17----------------------------------|
--------------20p-0-19p-0----20-19-17-20-19-17----19-17-------|
-----------------------------------------------19-------19-17-|
--------------------------------------------------------------|
--------------------------------------------------------------|
--------------------------------------------------------------|


   S  S  S  S  S  S  S  S  S  S  S  S  S  S  S  S  
--12-10-------10----------------------------------|
--------13-12----13-12-10-13-12-10----12-10-------|
-----------------------------------12-------12-11-|
--------------------------------------------------|
--------------------------------------------------|
--------------------------------------------------|


   Q.        S  S  Q.        E      S  S  S  S  S  S  S  S  H          
--------------------------------|-------------------------------------|
--15b~------12-15-15b~------13--|--15-13-12-15-13-12------------------|
--------------------------------|--------------------14-12-11~--------|
--------------------------------|-------------------------------------|
--------------------------------|-------------------------------------|
--------------------------------|-------------------------------------|


   S  S  S  S  S  S  S  S  S  S  S  S  S  S  S  S  
--------------------------------15-19-15----------|
-----------------------------17----------17-------|
--------16-17-16----------16----------------16----|
-----17----------17----17----------------------17-|
--19----------------19----------------------------|
--------------------------------------------------|


   E.   E.   E   Q      E   E   
--20---19---17--19\----15--17--|
-------------------------------|
-------------------------------|
-------------------------------|
-------------------------------|
-------------------------------|


   S  S  S  S  S  S  S  S  S  S  S  S  S  S  S  S  
--19-15----------15-19-15----------15-19-15-------|
--------17----17----------17----17----------17----|
-----------16----------------16----------------16-|
--------------------------------------------------|
--------------------------------------------------|
--------------------------------------------------|


   S  S  S  S  S  S  S  S  S  S  S  S  E  E    
--17-14----------14-17-14----------14-17--L\--|
--------15----15----------15----15------------|
-----------14----------------14---------------|
----------------------------------------------|
----------------------------------------------|
----------------------------------------------|


  E   Q      E   E   S  S  S  S  S  S  
--------------------------------------|
------------17--15--15-13-12-13-12-10-|
-----14b------------------------------|
--------------------------------------|
--------------------------------------|
--------------------------------------|


                                       P                 P        P      
   S  S  S  S  S  S  S  S  S  S  S  S  Q         Q.      Q.       Q      
---------------------------------------------|--------------------------|
---------------------------------------------|--------------------------|
--14-12-11-----------------------------------|--------------------------|
-----------17-16-14-16-14-12-14-12-10--------|--------------------------|
---------------------------------------------|--------------------------|
--------------------------------------12~----|---L------12~------12~----|


       P        P      P         P        P        P      
   E   Q.       Q      Q         Q.       Q.       Q      
-----------------------------|---------------------------|
-----------------------------|---------------------------|
-----------------------------|---------------------------|
-----------------------------|---------------------------|
-----------------------------|---------------------------|
---L--12~------12~----12~----|--12~------12~------12~----|


       P        P                     PM PM         PM PM         
   E   Q.       H             E    E  S  S  E    E  S  S  E   E   
--------------------------|--------------------------------------|
--------------------------|--------------------------------------|
--------------------------|--------------------------------------|
--------------------------|--------------------------------------|
--------------------------|--------------------------------------|
---L--12~------12~--------|--10h--12--0--0--8h--10--0--0--7h--8--|


  PM PM        PM PM PM PM PM PM PM PM PM PM  
  S  S  E   E  S  S  S  S  S  S  S  S  S  S   
---------------------------------------------|
---------------------------------------------|
---------------------------------------------|
---------------------------------------------|
---------------------------------------------|
--0--0--5h--7--0--0--5--4--3--2--4--3--2--1--|


           PM PM         PM PM           PM PM        PM PM PM PM PM PM       
   E    E  S  S  E    E  S  S  E   E     S  S  E   E  S  S  S  S  S  S  Q     
--------------------------------------|--------------------------------------|
--------------------------------------|--------------------------------------|
--------------------------------------|--------------------------------------|
--------------------------------------|--------------------------------------|
--------------------------------------|---------------------------------5----|
--10h--12--0--0--8h--10--0--0--7h--8--|--0--0--5h--7--0--0--5--4--3--2--3----|


   Q.      E  E.  E.  E      Q.      E  E.  E.  E   
-------------------------|-------------------------|
--------------7----------|--------------7----------|
------------------9---7--|------------------9---7--|
--/9~------9-------------|--/9~------9-------------|
-------------------------|-------------------------|
-------------------------|-------------------------|


   Q.      E  E.  E.    E      H          H             Q.      E  E.  E.  E   
----------------------------|-----------------------|-------------------------|
--------------7-------<>8b--|--L--------<>7~--------|--------------7----------|
------------------9---------|-----------------------|------------------9---7--|
--/9~------9----------------|-----------------------|--/9~------9-------------|
----------------------------|-----------------------|-------------------------|
----------------------------|-----------------------|-------------------------|


   Q.      E  E.  E.  E      Q.      E  E.  E.     E      H          H          
-------------------------|-----------------------------|-----------------------|
--------------7----------|--------------7-------<>10b--|--L--------<>8~--------|
------------------9---7--|------------------9----------|-----------------------|
--/9~------9-------------|--/9~------9-----------------|-----------------------|
-------------------------|-----------------------------|-----------------------|
-------------------------|-----------------------------|-----------------------|


   Q.      E  E.  E.  E     H         E.  E.  E     H         E.  E.   E   
-------------------------|-----------------------|------------------------|
--------------7----------|-----------------------|------------------------|
------------------9---7--|------------7---9---7--|------------------------|
--/9~------9-------------|--9~-------------------|--7~--------9---7-------|
-------------------------|-----------------------|--------------------10--|
-------------------------|-----------------------|------------------------|


  E.   E.  E   E.  E.  E      Q.      E  E.  E.  E      Q.      E  E.  E.  E   
--------------------------|-------------------------|-------------------------|
--------------------------|--------------7----------|--------------7----------|
--------------------------|------------------9---7--|------------------9---7--|
--------------------------|--/9~------9-------------|--/9~------9-------------|
--7----------------7---9--|-------------------------|-------------------------|
------10---7--10----------|-------------------------|-------------------------|


   Q.      E  E.  E.     E      H          H          
-----------------------------|-----------------------|
--------------7-------<>10b--|--L--------<>8~--------|
------------------9----------|-----------------------|
--/9~------9-----------------|-----------------------|
-----------------------------|-----------------------|
-----------------------------|-----------------------|


         PM PM PM PM       PM PM PM PM      PM PM  
   S   S S  S  S  S  S   S S  S  S  S  S  S S  S   
--------------------------------------------------|
--------------------------------------------------|
--------------------------------------------------|
--------------------------------------------------|
--------------------------------------------------|
--10h-12-0--0--0--0--8h-10-0--0--0--0--7h-8-0--0--|


  PM PM      PM PM PM PM PM PM PM PM PM PM PM PM                         
  S  S  S  S S  S  S  S  S  S  S  S  S  S  S  S     E.  S H.             
-------------------------------------------------|---------------------||
-------------------------------------------------|---------------------||
-------------------------------------------------|---------------------||
-------------------------------------------------|---------------------||
-------------------------------------------------|--2------------------||
--0--0--5h-7-0--0--0--0--5--4--3--2--4--3--2--1--|--0------------------||

Rhythm Guitar

             PM PM PM PM       PM PM PM PM      PM PM  
       S   S S  S  S  S  S   S S  S  S  S  S  S S  S   
B ||--------------------------------------------------|
F#||--------------------------------------------------|
D ||--------------------------------------------------|
A ||--------------------------------------------------|
E ||--------------------------------------------------|
B ||--10h-12-0--0--0--0--8h-10-0--0--0--0--7h-8-0--0--|


  PM PM      PM PM PM PM PM PM PM PM PM PM PM PM  
  S  S  S  S S  S  S  S  S  S  S  S  S  S  S  S   
-------------------------------------------------|
-------------------------------------------------|
-------------------------------------------------|
-------------------------------------------------|
-------------------------------------------------|
--0--0--5h-7-0--0--0--0--5--4--3--2--4--3--2--1--|


         PM PM PM PM       PM PM PM PM      PM PM  
   S   S S  S  S  S  S   S S  S  S  S  S  S S  S   
--------------------------------------------------|
--------------------------------------------------|
--------------------------------------------------|
--------------------------------------------------|
--------------------------------------------------|
--10h-12-0--0--0--0--8h-10-0--0--0--0--7h-8-0--0--|


  PM PM      PM PM PM PM PM PM PM PM       
  S  S  S  S S  S  S  S  S  S  S  S  Q     
------------------------------------------|
------------------------------------------|
------------------------------------------|
------------------------------------------|
-------------------------------------5----|
--0--0--5h-7-0--0--0--0--5--4--3--2--3----|


         PM PM PM PM       PM PM PM PM      PM PM  
   S   S S  S  S  S  S   S S  S  S  S  S  S S  S   
--------------------------------------------------|
--------------------------------------------------|
--------------------------------------------------|
--------------------------------------------------|
--------------------------------------------------|
--10h-12-0--0--0--0--8h-10-0--0--0--0--7h-8-0--0--|


  PM PM      PM PM PM PM PM PM PM PM PM PM PM PM  
  S  S  S  S S  S  S  S  S  S  S  S  S  S  S  S   
-------------------------------------------------|
-------------------------------------------------|
-------------------------------------------------|
-------------------------------------------------|
-------------------------------------------------|
--0--0--5h-7-0--0--0--0--5--4--3--2--4--3--2--1--|


         PM PM PM PM       PM PM PM PM      PM PM  
   S   S S  S  S  S  S   S S  S  S  S  S  S S  S   
--------------------------------------------------|
--------------------------------------------------|
--------------------------------------------------|
--------------------------------------------------|
--------------------------------------------------|
--10h-12-0--0--0--0--8h-10-0--0--0--0--7h-8-0--0--|


  PM PM      PM PM PM PM PM PM PM PM       
  S  S  S  S S  S  S  S  S  S  S  S  Q     
------------------------------------------|
------------------------------------------|
------------------------------------------|
------------------------------------------|
-------------------------------------5----|
--0--0--5h-7-0--0--0--0--5--4--3--2--3----|


         PM PM PM PM       PM PM PM PM      PM PM  
   S   S S  S  S  S  S   S S  S  S  S  S  S S  S   
--------------------------------------------------|
--------------------------------------------------|
--------------------------------------------------|
--------------------------------------------------|
--------------------------------------------------|
--10h-12-0--0--0--0--8h-10-0--0--0--0--7h-8-0--0--|


  PM PM      PM PM PM PM PM PM PM PM PM PM PM PM  
  S  S  S  S S  S  S  S  S  S  S  S  S  S  S  S   
-------------------------------------------------|
-------------------------------------------------|
-------------------------------------------------|
-------------------------------------------------|
-------------------------------------------------|
--0--0--5h-7-0--0--0--0--5--4--3--2--4--3--2--1--|


         PM PM PM PM       PM PM PM PM      PM PM  
   S   S S  S  S  S  S   S S  S  S  S  S  S S  S   
--------------------------------------------------|
--------------------------------------------------|
--------------------------------------------------|
--------------------------------------------------|
--------------------------------------------------|
--10h-12-0--0--0--0--8h-10-0--0--0--0--7h-8-0--0--|


  PM PM      PM PM PM PM PM PM PM PM       
  S  S  S  S S  S  S  S  S  S  S  S  Q     
------------------------------------------|
------------------------------------------|
------------------------------------------|
------------------------------------------|
-------------------------------------5----|
--0--0--5h-7-0--0--0--0--5--4--3--2--3----|


         PM PM PM PM       PM PM PM PM      PM PM  
   S   S S  S  S  S  S   S S  S  S  S  S  S S  S   
--------------------------------------------------|
--------------------------------------------------|
--------------------------------------------------|
--------------------------------------------------|
--------------------------------------------------|
--10h-12-0--0--0--0--8h-10-0--0--0--0--7h-8-0--0--|


  PM PM      PM PM PM PM PM PM PM PM PM PM PM PM  
  S  S  S  S S  S  S  S  S  S  S  S  S  S  S  S   
-------------------------------------------------|
-------------------------------------------------|
-------------------------------------------------|
-------------------------------------------------|
-------------------------------------------------|
--0--0--5h-7-0--0--0--0--5--4--3--2--4--3--2--1--|


         PM PM PM PM       PM PM PM PM      PM PM  
   S   S S  S  S  S  S   S S  S  S  S  S  S S  S   
--------------------------------------------------|
--------------------------------------------------|
--------------------------------------------------|
--------------------------------------------------|
--------------------------------------------------|
--10h-12-0--0--0--0--8h-10-0--0--0--0--7h-8-0--0--|


  PM PM      PM PM PM PM PM PM PM PM         PM PM    PM PM    PM PM  
  S  S  S  S S  S  S  S  S  S  S  S  Q       E  E  E  E  E  E  E  E   
------------------------------------------|--------------------------|
------------------------------------------|--------------------------|
------------------------------------------|--------------------------|
------------------------------------------|--------------------------|
-------------------------------------5----|--9--9-----7--7-----9--9--|
--0--0--5h-7-0--0--0--0--5--4--3--2--3----|--7--7-----5--5-----7--7--|


     PM PM    PM PM PM PM PM PM PM PM    PM PM    PM PM    PM PM  
  E  E  E  E  S  S  S  S  S  S  S  S     E  E  E  E  E  E  E  E   
--------------------------------------|--------------------------|
--------------------------------------|--------------------------|
--------------------------------------|--------------------------|
--------------------------------------|--------------------------|
-----7--7-----------------------------|--9--9-----7--7-----9--9--|
-----5--5-----5--4--3--2--4--3--2--1--|--7--7-----5--5-----7--7--|


     PM PM    PM PM PM PM         PM PM    PM PM    PM PM  
  E  E  E  E  S  S  S  S  Q       E  E  E  E  E  E  E  E   
-------------------------------|--------------------------|
-------------------------------|--------------------------|
-------------------------------|--------------------------|
-------------------------------|--------------------------|
-----7--7-----------------5----|--9--9-----7--7-----9--9--|
-----5--5-----5--4--3--2--3----|--7--7-----5--5-----7--7--|


     PM PM    PM PM PM PM PM PM PM PM    PM PM    PM PM    PM PM  
  E  E  E  E  S  S  S  S  S  S  S  S     E  E  E  E  E  E  E  E   
--------------------------------------|--------------------------|
--------------------------------------|--------------------------|
--------------------------------------|--------------------------|
--------------------------------------|--------------------------|
-----7--7-----------------------------|--9--9-----7--7-----9--9--|
-----5--5-----5--4--3--2--4--3--2--1--|--7--7-----5--5-----7--7--|


     PM PM    PM PM PM PM                  PM PM         PM PM         
  E  E  E  E  S  S  S  S  Q        E    E  S  S  E    E  S  S  E   E   
-------------------------------|--------------------------------------|
-------------------------------|--------------------------------------|
-------------------------------|--------------------------------------|
-------------------------------|--------------------------------------|
-----7--7-----------------5----|--------------------------------------|
-----5--5-----5--4--3--2--3----|--10h--12--0--0--8h--10--0--0--7h--8--|


  PM PM        PM PM PM PM PM PM PM PM PM PM  
  S  S  E   E  S  S  S  S  S  S  S  S  S  S   
---------------------------------------------|
---------------------------------------------|
---------------------------------------------|
---------------------------------------------|
---------------------------------------------|
--0--0--5h--7--0--0--5--4--3--2--4--3--2--1--|


           PM PM         PM PM           PM PM        PM PM PM PM PM PM       
   E    E  S  S  E    E  S  S  E   E     S  S  E   E  S  S  S  S  S  S  Q     
--------------------------------------|--------------------------------------|
--------------------------------------|--------------------------------------|
--------------------------------------|--------------------------------------|
--------------------------------------|--------------------------------------|
--------------------------------------|---------------------------------5----|
--10h--12--0--0--8h--10--0--0--7h--8--|--0--0--5h--7--0--0--5--4--3--2--3----|


           PM PM         PM PM         
   E    E  S  S  E    E  S  S  E   E   
--------------------------------------|
--------------------------------------|
--------------------------------------|
--------------------------------------|
--------------------------------------|
--10h--12--0--0--8h--10--0--0--7h--8--|


  PM PM        PM PM PM PM PM PM PM PM PM PM  
  S  S  E   E  S  S  S  S  S  S  S  S  S  S   
---------------------------------------------|
---------------------------------------------|
---------------------------------------------|
---------------------------------------------|
---------------------------------------------|
--0--0--5h--7--0--0--5--4--3--2--4--3--2--1--|


           PM PM         PM PM           PM PM        PM PM PM PM PM PM       
   E    E  S  S  E    E  S  S  E   E     S  S  E   E  S  S  S  S  S  S  Q     
--------------------------------------|--------------------------------------|
--------------------------------------|--------------------------------------|
--------------------------------------|--------------------------------------|
--------------------------------------|--------------------------------------|
--------------------------------------|---------------------------------5----|
--10h--12--0--0--8h--10--0--0--7h--8--|--0--0--5h--7--0--0--5--4--3--2--3----|


  PM  PM  PM             PM  PM  PM             PM  PM  PM           
  E.  E.  E  H           E.  E.  E  H           E.  E.  E  H         
----------------------|----------------------|----------------------|
----------------------|----------------------|----------------------|
----------------------|----------------------|----------------------|
----------------------|----------------------|----------------------|
--9---9---9--9--------|--7---7---7--7--------|--5---5---5--5--------|
--7---7---7--7--------|--5---5---5--5--------|--3---3---3--3--------|


  PM  PM  PM             PM  PM  PM             PM  PM  PM           
  E.  E.  E  H           E.  E.  E  H           E.  E.  E  H         
----------------------|----------------------|----------------------|
----------------------|----------------------|----------------------|
----------------------|----------------------|----------------------|
----------------------|----------------------|----------------------|
--9---9---9--9--------|--9---9---9--9--------|--7---7---7--7--------|
--7---7---7--7--------|--7---7---7--7--------|--5---5---5--5--------|


  PM  PM  PM             PM  PM  PM           
  E.  E.  E  H           E.  E.  E  H         
----------------------|----------------------|
----------------------|----------------------|
----------------------|----------------------|
----------------------|----------------------|
--5---5---5--5--------|--9---9---9--9--------|
--3---3---3--3--------|--7---7---7--7--------|


         PM PM PM PM       PM PM PM PM      PM PM  
   S   S S  S  S  S  S   S S  S  S  S  S  S S  S   
--------------------------------------------------|
--------------------------------------------------|
--------------------------------------------------|
--------------------------------------------------|
--------------------------------------------------|
--10h-12-0--0--0--0--8h-10-0--0--0--0--7h-8-0--0--|


  PM PM      PM PM PM PM PM PM PM PM PM PM PM PM  
  S  S  S  S S  S  S  S  S  S  S  S  S  S  S  S   
-------------------------------------------------|
-------------------------------------------------|
-------------------------------------------------|
-------------------------------------------------|
-------------------------------------------------|
--0--0--5h-7-0--0--0--0--5--4--3--2--4--3--2--1--|


         PM PM PM PM       PM PM PM PM      PM PM  
   S   S S  S  S  S  S   S S  S  S  S  S  S S  S   
--------------------------------------------------|
--------------------------------------------------|
--------------------------------------------------|
--------------------------------------------------|
--------------------------------------------------|
--10h-12-0--0--0--0--8h-10-0--0--0--0--7h-8-0--0--|


  PM PM      PM PM PM PM PM PM PM PM       
  S  S  S  S S  S  S  S  S  S  S  S  Q     
------------------------------------------|
------------------------------------------|
------------------------------------------|
------------------------------------------|
-------------------------------------5----|
--0--0--5h-7-0--0--0--0--5--4--3--2--3----|


         PM PM PM PM       PM PM PM PM      PM PM  
   S   S S  S  S  S  S   S S  S  S  S  S  S S  S   
--------------------------------------------------|
--------------------------------------------------|
--------------------------------------------------|
--------------------------------------------------|
--------------------------------------------------|
--10h-12-0--0--0--0--8h-10-0--0--0--0--7h-8-0--0--|


  PM PM      PM PM PM PM PM PM PM PM PM PM PM PM  
  S  S  S  S S  S  S  S  S  S  S  S  S  S  S  S   
-------------------------------------------------|
-------------------------------------------------|
-------------------------------------------------|
-------------------------------------------------|
-------------------------------------------------|
--0--0--5h-7-0--0--0--0--5--4--3--2--4--3--2--1--|


         PM PM PM PM       PM PM PM PM      PM PM  
   S   S S  S  S  S  S   S S  S  S  S  S  S S  S   
--------------------------------------------------|
--------------------------------------------------|
--------------------------------------------------|
--------------------------------------------------|
--------------------------------------------------|
--10h-12-0--0--0--0--8h-10-0--0--0--0--7h-8-0--0--|


  PM PM      PM PM PM PM PM PM PM PM         PM PM    PM PM    PM PM  
  S  S  S  S S  S  S  S  S  S  S  S  Q       E  E  E  E  E  E  E  E   
------------------------------------------|--------------------------|
------------------------------------------|--------------------------|
------------------------------------------|--------------------------|
------------------------------------------|--------------------------|
-------------------------------------5----|--9--9-----7--7-----9--9--|
--0--0--5h-7-0--0--0--0--5--4--3--2--3----|--7--7-----5--5-----7--7--|


     PM PM    PM PM PM PM PM PM PM PM    PM PM    PM PM    PM PM  
  E  E  E  E  S  S  S  S  S  S  S  S     E  E  E  E  E  E  E  E   
--------------------------------------|--------------------------|
--------------------------------------|--------------------------|
--------------------------------------|--------------------------|
--------------------------------------|--------------------------|
-----7--7-----------------------------|--9--9-----7--7-----9--9--|
-----5--5-----5--4--3--2--4--3--2--1--|--7--7-----5--5-----7--7--|


     PM PM    PM PM PM PM         PM PM    PM PM    PM PM  
  E  E  E  E  S  S  S  S  Q       E  E  E  E  E  E  E  E   
-------------------------------|--------------------------|
-------------------------------|--------------------------|
-------------------------------|--------------------------|
-------------------------------|--------------------------|
-----7--7-----------------5----|--9--9-----7--7-----9--9--|
-----5--5-----5--4--3--2--3----|--7--7-----5--5-----7--7--|


     PM PM    PM PM PM PM PM PM PM PM    PM PM    PM PM    PM PM  
  E  E  E  E  S  S  S  S  S  S  S  S     E  E  E  E  E  E  E  E   
--------------------------------------|--------------------------|
--------------------------------------|--------------------------|
--------------------------------------|--------------------------|
--------------------------------------|--------------------------|
-----7--7-----------------------------|--9--9-----7--7-----9--9--|
-----5--5-----5--4--3--2--4--3--2--1--|--7--7-----5--5-----7--7--|


     PM PM    PM PM PM PM                  PM PM         PM PM         
  E  E  E  E  S  S  S  S  Q        E    E  S  S  E    E  S  S  E   E   
-------------------------------|--------------------------------------|
-------------------------------|--------------------------------------|
-------------------------------|--------------------------------------|
-------------------------------|--------------------------------------|
-----7--7-----------------5----|--------------------------------------|
-----5--5-----5--4--3--2--3----|--10h--12--0--0--8h--10--0--0--7h--8--|


  PM PM        PM PM PM PM PM PM PM PM PM PM  
  S  S  E   E  S  S  S  S  S  S  S  S  S  S   
---------------------------------------------|
---------------------------------------------|
---------------------------------------------|
---------------------------------------------|
---------------------------------------------|
--0--0--5h--7--0--0--5--4--3--2--4--3--2--1--|


           PM PM         PM PM           PM PM        PM PM PM PM PM PM       
   E    E  S  S  E    E  S  S  E   E     S  S  E   E  S  S  S  S  S  S  Q     
--------------------------------------|--------------------------------------|
--------------------------------------|--------------------------------------|
--------------------------------------|--------------------------------------|
--------------------------------------|--------------------------------------|
--------------------------------------|---------------------------------5----|
--10h--12--0--0--8h--10--0--0--7h--8--|--0--0--5h--7--0--0--5--4--3--2--3----|


           PM PM         PM PM         
   E    E  S  S  E    E  S  S  E   E   
--------------------------------------|
--------------------------------------|
--------------------------------------|
--------------------------------------|
--------------------------------------|
--10h--12--0--0--8h--10--0--0--7h--8--|


  PM PM        PM PM PM PM PM PM PM PM PM PM  
  S  S  E   E  S  S  S  S  S  S  S  S  S  S   
---------------------------------------------|
---------------------------------------------|
---------------------------------------------|
---------------------------------------------|
---------------------------------------------|
--0--0--5h--7--0--0--5--4--3--2--4--3--2--1--|


           PM PM         PM PM           PM PM        PM PM PM PM PM PM       
   E    E  S  S  E    E  S  S  E   E     S  S  E   E  S  S  S  S  S  S  Q     
--------------------------------------|--------------------------------------|
--------------------------------------|--------------------------------------|
--------------------------------------|--------------------------------------|
--------------------------------------|--------------------------------------|
--------------------------------------|---------------------------------5----|
--10h--12--0--0--8h--10--0--0--7h--8--|--0--0--5h--7--0--0--5--4--3--2--3----|


  PM  PM  PM             PM  PM  PM             PM  PM  PM           
  E.  E.  E  H           E.  E.  E  H           E.  E.  E  H         
----------------------|----------------------|----------------------|
----------------------|----------------------|----------------------|
----------------------|----------------------|----------------------|
----------------------|----------------------|----------------------|
--9---9---9--9--------|--7---7---7--7--------|--5---5---5--5--------|
--7---7---7--7--------|--5---5---5--5--------|--3---3---3--3--------|


  PM  PM  PM             PM  PM  PM             PM  PM  PM           
  E.  E.  E  H           E.  E.  E  H           E.  E.  E  H         
----------------------|----------------------|----------------------|
----------------------|----------------------|----------------------|
----------------------|----------------------|----------------------|
----------------------|----------------------|----------------------|
--9---9---9--9--------|--9---9---9--9--------|--7---7---7--7--------|
--7---7---7--7--------|--7---7---7--7--------|--5---5---5--5--------|


  PM  PM  PM             PM  PM  PM             PM  PM  PM           
  E.  E.  E  H           E.  E.  E  H           E.  E.  E  H         
----------------------|----------------------|----------------------|
----------------------|----------------------|----------------------|
----------------------|----------------------|----------------------|
----------------------|----------------------|----------------------|
--5---5---5--5--------|--9---9---9--9--------|--9---9---9--9--------|
--3---3---3--3--------|--7---7---7--7--------|--7---7---7--7--------|


  PM  PM  PM             PM  PM  PM             PM  PM  PM           
  E.  E.  E  H           E.  E.  E  H           E.  E.  E  H         
----------------------|----------------------|----------------------|
----------------------|----------------------|----------------------|
----------------------|----------------------|----------------------|
----------------------|----------------------|----------------------|
--7---7---7--7--------|--5---5---5--5--------|--9---9---9--9--------|
--5---5---5--5--------|--3---3---3--3--------|--7---7---7--7--------|


  PM  PM  PM             PM  PM  PM             PM  PM  PM           
  E.  E.  E  H           E.  E.  E  H           E.  E.  E  H         
----------------------|----------------------|----------------------|
----------------------|----------------------|----------------------|
----------------------|----------------------|----------------------|
----------------------|----------------------|----------------------|
--9---9---9--9--------|--7---7---7--7--------|--5---5---5--5--------|
--7---7---7--7--------|--5---5---5--5--------|--3---3---3--3--------|


  PM  PM  PM                                                   
  E.  E.  E  H           W                   W                 
----------------------|-------------------|-------------------|
----------------------|-------------------|-------------------|
----------------------|-------------------|-------------------|
----------------------|--9----------------|--L----------------|
--9---9---9--9--------|--9----------------|--L----------------|
--7---7---7--7--------|--7----------------|--L----------------|


  W                   W                 
-------------------|-------------------|
-------------------|-------------------|
-------------------|-------------------|
--L----------------|--L----------------|
--L----------------|--L----------------|
--L----------------|--L----------------|


  PM PM PM PM PM PM PM PM PM PM PM PM PM PM PM PM  
  S  S  S  S  S  S  S  S  S  S  S  S  S  S  S  S   
--------------------------------------------------|
--------------------------------------------------|
--------------------------------------------------|
--------------------------------------------------|
--------------------------------------------------|
--0--0--0--0--0--0--0--0--0--0--0--0--0--0--0--0--|


  PM PM PM PM PM PM PM PM PM PM PM PM PM PM PM PM  
  S  S  S  S  S  S  S  S  S  S  S  S  S  S  S  S   
--------------------------------------------------|
--------------------------------------------------|
--------------------------------------------------|
--------------------------------------------------|
--------------------------------------------------|
--0--0--0--0--0--0--0--0--0--0--0--0--0--0--0--0--|


  PM PM PM PM PM PM PM PM PM PM PM PM PM PM PM PM  
  S  S  S  S  S  S  S  S  S  S  S  S  S  S  S  S   
--------------------------------------------------|
--------------------------------------------------|
--------------------------------------------------|
--------------------------------------------------|
--------------------------------------------------|
--0--0--0--0--0--0--0--0--0--0--0--0--0--0--0--0--|


  PM PM PM PM PM PM PM PM PM PM PM PM PM PM PM PM  
  S  S  S  S  S  S  S  S  S  S  S  S  S  S  S  S   
--------------------------------------------------|
--------------------------------------------------|
--------------------------------------------------|
--------------------------------------------------|
--------------------------------------------------|
--0--0--0--0--0--0--0--0--0--0--0--0--0--0--0--0--|


  PM PM PM PM PM PM PM PM PM PM PM PM PM PM PM PM  
  S  S  S  S  S  S  S  S  S  S  S  S  S  S  S  S   
--------------------------------------------------|
--------------------------------------------------|
--------------------------------------------------|
--------------------------------------------------|
--------------------------------------------------|
--0--0--0--0--0--0--0--0--0--0--0--0--0--0--0--0--|


  PM PM PM PM PM PM PM PM PM PM PM PM PM PM PM PM  
  S  S  S  S  S  S  S  S  S  S  S  S  S  S  S  S   
--------------------------------------------------|
--------------------------------------------------|
--------------------------------------------------|
--------------------------------------------------|
--------------------------------------------------|
--0--0--0--0--0--0--0--0--0--0--0--0--0--0--0--0--|


  PM PM PM PM PM PM PM PM PM PM PM PM PM PM PM PM  
  S  S  S  S  S  S  S  S  S  S  S  S  S  S  S  S   
--------------------------------------------------|
--------------------------------------------------|
--------------------------------------------------|
--------------------------------------------------|
--------------------------------------------------|
--0--0--0--0--0--0--0--0--0--0--0--0--0--0--0--0--|


  PM PM PM PM PM PM PM PM PM PM PM PM       
  S  S  S  S  S  S  S  S  S  S  S  S  Q     
-------------------------------------------|
-------------------------------------------|
-------------------------------------------|
-------------------------------------------|
-------------------------------------------|
--0--0--0--0--0--0--0--0--0--0--0--0-------|


  PM PM PM PM    PM PM PM PM PM PM PM PM PM PM  
  S  S  S  S  E  S  S  S  S  S  S  S  S  S  S   
-----------------------------------------------|
-----------------------------------------------|
-----------------------------------------------|
-----------------------------------------------|
-----------------------------------------------|
--4--3--2--1-----0--0--4--3--2--1--5--4--3--2--|


  PM PM PM PM    PM PM PM PM PM PM        
  S  S  S  S  E  S  S  S  S  S  S  Q      
-----------------------------------------|
-----------------------------------------|
-----------------------------------------|
-----------------------------------3b----|
-----------------------------------------|
--4--3--2--1-----0--0--5--4--3--2--3-----|


  PM PM PM PM    PM PM PM PM PM PM PM PM PM PM  
  S  S  S  S  E  S  S  S  S  S  S  S  S  S  S   
-----------------------------------------------|
-----------------------------------------------|
-----------------------------------------------|
-----------------------------------------------|
-----------------------------------------------|
--4--3--2--1-----0--0--4--3--2--1--5--4--3--2--|


  PM PM PM PM    PM PM PM PM PM PM       
  S  S  S  S  E  S  S  S  S  S  S  Q     
----------------------------------------|
----------------------------------------|
----------------------------------------|
-----------------------------------5----|
-----------------------------------5----|
--4--3--2--1-----0--0--5--4--3--2--3----|


  PM PM PM PM    PM PM PM PM PM PM PM PM PM PM  
  S  S  S  S  E  S  S  S  S  S  S  S  S  S  S   
-----------------------------------------------|
-----------------------------------------------|
-----------------------------------------------|
-----------------------------------------------|
-----------------------------------------------|
--4--3--2--1-----0--0--4--3--2--1--5--4--3--2--|


  PM PM PM PM    PM PM PM PM PM PM        
  S  S  S  S  E  S  S  S  S  S  S  Q      
-----------------------------------------|
-----------------------------------------|
-----------------------------------------|
-----------------------------------3b----|
-----------------------------------------|
--4--3--2--1-----0--0--5--4--3--2--3-----|


  PM PM PM PM    PM PM PM PM PM PM PM PM PM PM  
  S  S  S  S  E  S  S  S  S  S  S  S  S  S  S   
-----------------------------------------------|
-----------------------------------------------|
-----------------------------------------------|
-----------------------------------------------|
-----------------------------------------------|
--4--3--2--1-----0--0--4--3--2--1--5--4--3--2--|


  PM PM PM PM    PM PM PM PM PM PM       
  S  S  S  S  E  S  S  S  S  S  S  Q     
----------------------------------------|
----------------------------------------|
----------------------------------------|
-----------------------------------5----|
-----------------------------------5----|
--4--3--2--1-----0--0--5--4--3--2--3----|


  PM PM PM PM    PM PM PM PM PM PM PM PM PM PM  
  S  S  S  S  E  S  S  S  S  S  S  S  S  S  S   
-----------------------------------------------|
-----------------------------------------------|
-----------------------------------------------|
-----------------------------------------------|
-----------------------------------------------|
--4--3--2--1-----0--0--4--3--2--1--5--4--3--2--|


  PM PM PM PM    PM PM PM PM PM PM        
  S  S  S  S  E  S  S  S  S  S  S  Q      
-----------------------------------------|
-----------------------------------------|
-----------------------------------------|
-----------------------------------3b----|
-----------------------------------------|
--4--3--2--1-----0--0--5--4--3--2--3-----|


  PM PM PM PM    PM PM PM PM PM PM PM PM PM PM  
  S  S  S  S  E  S  S  S  S  S  S  S  S  S  S   
-----------------------------------------------|
-----------------------------------------------|
-----------------------------------------------|
-----------------------------------------------|
-----------------------------------------------|
--4--3--2--1-----0--0--4--3--2--1--5--4--3--2--|


  PM PM PM PM    PM PM PM PM PM PM       
  S  S  S  S  E  S  S  S  S  S  S  Q     
----------------------------------------|
----------------------------------------|
----------------------------------------|
-----------------------------------5----|
-----------------------------------5----|
--4--3--2--1-----0--0--5--4--3--2--3----|


  PM PM PM PM    PM PM PM PM PM PM PM PM PM PM  
  S  S  S  S  E  S  S  S  S  S  S  S  S  S  S   
-----------------------------------------------|
-----------------------------------------------|
-----------------------------------------------|
-----------------------------------------------|
-----------------------------------------------|
--4--3--2--1-----0--0--4--3--2--1--5--4--3--2--|


  PM PM PM PM    PM PM PM PM PM PM        
  S  S  S  S  E  S  S  S  S  S  S  Q      
-----------------------------------------|
-----------------------------------------|
-----------------------------------------|
-----------------------------------3b----|
-----------------------------------------|
--4--3--2--1-----0--0--5--4--3--2--3-----|


  PM PM PM PM    PM PM PM PM PM PM PM PM PM PM  
  S  S  S  S  E  S  S  S  S  S  S  S  S  S  S   
-----------------------------------------------|
-----------------------------------------------|
-----------------------------------------------|
-----------------------------------------------|
-----------------------------------------------|
--4--3--2--1-----0--0--4--3--2--1--5--4--3--2--|


  PM PM PM PM    PM PM PM PM PM PM         PM  PM  PM           
  S  S  S  S  E  S  S  S  S  S  S  Q       E.  E.  E  H         
----------------------------------------|----------------------|
----------------------------------------|----------------------|
----------------------------------------|----------------------|
-----------------------------------5----|----------------------|
-----------------------------------5----|--9---9---9--9--------|
--4--3--2--1-----0--0--5--4--3--2--3----|--7---7---7--7--------|


  PM  PM  PM             PM  PM  PM             PM  PM  PM           
  E.  E.  E  H           E.  E.  E  H           E.  E.  E  H         
----------------------|----------------------|----------------------|
----------------------|----------------------|----------------------|
----------------------|----------------------|----------------------|
----------------------|----------------------|----------------------|
--7---7---7--7--------|--5---5---5--5--------|--9---9---9--9--------|
--5---5---5--5--------|--3---3---3--3--------|--7---7---7--7--------|


  PM  PM  PM             PM  PM  PM             PM  PM  PM           
  E.  E.  E  H           E.  E.  E  H           E.  E.  E  H         
----------------------|----------------------|----------------------|
----------------------|----------------------|----------------------|
----------------------|----------------------|----------------------|
----------------------|----------------------|----------------------|
--9---9---9--9--------|--7---7---7--7--------|--5---5---5--5--------|
--7---7---7--7--------|--5---5---5--5--------|--3---3---3--3--------|


  PM  PM  PM             PM  PM  PM             PM  PM  PM           
  E.  E.  E  H           E.  E.  E  H           E.  E.  E  H         
----------------------|----------------------|----------------------|
----------------------|----------------------|----------------------|
----------------------|----------------------|----------------------|
----------------------|----------------------|----------------------|
--9---9---9--9--------|--9---9---9--9--------|--7---7---7--7--------|
--7---7---7--7--------|--7---7---7--7--------|--5---5---5--5--------|


  PM  PM  PM             PM  PM  PM             PM  PM  PM           
  E.  E.  E  H           E.  E.  E  H           E.  E.  E  H         
----------------------|----------------------|----------------------|
----------------------|----------------------|----------------------|
----------------------|----------------------|----------------------|
----------------------|----------------------|----------------------|
--5---5---5--5--------|--9---9---9--9--------|--9---9---9--9--------|
--3---3---3--3--------|--7---7---7--7--------|--7---7---7--7--------|


  PM  PM  PM             PM  PM  PM             PM  PM  PM           
  E.  E.  E  H           E.  E.  E  H           E.  E.  E  H         
----------------------|----------------------|----------------------|
----------------------|----------------------|----------------------|
----------------------|----------------------|----------------------|
----------------------|----------------------|----------------------|
--7---7---7--7--------|--5---5---5--5--------|--9---9---9--9--------|
--5---5---5--5--------|--3---3---3--3--------|--7---7---7--7--------|


         PM PM PM PM       PM PM PM PM      PM PM  
   S   S S  S  S  S  S   S S  S  S  S  S  S S  S   
--------------------------------------------------|
--------------------------------------------------|
--------------------------------------------------|
--------------------------------------------------|
--------------------------------------------------|
--10h-12-0--0--0--0--8h-10-0--0--0--0--7h-8-0--0--|


  PM PM      PM PM PM PM PM PM PM PM PM PM PM PM  
  S  S  S  S S  S  S  S  S  S  S  S  S  S  S  S   
-------------------------------------------------|
-------------------------------------------------|
-------------------------------------------------|
-------------------------------------------------|
-------------------------------------------------|
--0--0--5h-7-0--0--0--0--5--4--3--2--4--3--2--1--|


         PM PM PM PM       PM PM PM PM      PM PM  
   S   S S  S  S  S  S   S S  S  S  S  S  S S  S   
--------------------------------------------------|
--------------------------------------------------|
--------------------------------------------------|
--------------------------------------------------|
--------------------------------------------------|
--10h-12-0--0--0--0--8h-10-0--0--0--0--7h-8-0--0--|


  PM PM      PM PM PM PM PM PM PM PM       
  S  S  S  S S  S  S  S  S  S  S  S  Q     
------------------------------------------|
------------------------------------------|
------------------------------------------|
------------------------------------------|
-------------------------------------5----|
--0--0--5h-7-0--0--0--0--5--4--3--2--3----|


           PM PM         PM PM         
   E    E  S  S  E    E  S  S  E   E   
--------------------------------------|
--------------------------------------|
--------------------------------------|
--------------------------------------|
--------------------------------------|
--10h--12--0--0--8h--10--0--0--7h--8--|


  PM PM        PM PM PM PM PM PM PM PM PM PM  
  S  S  E   E  S  S  S  S  S  S  S  S  S  S   
---------------------------------------------|
---------------------------------------------|
---------------------------------------------|
---------------------------------------------|
---------------------------------------------|
--0--0--5h--7--0--0--5--4--3--2--4--3--2--1--|


           PM PM         PM PM           PM PM        PM PM PM PM PM PM       
   E    E  S  S  E    E  S  S  E   E     S  S  E   E  S  S  S  S  S  S  Q     
--------------------------------------|--------------------------------------|
--------------------------------------|--------------------------------------|
--------------------------------------|--------------------------------------|
--------------------------------------|--------------------------------------|
--------------------------------------|---------------------------------5----|
--10h--12--0--0--8h--10--0--0--7h--8--|--0--0--5h--7--0--0--5--4--3--2--3----|


  PM  PM  PM             PM  PM  PM             PM  PM  PM           
  E.  E.  E  H           E.  E.  E  H           E.  E.  E  H         
----------------------|----------------------|----------------------|
----------------------|----------------------|----------------------|
----------------------|----------------------|----------------------|
----------------------|----------------------|----------------------|
--9---9---9--9--------|--7---7---7--7--------|--5---5---5--5--------|
--7---7---7--7--------|--5---5---5--5--------|--3---3---3--3--------|


  PM  PM  PM             PM  PM  PM             PM  PM  PM           
  E.  E.  E  H           E.  E.  E  H           E.  E.  E  H         
----------------------|----------------------|----------------------|
----------------------|----------------------|----------------------|
----------------------|----------------------|----------------------|
----------------------|----------------------|----------------------|
--9---9---9--9--------|--9---9---9--9--------|--7---7---7--7--------|
--7---7---7--7--------|--7---7---7--7--------|--5---5---5--5--------|


  PM  PM  PM             PM  PM  PM             PM  PM  PM           
  E.  E.  E  H           E.  E.  E  H           E.  E.  E  H         
----------------------|----------------------|----------------------|
----------------------|----------------------|----------------------|
----------------------|----------------------|----------------------|
----------------------|----------------------|----------------------|
--5---5---5--5--------|--9---9---9--9--------|--9---9---9--9--------|
--3---3---3--3--------|--7---7---7--7--------|--7---7---7--7--------|


  PM  PM  PM             PM  PM  PM             PM  PM  PM           
  E.  E.  E  H           E.  E.  E  H           E.  E.  E  H         
----------------------|----------------------|----------------------|
----------------------|----------------------|----------------------|
----------------------|----------------------|----------------------|
----------------------|----------------------|----------------------|
--7---7---7--7--------|--5---5---5--5--------|--9---9---9--9--------|
--5---5---5--5--------|--3---3---3--3--------|--7---7---7--7--------|


  PM  PM  PM             PM  PM  PM             PM  PM  PM           
  E.  E.  E  H           E.  E.  E  H           E.  E.  E  H         
----------------------|----------------------|----------------------|
----------------------|----------------------|----------------------|
----------------------|----------------------|----------------------|
----------------------|----------------------|----------------------|
--9---9---9--9--------|--7---7---7--7--------|--5---5---5--5--------|
--7---7---7--7--------|--5---5---5--5--------|--3---3---3--3--------|


  PM  PM  PM                    PM PM PM PM       PM PM PM PM      PM PM  
  E.  E.  E  H            S   S S  S  S  S  S   S S  S  S  S  S  S S  S   
----------------------|--------------------------------------------------|
----------------------|--------------------------------------------------|
----------------------|--------------------------------------------------|
----------------------|--------------------------------------------------|
--9---9---9--9--------|--------------------------------------------------|
--7---7---7--7--------|--10h-12-0--0--0--0--8h-10-0--0--0--0--7h-8-0--0--|


  PM PM      PM PM PM PM PM PM PM PM PM PM PM PM                         
  S  S  S  S S  S  S  S  S  S  S  S  S  S  S  S     E.  S H.             
-------------------------------------------------|---------------------||
-------------------------------------------------|---------------------||
-------------------------------------------------|---------------------||
-------------------------------------------------|---------------------||
-------------------------------------------------|--2------------------||
--0--0--5h-7-0--0--0--0--5--4--3--2--4--3--2--1--|--0------------------||

Bass Guitar

      S   S S S S S S   S S S S S S  S S S    S S S  S S S S S S S S S S S S S  
G||----------------------------------------|-----------------------------------|
D||----------------------------------------|-----------------------------------|
A||----------------------------------------|-----------------------------------|
E||----------------------------------------|-----------------------------------|
B||--10h-12-0-0-0-0-8h-10-0-0-0-0-7h-8-0-0-|--0-0-5h-7-0-0-0-0-5-4-3-2-4-3-2-1-|


   S   S S S S S S   S S S S S S  S S S    S S S  S S S S S S S S S Q     
----------------------------------------|--------------------------------|
----------------------------------------|--------------------------------|
----------------------------------------|--------------------------------|
----------------------------------------|--------------------------------|
--10h-12-0-0-0-0-8h-10-0-0-0-0-7h-8-0-0-|--0-0-5h-7-0-0-0-0-5-4-3-2-3----|


   S   S S S S S S   S S S S S S  S S S    S S S  S S S S S S S S S S S S S  
----------------------------------------|-----------------------------------|
----------------------------------------|-----------------------------------|
----------------------------------------|-----------------------------------|
----------------------------------------|-----------------------------------|
--10h-12-0-0-0-0-8h-10-0-0-0-0-7h-8-0-0-|--0-0-5h-7-0-0-0-0-5-4-3-2-4-3-2-1-|


   S   S S S S S S   S S S S S S  S S S    S S S  S S S S S S S S S Q     
----------------------------------------|--------------------------------|
----------------------------------------|--------------------------------|
----------------------------------------|--------------------------------|
----------------------------------------|--------------------------------|
--10h-12-0-0-0-0-8h-10-0-0-0-0-7h-8-0-0-|--0-0-5h-7-0-0-0-0-5-4-3-2-3----|


   S   S S S S S S   S S S S S S  S S S    S S S  S S S S S S S S S S S S S  
----------------------------------------|-----------------------------------|
----------------------------------------|-----------------------------------|
----------------------------------------|-----------------------------------|
----------------------------------------|-----------------------------------|
--10h-12-0-0-0-0-8h-10-0-0-0-0-7h-8-0-0-|--0-0-5h-7-0-0-0-0-5-4-3-2-4-3-2-1-|


   S   S S S S S S   S S S S S S  S S S    S S S  S S S S S S S S S Q     
----------------------------------------|--------------------------------|
----------------------------------------|--------------------------------|
----------------------------------------|--------------------------------|
----------------------------------------|--------------------------------|
--10h-12-0-0-0-0-8h-10-0-0-0-0-7h-8-0-0-|--0-0-5h-7-0-0-0-0-5-4-3-2-3----|


   S   S S S S S S   S S S S S S  S S S    S S S  S S S S S S S S S S S S S  
----------------------------------------|-----------------------------------|
----------------------------------------|-----------------------------------|
----------------------------------------|-----------------------------------|
----------------------------------------|-----------------------------------|
--10h-12-0-0-0-0-8h-10-0-0-0-0-7h-8-0-0-|--0-0-5h-7-0-0-0-0-5-4-3-2-4-3-2-1-|


   S   S S S S S S   S S S S S S  S S S    S S S  S S S S S S S S S Q     
----------------------------------------|--------------------------------|
----------------------------------------|--------------------------------|
----------------------------------------|--------------------------------|
----------------------------------------|--------------------------------|
--10h-12-0-0-0-0-8h-10-0-0-0-0-7h-8-0-0-|--0-0-5h-7-0-0-0-0-5-4-3-2-3----|


  E  E  E  E  E  E  E  E     E  E  E  E  S S S S S S S S  
--------------------------|------------------------------|
--------------------------|------------------------------|
--------------------------|------------------------------|
--------------------------|------------------------------|
--7--7-----5--5-----7--7--|-----5--5-----5-4-3-2-4-3-2-1-|


  E  E  E  E  E  E  E  E     E  E  E  E  S S S S Q     
--------------------------|---------------------------|
--------------------------|---------------------------|
--------------------------|---------------------------|
--------------------------|---------------------------|
--7--7-----5--5-----7--7--|-----5--5-----5-4-3-2-3----|


  E  E  E  E  E  E  E  E     E  E  E  E  S S S S S S S S  
--------------------------|------------------------------|
--------------------------|------------------------------|
--------------------------|------------------------------|
--------------------------|------------------------------|
--7--7-----5--5-----7--7--|-----5--5-----5-4-3-2-4-3-2-1-|


  E  E  E  E  E  E  E  E     E  E  E  E  S S S S Q     
--------------------------|---------------------------|
--------------------------|---------------------------|
--------------------------|---------------------------|
--------------------------|---------------------------|
--7--7-----5--5-----7--7--|-----5--5-----5-4-3-2-3----|


   E    E  S S E    E  S S E   E     S S E   E  S S S S S S S S S S  
----------------------------------|---------------------------------|
----------------------------------|---------------------------------|
----------------------------------|---------------------------------|
----------------------------------|---------------------------------|
--10h--12--0-0-8h--10--0-0-7h--8--|--0-0-5h--7--0-0-5-4-3-2-4-3-2-1-|


   E    E  S S E    E  S S E   E     S S E   E  S S S S S S Q     
----------------------------------|------------------------------|
----------------------------------|------------------------------|
----------------------------------|------------------------------|
----------------------------------|------------------------------|
--10h--12--0-0-8h--10--0-0-7h--8--|--0-0-5h--7--0-0-5-4-3-2-3----|


   E    E  S S E    E  S S E   E     S S E   E  S S S S S S S S S S  
----------------------------------|---------------------------------|
----------------------------------|---------------------------------|
----------------------------------|---------------------------------|
----------------------------------|---------------------------------|
--10h--12--0-0-8h--10--0-0-7h--8--|--0-0-5h--7--0-0-5-4-3-2-4-3-2-1-|


   E    E  S S E    E  S S E   E     S S E   E  S S S S S S Q     
----------------------------------|------------------------------|
----------------------------------|------------------------------|
----------------------------------|------------------------------|
----------------------------------|------------------------------|
--10h--12--0-0-8h--10--0-0-7h--8--|--0-0-5h--7--0-0-5-4-3-2-3----|


  E.  E.  E  H           E.  E.  E  H           E.  E.  E  H         
----------------------|----------------------|----------------------|
----------------------|----------------------|----------------------|
----------------------|----------------------|----------------------|
--2---2---2--2--------|--0---0---0--0--------|----------------------|
----------------------|----------------------|--3---3---3--3--------|


  E.  E.  E  H           E.  E.  E  H           E.  E.  E  H         
----------------------|----------------------|----------------------|
----------------------|----------------------|----------------------|
----------------------|----------------------|----------------------|
--2---2---2--2--------|--2---2---2--2--------|--0---0---0--0--------|
----------------------|----------------------|----------------------|


  E.  E.  E  H           E.  E.  E  H         
----------------------|----------------------|
----------------------|----------------------|
----------------------|----------------------|
----------------------|--2---2---2--2--------|
--3---3---3--3--------|----------------------|


   S   S S S S S S   S S S S S S  S S S    S S S  S S S S S S S S S S S S S  
----------------------------------------|-----------------------------------|
----------------------------------------|-----------------------------------|
----------------------------------------|-----------------------------------|
----------------------------------------|-----------------------------------|
--10h-12-0-0-0-0-8h-10-0-0-0-0-7h-8-0-0-|--0-0-5h-7-0-0-0-0-5-4-3-2-4-3-2-1-|


   S   S S S S S S   S S S S S S  S S S    S S S  S S S S S S S S S Q     
----------------------------------------|--------------------------------|
----------------------------------------|--------------------------------|
----------------------------------------|--------------------------------|
----------------------------------------|--------------------------------|
--10h-12-0-0-0-0-8h-10-0-0-0-0-7h-8-0-0-|--0-0-5h-7-0-0-0-0-5-4-3-2-3----|


   S   S S S S S S   S S S S S S  S S S    S S S  S S S S S S S S S S S S S  
----------------------------------------|-----------------------------------|
----------------------------------------|-----------------------------------|
----------------------------------------|-----------------------------------|
----------------------------------------|-----------------------------------|
--10h-12-0-0-0-0-8h-10-0-0-0-0-7h-8-0-0-|--0-0-5h-7-0-0-0-0-5-4-3-2-4-3-2-1-|


   S   S S S S S S   S S S S S S  S S S    S S S  S S S S S S S S S Q     
----------------------------------------|--------------------------------|
----------------------------------------|--------------------------------|
----------------------------------------|--------------------------------|
----------------------------------------|--------------------------------|
--10h-12-0-0-0-0-8h-10-0-0-0-0-7h-8-0-0-|--0-0-5h-7-0-0-0-0-5-4-3-2-3----|


  E  E  E  E  E  E  E  E     E  E  E  E  S S S S S S S S  
--------------------------|------------------------------|
--------------------------|------------------------------|
--------------------------|------------------------------|
--------------------------|------------------------------|
--7--7-----5--5-----7--7--|-----5--5-----5-4-3-2-4-3-2-1-|


  E  E  E  E  E  E  E  E     E  E  E  E  S S S S Q     
--------------------------|---------------------------|
--------------------------|---------------------------|
--------------------------|---------------------------|
--------------------------|---------------------------|
--7--7-----5--5-----7--7--|-----5--5-----5-4-3-2-3----|


  E  E  E  E  E  E  E  E     E  E  E  E  S S S S S S S S  
--------------------------|------------------------------|
--------------------------|------------------------------|
--------------------------|------------------------------|
--------------------------|------------------------------|
--7--7-----5--5-----7--7--|-----5--5-----5-4-3-2-4-3-2-1-|


  E  E  E  E  E  E  E  E     E  E  E  E  S S S S Q     
--------------------------|---------------------------|
--------------------------|---------------------------|
--------------------------|---------------------------|
--------------------------|---------------------------|
--7--7-----5--5-----7--7--|-----5--5-----5-4-3-2-3----|


   E    E  S S E    E  S S E   E     S S E   E  S S S S S S S S S S  
----------------------------------|---------------------------------|
----------------------------------|---------------------------------|
----------------------------------|---------------------------------|
----------------------------------|---------------------------------|
--10h--12--0-0-8h--10--0-0-7h--8--|--0-0-5h--7--0-0-5-4-3-2-4-3-2-1-|


   E    E  S S E    E  S S E   E     S S E   E  S S S S S S Q     
----------------------------------|------------------------------|
----------------------------------|------------------------------|
----------------------------------|------------------------------|
----------------------------------|------------------------------|
--10h--12--0-0-8h--10--0-0-7h--8--|--0-0-5h--7--0-0-5-4-3-2-3----|


   E    E  S S E    E  S S E   E     S S E   E  S S S S S S S S S S  
----------------------------------|---------------------------------|
----------------------------------|---------------------------------|
----------------------------------|---------------------------------|
----------------------------------|---------------------------------|
--10h--12--0-0-8h--10--0-0-7h--8--|--0-0-5h--7--0-0-5-4-3-2-4-3-2-1-|


   E    E  S S E    E  S S E   E     S S E   E  S S S S S S Q     
----------------------------------|------------------------------|
----------------------------------|------------------------------|
----------------------------------|------------------------------|
----------------------------------|------------------------------|
--10h--12--0-0-8h--10--0-0-7h--8--|--0-0-5h--7--0-0-5-4-3-2-3----|


  E.  E.  E  H           E.  E.  E  H           E.  E.  E  H         
----------------------|----------------------|----------------------|
----------------------|----------------------|----------------------|
----------------------|----------------------|----------------------|
--2---2---2--2--------|--0---0---0--0--------|----------------------|
----------------------|----------------------|--3---3---3--3--------|


  E.  E.  E  H           E.  E.  E  H           E.  E.  E  H         
----------------------|----------------------|----------------------|
----------------------|----------------------|----------------------|
----------------------|----------------------|----------------------|
--2---2---2--2--------|--2---2---2--2--------|--0---0---0--0--------|
----------------------|----------------------|----------------------|


  E.  E.  E  H           E.  E.  E  H           E.  E.  E  H         
----------------------|----------------------|----------------------|
----------------------|----------------------|----------------------|
----------------------|----------------------|----------------------|
----------------------|--2---2---2--2--------|--2---2---2--2--------|
--3---3---3--3--------|----------------------|----------------------|


  E.  E.  E  H           E.  E.  E  H           E.  E.  E  H         
----------------------|----------------------|----------------------|
----------------------|----------------------|----------------------|
----------------------|----------------------|----------------------|
--0---0---0--0--------|----------------------|--2---2---2--2--------|
----------------------|--3---3---3--3--------|----------------------|


  E.  E.  E  H           E.  E.  E  H           E.  E.  E  H         
----------------------|----------------------|----------------------|
----------------------|----------------------|----------------------|
----------------------|----------------------|----------------------|
--2---2---2--2--------|--0---0---0--0--------|----------------------|
----------------------|----------------------|--3---3---3--3--------|


  E.  E.  E  H           W                   W                 
----------------------|-------------------|-------------------|
----------------------|-------------------|-------------------|
----------------------|-------------------|-------------------|
--2---2---2--2--------|--2----------------|--L----------------|
----------------------|-------------------|-------------------|


  W                   W                   S S S S S S S S S S S S S S S S  
-------------------|-------------------|----------------------------------|
-------------------|-------------------|----------------------------------|
-------------------|-------------------|----------------------------------|
--L----------------|--L----------------|----------------------------------|
-------------------|-------------------|--0-0-0-0-0-0-0-0-0-0-0-0-0-0-0-0-|


  S S S S S S S S S S S S S S S S    S S S S S S S S S S S S S S S S  
----------------------------------|----------------------------------|
----------------------------------|----------------------------------|
----------------------------------|----------------------------------|
----------------------------------|----------------------------------|
--0-0-0-0-0-0-0-0-0-0-0-0-0-0-0-0-|--0-0-0-0-0-0-0-0-0-0-0-0-0-0-0-0-|


  S S S S S S S S S S S S S S S S    S S S S S S S S S S S S S S S S  
----------------------------------|----------------------------------|
----------------------------------|----------------------------------|
----------------------------------|----------------------------------|
----------------------------------|----------------------------------|
--0-0-0-0-0-0-0-0-0-0-0-0-0-0-0-0-|--0-0-0-0-0-0-0-0-0-0-0-0-0-0-0-0-|


  S S S S S S S S S S S S S S S S    S S S S S S S S S S S S S S S S  
----------------------------------|----------------------------------|
----------------------------------|----------------------------------|
----------------------------------|----------------------------------|
----------------------------------|----------------------------------|
--0-0-0-0-0-0-0-0-0-0-0-0-0-0-0-0-|--0-0-0-0-0-0-0-0-0-0-0-0-0-0-0-0-|


  S S S S S S S S S S S S Q       S S S S E  S S S S S S S S S S  
-------------------------------|---------------------------------|
-------------------------------|---------------------------------|
-------------------------------|---------------------------------|
-------------------------------|---------------------------------|
--0-0-0-0-0-0-0-0-0-0-0-0------|--4-3-2-1----0-0-4-3-2-1-5-4-3-2-|


  S S S S E  S S S S S S Q       S S S S E  S S S S S S S S S S  
------------------------------|---------------------------------|
------------------------------|---------------------------------|
------------------------------|---------------------------------|
------------------------------|---------------------------------|
--4-3-2-1----0-0-5-4-3-2-3----|--4-3-2-1----0-0-4-3-2-1-5-4-3-2-|


  S S S S E  S S S S S S Q       S S S S E  S S S S S S S S S S  
------------------------------|---------------------------------|
------------------------------|---------------------------------|
------------------------------|---------------------------------|
------------------------------|---------------------------------|
--4-3-2-1----0-0-5-4-3-2-3----|--4-3-2-1----0-0-4-3-2-1-5-4-3-2-|


  S S S S E  S S S S S S Q       S S S S E  S S S S S S S S S S  
------------------------------|---------------------------------|
------------------------------|---------------------------------|
------------------------------|---------------------------------|
------------------------------|---------------------------------|
--4-3-2-1----0-0-5-4-3-2-3----|--4-3-2-1----0-0-4-3-2-1-5-4-3-2-|


  S S S S E  S S S S S S Q       S S S S E  S S S S S S S S S S  
------------------------------|---------------------------------|
------------------------------|---------------------------------|
------------------------------|---------------------------------|
------------------------------|---------------------------------|
--4-3-2-1----0-0-5-4-3-2-3----|--4-3-2-1----0-0-4-3-2-1-5-4-3-2-|


  S S S S E  S S S S S S Q       S S S S E  S S S S S S S S S S  
------------------------------|---------------------------------|
------------------------------|---------------------------------|
------------------------------|---------------------------------|
------------------------------|---------------------------------|
--4-3-2-1----0-0-5-4-3-2-3----|--4-3-2-1----0-0-4-3-2-1-5-4-3-2-|


  S S S S E  S S S S S S Q       S S S S E  S S S S S S S S S S  
------------------------------|---------------------------------|
------------------------------|---------------------------------|
------------------------------|---------------------------------|
------------------------------|---------------------------------|
--4-3-2-1----0-0-5-4-3-2-3----|--4-3-2-1----0-0-4-3-2-1-5-4-3-2-|


  S S S S E  S S S S S S Q       S S S S E  S S S S S S S S S S  
------------------------------|---------------------------------|
------------------------------|---------------------------------|
------------------------------|---------------------------------|
------------------------------|---------------------------------|
--4-3-2-1----0-0-5-4-3-2-3----|--4-3-2-1----0-0-4-3-2-1-5-4-3-2-|


  S S S S E  S S S S S S Q       E.  E.  E  H           E.  E.  E  H         
------------------------------|----------------------|----------------------|
------------------------------|----------------------|----------------------|
------------------------------|----------------------|----------------------|
------------------------------|--2---2---2--2--------|--0---0---0--0--------|
--4-3-2-1----0-0-5-4-3-2-3----|----------------------|----------------------|


  E.  E.  E  H           E.  E.  E  H           E.  E.  E  H         
----------------------|----------------------|----------------------|
----------------------|----------------------|----------------------|
----------------------|----------------------|----------------------|
----------------------|--2---2---2--2--------|--2---2---2--2--------|
--3---3---3--3--------|----------------------|----------------------|


  E.  E.  E  H           E.  E.  E  H           E.  E.  E  H         
----------------------|----------------------|----------------------|
----------------------|----------------------|----------------------|
----------------------|----------------------|----------------------|
--0---0---0--0--------|----------------------|--2---2---2--2--------|
----------------------|--3---3---3--3--------|----------------------|


  E.  E.  E  H           E.  E.  E  H           E.  E.  E  H         
----------------------|----------------------|----------------------|
----------------------|----------------------|----------------------|
----------------------|----------------------|----------------------|
--2---2---2--2--------|--0---0---0--0--------|----------------------|
----------------------|----------------------|--3---3---3--3--------|


  E.  E.  E  H           E.  E.  E  H           E.  E.  E  H         
----------------------|----------------------|----------------------|
----------------------|----------------------|----------------------|
----------------------|----------------------|----------------------|
--2---2---2--2--------|--2---2---2--2--------|--0---0---0--0--------|
----------------------|----------------------|----------------------|


  E.  E.  E  H           E.  E.  E  H         
----------------------|----------------------|
----------------------|----------------------|
----------------------|----------------------|
----------------------|--2---2---2--2--------|
--3---3---3--3--------|----------------------|


   S   S S S S S S   S S S S S S  S S S    S S S  S S S S S S S S S S S S S  
----------------------------------------|-----------------------------------|
----------------------------------------|-----------------------------------|
----------------------------------------|-----------------------------------|
----------------------------------------|-----------------------------------|
--10h-12-0-0-0-0-8h-10-0-0-0-0-7h-8-0-0-|--0-0-5h-7-0-0-0-0-5-4-3-2-4-3-2-1-|


   S   S S S S S S   S S S S S S  S S S    S S S  S S S S S S S S S Q     
----------------------------------------|--------------------------------|
----------------------------------------|--------------------------------|
----------------------------------------|--------------------------------|
----------------------------------------|--------------------------------|
--10h-12-0-0-0-0-8h-10-0-0-0-0-7h-8-0-0-|--0-0-5h-7-0-0-0-0-5-4-3-2-3----|


   E    E  S S E    E  S S E   E     S S E   E  S S S S S S S S S S  
----------------------------------|---------------------------------|
----------------------------------|---------------------------------|
----------------------------------|---------------------------------|
----------------------------------|---------------------------------|
--10h--12--0-0-8h--10--0-0-7h--8--|--0-0-5h--7--0-0-5-4-3-2-4-3-2-1-|


   E    E  S S E    E  S S E   E     S S E   E  S S S S S S Q     
----------------------------------|------------------------------|
----------------------------------|------------------------------|
----------------------------------|------------------------------|
----------------------------------|------------------------------|
--10h--12--0-0-8h--10--0-0-7h--8--|--0-0-5h--7--0-0-5-4-3-2-3----|


  E.  E.  E  H           E.  E.  E  H           E.  E.  E  H         
----------------------|----------------------|----------------------|
----------------------|----------------------|----------------------|
----------------------|----------------------|----------------------|
--2---2---2--2--------|--0---0---0--0--------|----------------------|
----------------------|----------------------|--3---3---3--3--------|


  E.  E.  E  H           E.  E.  E  H           E.  E.  E  H         
----------------------|----------------------|----------------------|
----------------------|----------------------|----------------------|
----------------------|----------------------|----------------------|
--2---2---2--2--------|--2---2---2--2--------|--0---0---0--0--------|
----------------------|----------------------|----------------------|


  E.  E.  E  H           E.  E.  E  H           E.  E.  E  H         
----------------------|----------------------|----------------------|
----------------------|----------------------|----------------------|
----------------------|----------------------|----------------------|
----------------------|--2---2---2--2--------|--2---2---2--2--------|
--3---3---3--3--------|----------------------|----------------------|


  E.  E.  E  H           E.  E.  E  H           E.  E.  E  H         
----------------------|----------------------|----------------------|
----------------------|----------------------|----------------------|
----------------------|----------------------|----------------------|
--0---0---0--0--------|----------------------|--2---2---2--2--------|
----------------------|--3---3---3--3--------|----------------------|


  E.  E.  E  H           E.  E.  E  H           E.  E.  E  H         
----------------------|----------------------|----------------------|
----------------------|----------------------|----------------------|
----------------------|----------------------|----------------------|
--2---2---2--2--------|--0---0---0--0--------|----------------------|
----------------------|----------------------|--3---3---3--3--------|


  E.  E.  E  H            S   S S S S S S   S S S S S S  S S S  
----------------------|----------------------------------------|
----------------------|----------------------------------------|
----------------------|----------------------------------------|
--2---2---2--2--------|----------------------------------------|
----------------------|--10h-12-0-0-0-0-8h-10-0-0-0-0-7h-8-0-0-|


  S S S  S S S S S S S S S S S S S    E.  S H.             
-----------------------------------|---------------------||
-----------------------------------|---------------------||
-----------------------------------|---------------------||
-----------------------------------|---------------------||
--0-0-5h-7-0-0-0-0-5-4-3-2-4-3-2-1-|--0------------------||

==========Can't Heal You==========

Coming Soon

==========Death Before Dishonor==========

Lead Guitar

       W                   H.            E    E      W                 
B ||--------------------|------------------------|--------------------|
F#||--------------------|------------------------|--------------------|
D ||--16----------------|--L------------16s--17--|--17----------------|
A ||--------------------|------------------------|--------------------|
E ||--------------------|------------------------|--------------------|
B ||--------------------|------------------------|--------------------|


  H.            E    E      W                   H.            E    E   
------------------------|--------------------|------------------------|
------------------------|--------------------|------------------------|
--L------------17s--14--|--14----------------|--L------------14s--16--|
------------------------|--------------------|------------------------|
------------------------|--------------------|------------------------|
------------------------|--------------------|------------------------|


   W                     H         Q      E    E      W                 
----------------------|---------------------------|--------------------|
----------------------|---------------------------|--------------------|
--16br----------------|--L---------L\----14s--16--|--16----------------|
----------------------|---------------------------|--------------------|
----------------------|---------------------------|--------------------|
----------------------|---------------------------|--------------------|


  H.            E    E      W                   H.            E    E   
------------------------|--------------------|------------------------|
------------------------|--------------------|------------------------|
--L------------16s--17--|--17----------------|--L------------17s--14--|
------------------------|--------------------|------------------------|
------------------------|--------------------|------------------------|
------------------------|--------------------|------------------------|


   W                   H.            E    E      W                   
--------------------|------------------------|----------------------|
--------------------|------------------------|----------------------|
--14----------------|--L------------14s--16--|--16br----------------|
--------------------|------------------------|----------------------|
--------------------|------------------------|----------------------|
--------------------|------------------------|----------------------|


  H.            Q       Q     Q     E  E   Q        E  Q     E  S S E  E   E   
---------------------|---------------------------|----------------------------|
---------------------|---------------------------|-----8----------------------|
--L------------------|---------------------------|----------10--7-9-7--7------|
---------------/7----|--7~----7~----7--9--10~----|--L---------------------10--|
---------------------|---------------------------|----------------------------|
---------------------|---------------------------|----------------------------|


                                  PM PM  PM     PM PM PM  
  E   E  E  E  E   E  Q        E  E  E   E  E   E  E  E   
----------------------------|----------------------------|
----------------------------|----------------------------|
----------------------------|---------------7------------|
--9--10--9--7---------7~----|--L--7--9--10-----10--9--7--|
---------------8--10--------|----------------------------|
----------------------------|----------------------------|


  Q     Q     E  E   Q        E  Q     E  S S E  E   E   
---------------------------|----------------------------|
---------------------------|-----8----------------------|
---------------------------|----------10--7-9-7--7------|
--7~----7~----7--9--10~----|--L---------------------10--|
---------------------------|----------------------------|
---------------------------|----------------------------|


                                  PM PM  PM     PM PM PM  
  E   E  E  E  E   E  Q        E  E  E   E  E   E  E  E   
----------------------------|----------------------------|
----------------------------|----------------------------|
------------7--9--10--9~----|--L------------7------------|
--9--10--9------------------|-----7--9--10-----10--9--7--|
----------------------------|----------------------------|
----------------------------|----------------------------|


  Q     Q     E   E  Q        E  Q     E  S S E   E  E   
---------------------------|----------------------------|
---------------------8~----|--L--8----------------------|
--9~----9~----9--10--------|----------10--7-9-7--10--9--|
---------------------------|----------------------------|
---------------------------|----------------------------|
---------------------------|----------------------------|


  E   E  E  E  E   E  Q         W                 
-----------------------------|-------------------|
-----------------------------|-------------------|
--7-------------------7br----|--L----------------|
-----10--9--7--9--10---------|-------------------|
-----------------------------|-------------------|
-----------------------------|-------------------|


     PM PM PM PM    PM PM PM PM    PM PM    PM PM    PM PM PM PM            
  E  S  S  S  S  E  S  S  S  S  E  S  S     S  S  E  S  S  S  S  Q    Q     
-----------------------------------------|---------------------------------|
-----------------------------------------|---------------------------------|
-----------------------------------------|-----------------------8----8----|
--7--------------7--------------7--------|--------7--------------8----8----|
--7--------------7--------------7--------|--------7--------------6----6----|
--5--5--5--5--5--5--5--5--5--5--5--5--5--|--5--5--5--5--5--5--5------------|


     PM PM PM PM    PM PM PM PM    PM PM  
  E  S  S  S  S  E  S  S  S  S  E  S  S   
-----------------------------------------|
-----------------------------------------|
-----------------------------------------|
--7--------------7--------------7--------|
--7--------------7--------------7--------|
--5--5--5--5--5--5--5--5--5--5--5--5--5--|


  PM PM PM PM PM PM PM PM PM PM PM PM PM PM  
  E  E  S  S  S  S  S  S  S  S  S  S  S  S   
--------------------------------------------|
--------------------------------------------|
--------------------------------------------|
--------------------------------------------|
-----7--7--6--5--4--6--5--4--3--5--4--3--2--|
--5-----------------------------------------|


     PM PM PM PM    PM PM PM PM    PM PM    PM PM    PM PM PM PM            
  E  S  S  S  S  E  S  S  S  S  E  S  S     S  S  E  S  S  S  S  Q    Q     
-----------------------------------------|---------------------------------|
-----------------------------------------|---------------------------------|
-----------------------------------------|-----------------------8----8----|
--7--------------7--------------7--------|--------7--------------8----8----|
--7--------------7--------------7--------|--------7--------------6----6----|
--5--5--5--5--5--5--5--5--5--5--5--5--5--|--5--5--5--5--5--5--5------------|


     PM PM PM PM    PM PM PM PM    PM PM  
  E  S  S  S  S  E  S  S  S  S  E  S  S   
-----------------------------------------|
-----------------------------------------|
-----------------------------------------|
--7--------------7--------------7--------|
--7--------------7--------------7--------|
--5--5--5--5--5--5--5--5--5--5--5--5--5--|


  PM PM PM PM PM PM PM PM PM PM PM PM PM PM       PM PM    PM PM    PM  
  E  E  S  S  S  S  S  S  S  S  S  S  S  S     E  E  E  E  E  E  E  E   
--------------------------------------------|--------------------------|
--------------------------------------------|--------------------------|
--------------------------------------------|--------------------------|
--------------------------------------------|--7--------7--------7-----|
-----7--7--6--5--4--6--5--4--3--5--4--3--2--|--7--------7--------7-----|
--5-----------------------------------------|--5--5--5--5--5--5--5--5--|


  PM    PM PM                 PM PM    PM PM    PM    PM                       
  E  E  E  E  Q    Q       E  E  E  E  E  E  E  E     E  E  E  E  E  E  E  E   
------------------------|--------------------------|--------------------------|
------------------------|--------------------------|--------------------------|
--------------8----8----|--------------------------|--------------------------|
-----7--------8----8----|--7--------7--------7-----|--------------------------|
-----7--------6----6----|--7--------7--------7-----|-----8--7--5--7--5--------|
--5--5--5--5------------|--5--5--5--5--5--5--5--5--|--5-----------------7--8--|


     PM PM    PM PM    PM    PM    PM PM                 PM PM    PM PM    PM  
  E  E  E  E  E  E  E  E     E  E  E  E  Q    Q       E  E  E  E  E  E  E  E   
--------------------------|------------------------|--------------------------|
--------------------------|------------------------|--------------------------|
--------------------------|--------------8----8----|--------------------------|
--7--------7--------7-----|-----7--------8----8----|--7--------7--------7-----|
--7--------7--------7-----|-----7--------6----6----|--7--------7--------7-----|
--5--5--5--5--5--5--5--5--|--5--5--5--5------------|--5--5--5--5--5--5--5--5--|


  PM                           PM PM PM PM    PM PM PM PM    PM PM  
  E  E  E  E  E  E  Q       E  S  S  S  S  E  S  S  S  S  E  S  S   
-------------------------|-----------------------------------------|
-------------------------|-----------------------------------------|
-------------------------|-----------------------------------------|
-------------------------|--7--------------7--------------7--------|
-----8--7--5--7--5-------|--7--------------7--------------7--------|
--5-----------------7----|--5--5--5--5--5--5--5--5--5--5--5--5--5--|


  PM PM    PM PM PM PM                 PM PM PM PM    PM PM PM PM    PM PM  
  S  S  E  S  S  S  S  Q    Q       E  S  S  S  S  E  S  S  S  S  E  S  S   
---------------------------------|-----------------------------------------|
---------------------------------|-----------------------------------------|
-----------------------8----8----|-----------------------------------------|
--------7--------------8----8----|--7--------------7--------------7--------|
--------7--------------6----6----|--7--------------7--------------7--------|
--5--5--5--5--5--5--5------------|--5--5--5--5--5--5--5--5--5--5--5--5--5--|


  PM PM PM PM PM PM PM PM PM PM PM PM PM PM  
  E  E  S  S  S  S  S  S  S  S  S  S  S  S   
--------------------------------------------|
--------------------------------------------|
--------------------------------------------|
--------------------------------------------|
-----7--7--6--5--4--6--5--4--3--5--4--3--2--|
--5-----------------------------------------|


     PM PM PM PM    PM PM PM PM    PM PM    PM PM    PM PM PM PM            
  E  S  S  S  S  E  S  S  S  S  E  S  S     S  S  E  S  S  S  S  Q    Q     
-----------------------------------------|---------------------------------|
-----------------------------------------|---------------------------------|
-----------------------------------------|-----------------------8----8----|
--7--------------7--------------7--------|--------7--------------8----8----|
--7--------------7--------------7--------|--------7--------------6----6----|
--5--5--5--5--5--5--5--5--5--5--5--5--5--|--5--5--5--5--5--5--5------------|


     PM PM PM PM    PM PM PM PM    PM PM  
  E  S  S  S  S  E  S  S  S  S  E  S  S   
-----------------------------------------|
-----------------------------------------|
-----------------------------------------|
--7--------------7--------------7--------|
--7--------------7--------------7--------|
--5--5--5--5--5--5--5--5--5--5--5--5--5--|


  PM PM PM PM PM PM PM PM PM PM PM PM PM PM                           
  E  E  S  S  S  S  S  S  S  S  S  S  S  S      Q.      Q.      Q     
--------------------------------------------|------------------------|
--------------------------------------------|------------------------|
--------------------------------------------|--14------16------17----|
--------------------------------------------|------------------------|
-----7--7--6--5--4--6--5--4--3--5--4--3--2--|------------------------|
--5-----------------------------------------|------------------------|


  Q     Q.      E   Q        Q.      Q.      Q       Q     H.            
-------------------------|------------------------|---------------------|
-------------------------|------------------------|---------------------|
--L----16------14--16----|------------------------|---------------------|
-------------------------|--17------14------16----|--L------------------|
-------------------------|------------------------|-------17------------|
-------------------------|------------------------|---------------------|


     W                     W                    H.             Q      
------------------------|-------------------|------------------------|
------------------------|-------------------|------------------------|
--<>14br----------------|--L----------------|------------------------|
------------------------|-------------------|--15~-------------------|
------------------------|-------------------|-----------------17~----|
------------------------|-------------------|------------------------|


  W                      W                     W                 
-------------------|------------------------|-------------------|
-------------------|------------------------|-------------------|
-------------------|--<>14br----------------|--L----------------|
-------------------|------------------------|-------------------|
--L----------------|------------------------|-------------------|
-------------------|------------------------|-------------------|


   H.             Q        W                 
------------------------|-------------------|
------------------------|-------------------|
------------------------|-------------------|
--15~-------------------|-------------------|
-----------------17~----|--L----------------|
------------------------|-------------------|


     PM PM PM PM    PM PM PM PM    PM PM    PM PM    PM PM PM PM            
  E  S  S  S  S  E  S  S  S  S  E  S  S     S  S  E  S  S  S  S  Q    Q     
-----------------------------------------|---------------------------------|
-----------------------------------------|---------------------------------|
-----------------------------------------|-----------------------8----8----|
--7--------------7--------------7--------|--------7--------------8----8----|
--7--------------7--------------7--------|--------7--------------6----6----|
--5--5--5--5--5--5--5--5--5--5--5--5--5--|--5--5--5--5--5--5--5------------|


     PM PM PM PM    PM PM PM PM    PM PM  
  E  S  S  S  S  E  S  S  S  S  E  S  S   
-----------------------------------------|
-----------------------------------------|
-----------------------------------------|
--7--------------7--------------7--------|
--7--------------7--------------7--------|
--5--5--5--5--5--5--5--5--5--5--5--5--5--|


  PM PM PM PM PM PM PM PM PM PM PM PM PM PM  
  E  E  S  S  S  S  S  S  S  S  S  S  S  S   
--------------------------------------------|
--------------------------------------------|
--------------------------------------------|
--------------------------------------------|
-----7--7--6--5--4--6--5--4--3--5--4--3--2--|
--5-----------------------------------------|


     PM PM PM PM    PM PM PM PM    PM PM    PM PM    PM PM PM PM            
  E  S  S  S  S  E  S  S  S  S  E  S  S     S  S  E  S  S  S  S  Q    Q     
-----------------------------------------|---------------------------------|
-----------------------------------------|---------------------------------|
-----------------------------------------|-----------------------8----8----|
--7--------------7--------------7--------|--------7--------------8----8----|
--7--------------7--------------7--------|--------7--------------6----6----|
--5--5--5--5--5--5--5--5--5--5--5--5--5--|--5--5--5--5--5--5--5------------|


     PM PM PM PM    PM PM PM PM    PM PM  
  E  S  S  S  S  E  S  S  S  S  E  S  S   
-----------------------------------------|
-----------------------------------------|
-----------------------------------------|
--7--------------7--------------7--------|
--7--------------7--------------7--------|
--5--5--5--5--5--5--5--5--5--5--5--5--5--|


  PM PM PM PM PM PM PM PM PM PM PM PM PM PM       PM PM    PM PM    PM  
  E  E  S  S  S  S  S  S  S  S  S  S  S  S     E  E  E  E  E  E  E  E   
--------------------------------------------|--------------------------|
--------------------------------------------|--------------------------|
--------------------------------------------|--------------------------|
--------------------------------------------|--7--------7--------7-----|
-----7--7--6--5--4--6--5--4--3--5--4--3--2--|--7--------7--------7-----|
--5-----------------------------------------|--5--5--5--5--5--5--5--5--|


  PM    PM PM                 PM PM    PM PM    PM    PM                       
  E  E  E  E  Q    Q       E  E  E  E  E  E  E  E     E  E  E  E  E  E  E  E   
------------------------|--------------------------|--------------------------|
------------------------|--------------------------|--------------------------|
--------------8----8----|--------------------------|--------------------------|
-----7--------8----8----|--7--------7--------7-----|--------------------------|
-----7--------6----6----|--7--------7--------7-----|-----8--7--5--7--5--------|
--5--5--5--5------------|--5--5--5--5--5--5--5--5--|--5-----------------7--8--|


     PM PM    PM PM    PM    PM    PM PM                 PM PM    PM PM    PM  
  E  E  E  E  E  E  E  E     E  E  E  E  Q    Q       E  E  E  E  E  E  E  E   
--------------------------|------------------------|--------------------------|
--------------------------|------------------------|--------------------------|
--------------------------|--------------8----8----|--------------------------|
--7--------7--------7-----|-----7--------8----8----|--7--------7--------7-----|
--7--------7--------7-----|-----7--------6----6----|--7--------7--------7-----|
--5--5--5--5--5--5--5--5--|--5--5--5--5------------|--5--5--5--5--5--5--5--5--|


  PM                           PM PM PM PM    PM PM PM PM    PM PM  
  E  E  E  E  E  E  Q       E  S  S  S  S  E  S  S  S  S  E  S  S   
-------------------------|-----------------------------------------|
-------------------------|-----------------------------------------|
-------------------------|-----------------------------------------|
-------------------------|--7--------------7--------------7--------|
-----8--7--5--7--5-------|--7--------------7--------------7--------|
--5-----------------7----|--5--5--5--5--5--5--5--5--5--5--5--5--5--|


  PM PM    PM PM PM PM                 PM PM PM PM    PM PM PM PM    PM PM  
  S  S  E  S  S  S  S  Q    Q       E  S  S  S  S  E  S  S  S  S  E  S  S   
---------------------------------|-----------------------------------------|
---------------------------------|-----------------------------------------|
-----------------------8----8----|-----------------------------------------|
--------7--------------8----8----|--7--------------7--------------7--------|
--------7--------------6----6----|--7--------------7--------------7--------|
--5--5--5--5--5--5--5------------|--5--5--5--5--5--5--5--5--5--5--5--5--5--|


  PM PM PM PM PM PM PM PM PM PM PM PM PM PM  
  E  E  S  S  S  S  S  S  S  S  S  S  S  S   
--------------------------------------------|
--------------------------------------------|
--------------------------------------------|
--------------------------------------------|
-----7--7--6--5--4--6--5--4--3--5--4--3--2--|
--5-----------------------------------------|


     PM PM PM PM    PM PM PM PM    PM PM    PM PM    PM PM PM PM            
  E  S  S  S  S  E  S  S  S  S  E  S  S     S  S  E  S  S  S  S  Q    Q     
-----------------------------------------|---------------------------------|
-----------------------------------------|---------------------------------|
-----------------------------------------|-----------------------8----8----|
--7--------------7--------------7--------|--------7--------------8----8----|
--7--------------7--------------7--------|--------7--------------6----6----|
--5--5--5--5--5--5--5--5--5--5--5--5--5--|--5--5--5--5--5--5--5------------|


     PM PM PM PM    PM PM PM PM    PM PM  
  E  S  S  S  S  E  S  S  S  S  E  S  S   
-----------------------------------------|
-----------------------------------------|
-----------------------------------------|
--7--------------7--------------7--------|
--7--------------7--------------7--------|
--5--5--5--5--5--5--5--5--5--5--5--5--5--|


  PM PM PM PM PM PM PM PM PM PM PM PM PM PM                           
  E  E  S  S  S  S  S  S  S  S  S  S  S  S      Q.      Q.      Q     
--------------------------------------------|------------------------|
--------------------------------------------|------------------------|
--------------------------------------------|--14------16------17----|
--------------------------------------------|------------------------|
-----7--7--6--5--4--6--5--4--3--5--4--3--2--|------------------------|
--5-----------------------------------------|------------------------|


  Q     Q.      E   Q        Q.      Q.      Q       Q     H.            
-------------------------|------------------------|---------------------|
-------------------------|------------------------|---------------------|
--L----16------14--16----|------------------------|---------------------|
-------------------------|--17------14------16----|--L------------------|
-------------------------|------------------------|-------17------------|
-------------------------|------------------------|---------------------|


     W                     W                    H.             Q      
------------------------|-------------------|------------------------|
------------------------|-------------------|------------------------|
--<>14br----------------|--L----------------|------------------------|
------------------------|-------------------|--15~-------------------|
------------------------|-------------------|-----------------17~----|
------------------------|-------------------|------------------------|


  W                      W                     W                 
-------------------|------------------------|-------------------|
-------------------|------------------------|-------------------|
-------------------|--<>14br----------------|--L----------------|
-------------------|------------------------|-------------------|
--L----------------|------------------------|-------------------|
-------------------|------------------------|-------------------|


   H.             Q        W                 
------------------------|-------------------|
------------------------|-------------------|
------------------------|-------------------|
--15~-------------------|-------------------|
-----------------17~----|--L----------------|
------------------------|-------------------|


  PM PM PM PM PM PM PM PM PM PM PM PM PM      
  S  S  S  S  S  S  S  S  S  S  S  S  S  E.   
---------------------------------------------|
---------------------------------------------|
---------------------------------------------|
---------------------------------------------|
---------------------------------------------|
--7--7--7--6--5--4--7--7--7--7--6--5--4------|


  PM PM PM PM PM PM PM PM PM PM PM PM PM      
  S  S  S  S  S  S  S  S  S  S  S  S  S  E.   
---------------------------------------------|
---------------------------------------------|
---------------------------------------------|
---------------------------------------------|
---------------------------------------------|
--7--7--7--6--5--4--7--7--7--7--6--5--4------|


  PM PM PM PM PM PM PM PM PM PM PM PM PM      
  S  S  S  S  S  S  S  S  S  S  S  S  S  E.   
---------------------------------------------|
---------------------------------------------|
---------------------------------------------|
---------------------------------------------|
---------------------------------------------|
--7--7--7--6--5--4--7--7--7--7--6--5--4------|


  PM PM PM PM PM PM PM PM PM PM PM PM PM      
  S  S  S  S  S  S  S  S  S  S  S  S  S  E.   
---------------------------------------------|
---------------------------------------------|
---------------------------------------------|
---------------------------------------------|
---------------------------------------------|
--7--7--7--6--5--4--7--7--7--7--6--5--4------|


  PM PM PM PM PM PM PM PM PM PM PM PM PM      
  S  S  S  S  S  S  S  S  S  S  S  S  S  E.   
---------------------------------------------|
---------------------------------------------|
---------------------------------------------|
---------------------------------------------|
---------------------------------------------|
--7--7--7--6--5--4--7--7--7--7--6--5--4------|


  PM PM PM PM PM PM PM PM PM PM PM PM PM      
  S  S  S  S  S  S  S  S  S  S  S  S  S  E.   
---------------------------------------------|
---------------------------------------------|
---------------------------------------------|
---------------------------------------------|
---------------------------------------------|
--7--7--7--6--5--4--7--7--7--7--6--5--4------|


  PM PM PM PM PM PM PM PM PM PM PM PM PM      
  S  S  S  S  S  S  S  S  S  S  S  S  S  E.   
---------------------------------------------|
---------------------------------------------|
---------------------------------------------|
---------------------------------------------|
---------------------------------------------|
--7--7--7--6--5--4--7--7--7--7--6--5--4------|


  PM PM PM PM PM PM PM PM PM PM PM PM PM      
  S  S  S  S  S  S  S  S  S  S  S  S  S  E.   
---------------------------------------------|
---------------------------------------------|
---------------------------------------------|
---------------------------------------------|
---------------------------------------------|
--7--7--7--6--5--4--7--7--7--7--6--5--4------|


  PM PM PM PM PM PM PM PM PM PM PM PM PM      
  S  S  S  S  S  S  S  S  S  S  S  S  S  E.   
---------------------------------------------|
---------------------------------------------|
---------------------------------------------|
---------------------------------------------|
---------------------------------------------|
--7--7--7--6--5--4--7--7--7--7--6--5--4------|


  PM PM PM PM PM PM PM PM PM PM PM PM PM PM PM PM  
  S  S  S  S  S  S  S  S  S  S  S  S  S  S  S  S   
--------------------------------------------------|
--------------------------------------------------|
--------------------------------------------------|
--------------------------------------------------|
--------------------------------------------------|
--7--7--7--6--5--4--7--7--7--7--6--5--8--8--8--8--|


  PM PM PM PM PM PM PM PM PM PM PM PM PM      
  S  S  S  S  S  S  S  S  S  S  S  S  S  E.   
---------------------------------------------|
---------------------------------------------|
---------------------------------------------|
---------------------------------------------|
---------------------------------------------|
--7--7--7--6--5--4--7--7--7--7--6--5--4------|


  PM PM PM PM PM PM PM PM PM PM PM PM PM PM PM PM  
  S  S  S  S  S  S  S  S  S  S  S  S  S  S  S  S   
--------------------------------------------------|
--------------------------------------------------|
--------------------------------------------------|
--------------------------------------------------|
--------------------------------------------------|
--7--7--7--6--5--4--7--7--7--7--6--5--8--8--8--8--|


  PM PM PM PM PM PM PM PM PM PM PM PM PM      
  S  S  S  S  S  S  S  S  S  S  S  S  S  E.   
---------------------------------------------|
---------------------------------------------|
---------------------------------------------|
---------------------------------------------|
---------------------------------------------|
--7--7--7--6--5--4--7--7--7--7--6--5--4------|


  PM PM PM PM PM PM PM PM PM PM PM PM PM PM PM PM  
  S  S  S  S  S  S  S  S  S  S  S  S  S  S  S  S   
--------------------------------------------------|
--------------------------------------------------|
--------------------------------------------------|
--------------------------------------------------|
--------------------------------------------------|
--7--7--7--6--5--4--7--7--7--7--6--5--8--8--8--8--|


  PM PM PM PM PM PM PM PM PM PM PM PM PM      
  S  S  S  S  S  S  S  S  S  S  S  S  S  E.   
---------------------------------------------|
---------------------------------------------|
---------------------------------------------|
---------------------------------------------|
---------------------------------------------|
--7--7--7--6--5--4--7--7--7--7--6--5--4------|


  PM PM PM PM PM PM PM PM PM PM PM PM PM PM PM PM  
  S  S  S  S  S  S  S  S  S  S  S  S  S  S  S  S   
--------------------------------------------------|
--------------------------------------------------|
--------------------------------------------------|
--------------------------------------------------|
--------------------------------------------------|
--7--7--7--6--5--4--7--7--7--7--6--5--8--8--8--8--|


  PM PM PM PM PM PM PM PM PM PM PM PM PM PM PM PM  
  S  S  S  S  S  S  S  S  S  S  S  S  S  S  S  S   
--------------------------------------------------|
--------------------------------------------------|
--------------------------------------------------|
--------------------------------------------------|
--------------------------------------------------|
--7--7--7--6--5--4--7--7--7--7--6--5--8--8--8--8--|


  PM PM PM PM PM PM PM PM PM PM PM PM PM PM PM PM  
  S  S  S  S  S  S  S  S  S  S  S  S  S  S  S  S   
--------------------------------------------------|
--------------------------------------------------|
--------------------------------------------------|
--------------------------------------------------|
--------------------------------------------------|
--7--7--7--6--5--4--7--7--7--7--6--5--8--8--8--8--|


  PM PM PM PM PM PM PM PM PM PM PM PM PM PM PM PM  
  S  S  S  S  S  S  S  S  S  S  S  S  S  S  S  S   
--------------------------------------------------|
--------------------------------------------------|
--------------------------------------------------|
--------------------------------------------------|
--------------------------------------------------|
--7--7--7--6--5--4--7--7--7--7--6--5--8--8--8--8--|


  PM PM PM PM PM PM PM PM PM PM PM PM PM PM PM PM  
  S  S  S  S  S  S  S  S  S  S  S  S  S  S  S  S   
--------------------------------------------------|
--------------------------------------------------|
--------------------------------------------------|
--------------------------------------------------|
--------------------------------------------------|
--7--7--7--6--5--4--7--7--7--7--6--5--8--8--8--8--|


  PM PM PM PM PM PM PM PM PM PM PM PM PM PM PM PM  
  S  S  S  S  S  S  S  S  S  S  S  S  S  S  S  S   
--------------------------------------------------|
--------------------------------------------------|
--------------------------------------------------|
--------------------------------------------------|
--------------------------------------------------|
--7--7--7--6--5--4--7--7--7--7--6--5--8--8--8--8--|


  PM PM PM PM PM PM PM PM PM PM PM PM PM PM PM PM  
  S  S  S  S  S  S  S  S  S  S  S  S  S  S  S  S   
--------------------------------------------------|
--------------------------------------------------|
--------------------------------------------------|
--------------------------------------------------|
--------------------------------------------------|
--7--7--7--6--5--4--7--7--7--7--6--5--8--8--8--8--|


  PM PM PM PM PM PM PM PM PM PM PM PM PM PM PM PM  
  S  S  S  S  S  S  S  S  S  S  S  S  S  S  S  S   
--------------------------------------------------|
--------------------------------------------------|
--------------------------------------------------|
--------------------------------------------------|
--------------------------------------------------|
--7--7--7--6--5--4--7--7--7--7--6--5--8--8--8--8--|


  PM PM PM PM PM PM PM PM PM PM PM PM PM PM PM PM                           
  S  S  S  S  S  S  S  S  S  S  S  S  S  S  S  S      Q.      Q.      Q     
--------------------------------------------------|------------------------|
--------------------------------------------------|------------------------|
--------------------------------------------------|------------------------|
--------------------------------------------------|--14------16------17----|
--------------------------------------------------|------------------------|
--7--7--7--6--5--4--7--7--7--7--6--5--8--8--8--8--|------------------------|


  Q     H         Q        H.            Q        Q     Q.      Q.      
-----------------------|----------------------|------------------------|
-----------------------|----------------------|------------------------|
-------14--------------|----------------------|------------------------|
--L--------------17----|--16------------14----|---L------------14------|
-----------------------|----------------------|--------17--------------|
-----------------------|----------------------|------------------------|


   Q.      Q.      Q       Q     H         Q        Q.      Q.      Q      
------------------------|-----------------------|-------------------------|
------------------------|-----------------------|----------15-------------|
------------------------|-------14--------16----|--17--------------16~----|
--14------16------17----|--L--------------------|-------------------------|
------------------------|-----------------------|-------------------------|
------------------------|-----------------------|-------------------------|


  H.           Q         Q.      Q.      Q       Q     H         S  S  E   
---------------------|------------------------|---------------------------|
---------------------|------------------------|-------15-----------15-----|
--L------------L\----|--14------16------17----|--L--------------17----17--|
---------------------|------------------------|---------------------------|
---------------------|------------------------|---------------------------|
---------------------|------------------------|---------------------------|


   Q.      Q.      Q       Q     H         Q        Q.      Q.      Q     
------------------------|-----------------------|------------------------|
------------------------|-----------------------|------------------------|
--17------16------14----|--L--------------14----|------------------------|
------------------------|-------17--------------|--14------16------17----|
------------------------|-----------------------|------------------------|
------------------------|-----------------------|------------------------|


  Q     H         Q        Q.      Q.      Q       H        H          
-----------------------|------------------------|---------------------|
-------17--------17----|--17------18------15----|--L--------L\--------|
-----------------------|------------------------|---------------------|
--L--------------------|------------------------|---------------------|
-----------------------|------------------------|---------------------|
-----------------------|------------------------|---------------------|


   Q.      Q.      Q       Q     H         Q        Q.      Q.      Q     
------------------------|-----------------------|------------------------|
------------------------|-------15--------------|------------------------|
------------------------|-----------------17----|--17------16------14----|
--14------16------17----|--L--------------------|------------------------|
------------------------|-----------------------|------------------------|
------------------------|-----------------------|------------------------|


  Q     H         Q        Q.      Q.      Q       Q     H         Q     
-----------------------|------------------------|-----------------------|
-----------------------|------------------------|-------17--------17----|
--L--------------14----|------------------------|-----------------------|
-------17--------------|--14------16------17----|--L--------------------|
-----------------------|------------------------|-----------------------|
-----------------------|------------------------|-----------------------|


                                                  PM PM    PM PM    PM  
   Q.      Q.      Q       W                   E  E  E  E  E  E  E  E   
------------------------|-------------------|--------------------------|
--18------17------15----|--L----------------|--------------------------|
------------------------|-------------------|--------------------------|
------------------------|-------------------|--7--------7--------7-----|
------------------------|-------------------|--7--------7--------7-----|
------------------------|-------------------|--5--5--5--5--5--5--5--5--|


  PM    PM PM                 PM PM    PM PM    PM    PM                       
  E  E  E  E  Q    Q       E  E  E  E  E  E  E  E     E  E  E  E  E  E  E  E   
------------------------|--------------------------|--------------------------|
------------------------|--------------------------|--------------------------|
--------------8----8----|--------------------------|--------------------------|
-----7--------8----8----|--7--------7--------7-----|--------------------------|
-----7--------6----6----|--7--------7--------7-----|-----8--7--5--7--5--------|
--5--5--5--5------------|--5--5--5--5--5--5--5--5--|--5-----------------7--8--|


     PM PM    PM PM    PM    PM    PM PM                 PM PM    PM PM    PM  
  E  E  E  E  E  E  E  E     E  E  E  E  Q    Q       E  E  E  E  E  E  E  E   
--------------------------|------------------------|--------------------------|
--------------------------|------------------------|--------------------------|
--------------------------|--------------8----8----|--------------------------|
--7--------7--------7-----|-----7--------8----8----|--7--------7--------7-----|
--7--------7--------7-----|-----7--------6----6----|--7--------7--------7-----|
--5--5--5--5--5--5--5--5--|--5--5--5--5------------|--5--5--5--5--5--5--5--5--|


  PM                           PM PM    PM PM    PM    PM    PM PM            
  E  E  E  E  E  E  Q       E  E  E  E  E  E  E  E     E  E  E  E  Q    Q     
-------------------------|--------------------------|------------------------|
-------------------------|--------------------------|------------------------|
-------------------------|--------------------------|--------------8----8----|
-------------------------|--7--------7--------7-----|-----7--------8----8----|
-----8--7--5--7--5-------|--7--------7--------7-----|-----7--------6----6----|
--5-----------------7----|--5--5--5--5--5--5--5--5--|--5--5--5--5------------|


     PM PM    PM PM    PM    PM                        
  E  E  E  E  E  E  E  E     E  E  E  E  E  E  E  E    
--------------------------|--------------------------||
--------------------------|--------------------------||
--------------------------|--------------------------||
--7--------7--------7-----|--------------------------||
--7--------7--------7-----|-----8--7--5--7--5--------||
--5--5--5--5--5--5--5--5--|--5-----------------7--8--||

Rhythm Guitar

      PM PM   PM PM   PM                          PM PM   PM PM   PM    
      E  Q    E  Q    Q       W                   E  Q    E  Q    Q     
B ||-----------------------|-------------------|-----------------------|
F#||-----------------------|-------------------|-----------------------|
D ||-----------------------|-------------------|-----------------------|
A ||-----------------------|-------------------|-----------------------|
E ||--5--5----5--5----5----|-------------------|--5--5----5--5----5----|
B ||--3--3----3--3----3----|-------------------|--3--3----3--3----3----|


                      PM PM   PM PM   PM                        
  W                   E  Q    E  Q    Q       W                 
-------------------|-----------------------|-------------------|
-------------------|-----------------------|-------------------|
-------------------|-----------------------|-------------------|
-------------------|-----------------------|-------------------|
-------------------|--5--5----5--5----5----|-------------------|
-------------------|--3--3----3--3----3----|-------------------|


  PM PM   PM PM   PM                          PM PM   PM PM   PM    
  E  Q    E  Q    Q       W                   E  Q    E  Q    Q     
-----------------------|-------------------|-----------------------|
-----------------------|-------------------|-----------------------|
-----------------------|-------------------|-----------------------|
-----------------------|-------------------|-----------------------|
--5--5----5--5----5----|-------------------|--5--5----5--5----5----|
--3--3----3--3----3----|-------------------|--3--3----3--3----3----|


                      PM PM   PM PM   PM                        
  W                   E  Q    E  Q    Q       W                 
-------------------|-----------------------|-------------------|
-------------------|-----------------------|-------------------|
-------------------|-----------------------|-------------------|
-------------------|-----------------------|-------------------|
-------------------|--5--5----5--5----5----|-------------------|
-------------------|--3--3----3--3----3----|-------------------|


  PM PM   PM PM   PM                          PM PM   PM PM   PM    
  E  Q    E  Q    Q       W                   E  Q    E  Q    Q     
-----------------------|-------------------|-----------------------|
-----------------------|-------------------|-----------------------|
-----------------------|-------------------|-----------------------|
-----------------------|-------------------|-----------------------|
--5--5----5--5----5----|-------------------|--5--5----5--5----5----|
--3--3----3--3----3----|-------------------|--3--3----3--3----3----|


                               PM PM                      PM PM  
  W                   H        E  E  Q       H.           E  E   
-------------------|----------------------|---------------------|
-------------------|----------------------|---------------------|
-------------------|----------------------|---------------------|
-------------------|--7--------------7----|--L------------------|
-------------------|--7--------7--7--7----|--L------------7--7--|
-------------------|--5--------5--5--5----|--L------------5--5--|


           PM PM                      PM PM             PM PM       
  H        E  E  Q       H.           E  E     H        E  E  Q     
----------------------|---------------------|----------------------|
----------------------|---------------------|----------------------|
----------------------|---------------------|----------------------|
--7--------------7----|--L------------------|--7--------------7----|
--7--------7--7--7----|--L------------7--7--|--7--------7--7--7----|
--5--------5--5--5----|--L------------5--5--|--5--------5--5--5----|


               PM PM             PM PM                      PM PM  
  H.           E  E     H        E  E  Q       H.           E  E   
---------------------|----------------------|---------------------|
---------------------|----------------------|---------------------|
---------------------|----------------------|---------------------|
--L------------------|--7--------------7----|--L------------------|
--L------------7--7--|--7--------7--7--7----|--L------------7--7--|
--L------------5--5--|--5--------5--5--5----|--L------------5--5--|


           PM PM                      PM PM             PM PM       
  H        E  E  Q       H.           E  E     H        E  E  Q     
----------------------|---------------------|----------------------|
----------------------|---------------------|----------------------|
----------------------|---------------------|----------------------|
--7--------------7----|--L------------------|--7--------------7----|
--7--------7--7--7----|--L------------7--7--|--7--------7--7--7----|
--5--------5--5--5----|--L------------5--5--|--5--------5--5--5----|


                         PM PM PM PM    PM PM PM PM    PM PM  
  W                   E  S  S  S  S  E  S  S  S  S  E  S  S   
-------------------|-----------------------------------------|
-------------------|-----------------------------------------|
-------------------|-----------------------------------------|
-------------------|--7--------------7--------------7--------|
-------------------|--7--------------7--------------7--------|
-------------------|--5--5--5--5--5--5--5--5--5--5--5--5--5--|


  PM PM    PM PM PM PM                 PM PM PM PM    PM PM PM PM    PM PM  
  S  S  E  S  S  S  S  Q    Q       E  S  S  S  S  E  S  S  S  S  E  S  S   
---------------------------------|-----------------------------------------|
---------------------------------|-----------------------------------------|
-----------------------8----8----|-----------------------------------------|
--------7--------------8----8----|--7--------------7--------------7--------|
--------7--------------6----6----|--7--------------7--------------7--------|
--5--5--5--5--5--5--5------------|--5--5--5--5--5--5--5--5--5--5--5--5--5--|


  PM PM PM PM PM PM PM PM PM PM PM PM PM PM  
  E  E  S  S  S  S  S  S  S  S  S  S  S  S   
--------------------------------------------|
--------------------------------------------|
--------------------------------------------|
--------------------------------------------|
-----7--7--6--5--4--6--5--4--3--5--4--3--2--|
--5-----------------------------------------|


     PM PM PM PM    PM PM PM PM    PM PM    PM PM    PM PM PM PM            
  E  S  S  S  S  E  S  S  S  S  E  S  S     S  S  E  S  S  S  S  Q    Q     
-----------------------------------------|---------------------------------|
-----------------------------------------|---------------------------------|
-----------------------------------------|-----------------------8----8----|
--7--------------7--------------7--------|--------7--------------8----8----|
--7--------------7--------------7--------|--------7--------------6----6----|
--5--5--5--5--5--5--5--5--5--5--5--5--5--|--5--5--5--5--5--5--5------------|


     PM PM PM PM    PM PM PM PM    PM PM  
  E  S  S  S  S  E  S  S  S  S  E  S  S   
-----------------------------------------|
-----------------------------------------|
-----------------------------------------|
--7--------------7--------------7--------|
--7--------------7--------------7--------|
--5--5--5--5--5--5--5--5--5--5--5--5--5--|


  PM PM PM PM PM PM PM PM PM PM PM PM PM PM       PM PM    PM PM    PM  
  E  E  S  S  S  S  S  S  S  S  S  S  S  S     E  E  E  E  E  E  E  E   
--------------------------------------------|--------------------------|
--------------------------------------------|--------------------------|
--------------------------------------------|--------------------------|
--------------------------------------------|--7--------7--------7-----|
-----7--7--6--5--4--6--5--4--3--5--4--3--2--|--7--------7--------7-----|
--5-----------------------------------------|--5--5--5--5--5--5--5--5--|


  PM    PM PM                 PM PM    PM PM    PM    PM                       
  E  E  E  E  Q    Q       E  E  E  E  E  E  E  E     E  E  E  E  E  E  E  E   
------------------------|--------------------------|--------------------------|
------------------------|--------------------------|--------------------------|
--------------8----8----|--------------------------|--------------------------|
-----7--------8----8----|--7--------7--------7-----|--------------------------|
-----7--------6----6----|--7--------7--------7-----|-----8--7--5--7--5--------|
--5--5--5--5------------|--5--5--5--5--5--5--5--5--|--5-----------------7--8--|


     PM PM    PM PM    PM    PM    PM PM                 PM PM    PM PM    PM  
  E  E  E  E  E  E  E  E     E  E  E  E  Q    Q       E  E  E  E  E  E  E  E   
--------------------------|------------------------|--------------------------|
--------------------------|------------------------|--------------------------|
--------------------------|--------------8----8----|--------------------------|
--7--------7--------7-----|-----7--------8----8----|--7--------7--------7-----|
--7--------7--------7-----|-----7--------6----6----|--7--------7--------7-----|
--5--5--5--5--5--5--5--5--|--5--5--5--5------------|--5--5--5--5--5--5--5--5--|


  PM                           PM PM PM PM    PM PM PM PM    PM PM  
  E  E  E  E  E  E  Q       E  S  S  S  S  E  S  S  S  S  E  S  S   
-------------------------|-----------------------------------------|
-------------------------|-----------------------------------------|
-------------------------|-----------------------------------------|
-------------------------|--7--------------7--------------7--------|
-----8--7--5--7--5-------|--7--------------7--------------7--------|
--5-----------------7----|--5--5--5--5--5--5--5--5--5--5--5--5--5--|


  PM PM    PM PM PM PM                 PM PM PM PM    PM PM PM PM    PM PM  
  S  S  E  S  S  S  S  Q    Q       E  S  S  S  S  E  S  S  S  S  E  S  S   
---------------------------------|-----------------------------------------|
---------------------------------|-----------------------------------------|
-----------------------8----8----|-----------------------------------------|
--------7--------------8----8----|--7--------------7--------------7--------|
--------7--------------6----6----|--7--------------7--------------7--------|
--5--5--5--5--5--5--5------------|--5--5--5--5--5--5--5--5--5--5--5--5--5--|


  PM PM PM PM PM PM PM PM PM PM PM PM PM PM  
  E  E  S  S  S  S  S  S  S  S  S  S  S  S   
--------------------------------------------|
--------------------------------------------|
--------------------------------------------|
--------------------------------------------|
-----7--7--6--5--4--6--5--4--3--5--4--3--2--|
--5-----------------------------------------|


     PM PM PM PM    PM PM PM PM    PM PM    PM PM    PM PM PM PM            
  E  S  S  S  S  E  S  S  S  S  E  S  S     S  S  E  S  S  S  S  Q    Q     
-----------------------------------------|---------------------------------|
-----------------------------------------|---------------------------------|
-----------------------------------------|-----------------------8----8----|
--7--------------7--------------7--------|--------7--------------8----8----|
--7--------------7--------------7--------|--------7--------------6----6----|
--5--5--5--5--5--5--5--5--5--5--5--5--5--|--5--5--5--5--5--5--5------------|


     PM PM PM PM    PM PM PM PM    PM PM  
  E  S  S  S  S  E  S  S  S  S  E  S  S   
-----------------------------------------|
-----------------------------------------|
-----------------------------------------|
--7--------------7--------------7--------|
--7--------------7--------------7--------|
--5--5--5--5--5--5--5--5--5--5--5--5--5--|


  PM PM PM PM PM PM PM PM PM PM PM PM PM PM                       
  E  E  S  S  S  S  S  S  S  S  S  S  S  S     H.           Q     
--------------------------------------------|--------------------|
--------------------------------------------|--------------------|
--------------------------------------------|--------------------|
--------------------------------------------|--5------------5----|
-----7--7--6--5--4--6--5--4--3--5--4--3--2--|--5------------5----|
--5-----------------------------------------|--3------------3----|


               PM PM                                      PM PM  
  H.           E  E     H.           Q       H.           E  E   
---------------------|--------------------|---------------------|
---------------------|--------------------|---------------------|
---------------------|--5------------7----|--L------------------|
--L------------------|--5------------7----|--L------------7--7--|
--L------------5--5--|--3------------5----|--L------------5--5--|
--L------------3--3--|--------------------|---------------------|


                                    PM PM                       
  H.           Q       H.           E  E     H.           Q     
--------------------|---------------------|--------------------|
--------------------|---------------------|--------------------|
--------------------|---------------------|--5------------7----|
--5------------5----|--L------------------|--5------------7----|
--5------------5----|--L------------5--5--|--3------------5----|
--3------------3----|--L------------3--3--|--------------------|


               PM PM                                      PM PM  
  H.           E  E     H.           Q       H.           E  E   
---------------------|--------------------|---------------------|
---------------------|--------------------|---------------------|
--L------------------|--------------------|---------------------|
--L------------7--7--|--5------------5----|--L------------------|
--L------------5--5--|--5------------5----|--L------------5--5--|
---------------------|--3------------3----|--L------------3--3--|


  H.           Q       H        H          
--------------------|---------------------|
--------------------|---------------------|
--5------------7----|--L--------7\--------|
--5------------7----|--L--------7\--------|
--3------------5----|--L--------5\--------|
--------------------|---------------------|


     PM PM PM PM    PM PM PM PM    PM PM    PM PM    PM PM PM PM            
  E  S  S  S  S  E  S  S  S  S  E  S  S     S  S  E  S  S  S  S  Q    Q     
-----------------------------------------|---------------------------------|
-----------------------------------------|---------------------------------|
-----------------------------------------|-----------------------8----8----|
--7--------------7--------------7--------|--------7--------------8----8----|
--7--------------7--------------7--------|--------7--------------6----6----|
--5--5--5--5--5--5--5--5--5--5--5--5--5--|--5--5--5--5--5--5--5------------|


     PM PM PM PM    PM PM PM PM    PM PM  
  E  S  S  S  S  E  S  S  S  S  E  S  S   
-----------------------------------------|
-----------------------------------------|
-----------------------------------------|
--7--------------7--------------7--------|
--7--------------7--------------7--------|
--5--5--5--5--5--5--5--5--5--5--5--5--5--|


  PM PM PM PM PM PM PM PM PM PM PM PM PM PM  
  E  E  S  S  S  S  S  S  S  S  S  S  S  S   
--------------------------------------------|
--------------------------------------------|
--------------------------------------------|
--------------------------------------------|
-----7--7--6--5--4--6--5--4--3--5--4--3--2--|
--5-----------------------------------------|


     PM PM PM PM    PM PM PM PM    PM PM    PM PM    PM PM PM PM            
  E  S  S  S  S  E  S  S  S  S  E  S  S     S  S  E  S  S  S  S  Q    Q     
-----------------------------------------|---------------------------------|
-----------------------------------------|---------------------------------|
-----------------------------------------|-----------------------8----8----|
--7--------------7--------------7--------|--------7--------------8----8----|
--7--------------7--------------7--------|--------7--------------6----6----|
--5--5--5--5--5--5--5--5--5--5--5--5--5--|--5--5--5--5--5--5--5------------|


     PM PM PM PM    PM PM PM PM    PM PM  
  E  S  S  S  S  E  S  S  S  S  E  S  S   
-----------------------------------------|
-----------------------------------------|
-----------------------------------------|
--7--------------7--------------7--------|
--7--------------7--------------7--------|
--5--5--5--5--5--5--5--5--5--5--5--5--5--|


  PM PM PM PM PM PM PM PM PM PM PM PM PM PM       PM PM    PM PM    PM  
  E  E  S  S  S  S  S  S  S  S  S  S  S  S     E  E  E  E  E  E  E  E   
--------------------------------------------|--------------------------|
--------------------------------------------|--------------------------|
--------------------------------------------|--------------------------|
--------------------------------------------|--7--------7--------7-----|
-----7--7--6--5--4--6--5--4--3--5--4--3--2--|--7--------7--------7-----|
--5-----------------------------------------|--5--5--5--5--5--5--5--5--|


  PM    PM PM                 PM PM    PM PM    PM    PM                       
  E  E  E  E  Q    Q       E  E  E  E  E  E  E  E     E  E  E  E  E  E  E  E   
------------------------|--------------------------|--------------------------|
------------------------|--------------------------|--------------------------|
--------------8----8----|--------------------------|--------------------------|
-----7--------8----8----|--7--------7--------7-----|--------------------------|
-----7--------6----6----|--7--------7--------7-----|-----8--7--5--7--5--------|
--5--5--5--5------------|--5--5--5--5--5--5--5--5--|--5-----------------7--8--|


     PM PM    PM PM    PM    PM    PM PM                 PM PM    PM PM    PM  
  E  E  E  E  E  E  E  E     E  E  E  E  Q    Q       E  E  E  E  E  E  E  E   
--------------------------|------------------------|--------------------------|
--------------------------|------------------------|--------------------------|
--------------------------|--------------8----8----|--------------------------|
--7--------7--------7-----|-----7--------8----8----|--7--------7--------7-----|
--7--------7--------7-----|-----7--------6----6----|--7--------7--------7-----|
--5--5--5--5--5--5--5--5--|--5--5--5--5------------|--5--5--5--5--5--5--5--5--|


  PM                           PM PM PM PM    PM PM PM PM    PM PM  
  E  E  E  E  E  E  Q       E  S  S  S  S  E  S  S  S  S  E  S  S   
-------------------------|-----------------------------------------|
-------------------------|-----------------------------------------|
-------------------------|-----------------------------------------|
-------------------------|--7--------------7--------------7--------|
-----8--7--5--7--5-------|--7--------------7--------------7--------|
--5-----------------7----|--5--5--5--5--5--5--5--5--5--5--5--5--5--|


  PM PM    PM PM PM PM                 PM PM PM PM    PM PM PM PM    PM PM  
  S  S  E  S  S  S  S  Q    Q       E  S  S  S  S  E  S  S  S  S  E  S  S   
---------------------------------|-----------------------------------------|
---------------------------------|-----------------------------------------|
-----------------------8----8----|-----------------------------------------|
--------7--------------8----8----|--7--------------7--------------7--------|
--------7--------------6----6----|--7--------------7--------------7--------|
--5--5--5--5--5--5--5------------|--5--5--5--5--5--5--5--5--5--5--5--5--5--|


  PM PM PM PM PM PM PM PM PM PM PM PM PM PM  
  E  E  S  S  S  S  S  S  S  S  S  S  S  S   
--------------------------------------------|
--------------------------------------------|
--------------------------------------------|
--------------------------------------------|
-----7--7--6--5--4--6--5--4--3--5--4--3--2--|
--5-----------------------------------------|


     PM PM PM PM    PM PM PM PM    PM PM    PM PM    PM PM PM PM            
  E  S  S  S  S  E  S  S  S  S  E  S  S     S  S  E  S  S  S  S  Q    Q     
-----------------------------------------|---------------------------------|
-----------------------------------------|---------------------------------|
-----------------------------------------|-----------------------8----8----|
--7--------------7--------------7--------|--------7--------------8----8----|
--7--------------7--------------7--------|--------7--------------6----6----|
--5--5--5--5--5--5--5--5--5--5--5--5--5--|--5--5--5--5--5--5--5------------|


     PM PM PM PM    PM PM PM PM    PM PM  
  E  S  S  S  S  E  S  S  S  S  E  S  S   
-----------------------------------------|
-----------------------------------------|
-----------------------------------------|
--7--------------7--------------7--------|
--7--------------7--------------7--------|
--5--5--5--5--5--5--5--5--5--5--5--5--5--|


  PM PM PM PM PM PM PM PM PM PM PM PM PM PM                       
  E  E  S  S  S  S  S  S  S  S  S  S  S  S     H.           Q     
--------------------------------------------|--------------------|
--------------------------------------------|--------------------|
--------------------------------------------|--------------------|
--------------------------------------------|--5------------5----|
-----7--7--6--5--4--6--5--4--3--5--4--3--2--|--5------------5----|
--5-----------------------------------------|--3------------3----|


               PM PM                                      PM PM  
  H.           E  E     H.           Q       H.           E  E   
---------------------|--------------------|---------------------|
---------------------|--------------------|---------------------|
---------------------|--5------------7----|--L------------------|
--L------------------|--5------------7----|--L------------7--7--|
--L------------5--5--|--3------------5----|--L------------5--5--|
--L------------3--3--|--------------------|---------------------|


                                    PM PM                       
  H.           Q       H.           E  E     H.           Q     
--------------------|---------------------|--------------------|
--------------------|---------------------|--------------------|
--------------------|---------------------|--5------------7----|
--5------------5----|--L------------------|--5------------7----|
--5------------5----|--L------------5--5--|--3------------5----|
--3------------3----|--L------------3--3--|--------------------|


               PM PM                                      PM PM  
  H.           E  E     H.           Q       H.           E  E   
---------------------|--------------------|---------------------|
---------------------|--------------------|---------------------|
--L------------------|--------------------|---------------------|
--L------------7--7--|--5------------5----|--L------------------|
--L------------5--5--|--5------------5----|--L------------5--5--|
---------------------|--3------------3----|--L------------3--3--|


  H.           Q       H        H          
--------------------|---------------------|
--------------------|---------------------|
--5------------7----|--L--------7\--------|
--5------------7----|--L--------7\--------|
--3------------5----|--L--------5\--------|
--------------------|---------------------|


  PM PM PM PM PM PM PM PM PM PM PM PM PM      
  S  S  S  S  S  S  S  S  S  S  S  S  S  E.   
---------------------------------------------|
---------------------------------------------|
---------------------------------------------|
---------------------------------------------|
---------------------------------------------|
--7--7--7--6--5--4--7--7--7--7--6--5--4------|


  PM PM PM PM PM PM PM PM PM PM PM PM PM      
  S  S  S  S  S  S  S  S  S  S  S  S  S  E.   
---------------------------------------------|
---------------------------------------------|
---------------------------------------------|
---------------------------------------------|
---------------------------------------------|
--7--7--7--6--5--4--7--7--7--7--6--5--4------|


  PM PM PM PM PM PM PM PM PM PM PM PM PM      
  S  S  S  S  S  S  S  S  S  S  S  S  S  E.   
---------------------------------------------|
---------------------------------------------|
---------------------------------------------|
---------------------------------------------|
---------------------------------------------|
--7--7--7--6--5--4--7--7--7--7--6--5--4------|


  PM PM PM PM PM PM PM PM PM PM PM PM PM      
  S  S  S  S  S  S  S  S  S  S  S  S  S  E.   
---------------------------------------------|
---------------------------------------------|
---------------------------------------------|
---------------------------------------------|
---------------------------------------------|
--7--7--7--6--5--4--7--7--7--7--6--5--4------|


  PM PM PM PM PM PM PM PM PM PM PM PM PM      
  S  S  S  S  S  S  S  S  S  S  S  S  S  E.   
---------------------------------------------|
---------------------------------------------|
---------------------------------------------|
---------------------------------------------|
---------------------------------------------|
--7--7--7--6--5--4--7--7--7--7--6--5--4------|


  PM PM PM PM PM PM PM PM PM PM PM PM PM      
  S  S  S  S  S  S  S  S  S  S  S  S  S  E.   
---------------------------------------------|
---------------------------------------------|
---------------------------------------------|
---------------------------------------------|
---------------------------------------------|
--7--7--7--6--5--4--7--7--7--7--6--5--4------|


  PM PM PM PM PM PM PM PM PM PM PM PM PM      
  S  S  S  S  S  S  S  S  S  S  S  S  S  E.   
---------------------------------------------|
---------------------------------------------|
---------------------------------------------|
---------------------------------------------|
---------------------------------------------|
--7--7--7--6--5--4--7--7--7--7--6--5--4------|


  PM PM PM PM PM PM PM PM PM PM PM PM PM      
  S  S  S  S  S  S  S  S  S  S  S  S  S  E.   
---------------------------------------------|
---------------------------------------------|
---------------------------------------------|
---------------------------------------------|
---------------------------------------------|
--7--7--7--6--5--4--7--7--7--7--6--5--4------|


  PM PM PM PM PM PM PM PM PM PM PM PM PM      
  S  S  S  S  S  S  S  S  S  S  S  S  S  E.   
---------------------------------------------|
---------------------------------------------|
---------------------------------------------|
---------------------------------------------|
---------------------------------------------|
--7--7--7--6--5--4--7--7--7--7--6--5--4------|


  PM PM PM PM PM PM PM PM PM PM PM PM PM PM PM PM  
  S  S  S  S  S  S  S  S  S  S  S  S  S  S  S  S   
--------------------------------------------------|
--------------------------------------------------|
--------------------------------------------------|
--------------------------------------------------|
--------------------------------------------------|
--7--7--7--6--5--4--7--7--7--7--6--5--8--8--8--8--|


  PM PM PM PM PM PM PM PM PM PM PM PM PM      
  S  S  S  S  S  S  S  S  S  S  S  S  S  E.   
---------------------------------------------|
---------------------------------------------|
---------------------------------------------|
---------------------------------------------|
---------------------------------------------|
--7--7--7--6--5--4--7--7--7--7--6--5--4------|


  PM PM PM PM PM PM PM PM PM PM PM PM PM PM PM PM  
  S  S  S  S  S  S  S  S  S  S  S  S  S  S  S  S   
--------------------------------------------------|
--------------------------------------------------|
--------------------------------------------------|
--------------------------------------------------|
--------------------------------------------------|
--7--7--7--6--5--4--7--7--7--7--6--5--8--8--8--8--|


  PM PM PM PM PM PM PM PM PM PM PM PM PM      
  S  S  S  S  S  S  S  S  S  S  S  S  S  E.   
---------------------------------------------|
---------------------------------------------|
---------------------------------------------|
---------------------------------------------|
---------------------------------------------|
--7--7--7--6--5--4--7--7--7--7--6--5--4------|


  PM PM PM PM PM PM PM PM PM PM PM PM PM PM PM PM  
  S  S  S  S  S  S  S  S  S  S  S  S  S  S  S  S   
--------------------------------------------------|
--------------------------------------------------|
--------------------------------------------------|
--------------------------------------------------|
--------------------------------------------------|
--7--7--7--6--5--4--7--7--7--7--6--5--8--8--8--8--|


  PM PM PM PM PM PM PM PM PM PM PM PM PM      
  S  S  S  S  S  S  S  S  S  S  S  S  S  E.   
---------------------------------------------|
---------------------------------------------|
---------------------------------------------|
---------------------------------------------|
---------------------------------------------|
--7--7--7--6--5--4--7--7--7--7--6--5--4------|


  PM PM PM PM PM PM PM PM PM PM PM PM PM PM PM PM  
  S  S  S  S  S  S  S  S  S  S  S  S  S  S  S  S   
--------------------------------------------------|
--------------------------------------------------|
--------------------------------------------------|
--------------------------------------------------|
--------------------------------------------------|
--7--7--7--6--5--4--7--7--7--7--6--5--8--8--8--8--|


  PM PM PM PM PM PM PM PM PM PM PM PM PM PM PM PM  
  S  S  S  S  S  S  S  S  S  S  S  S  S  S  S  S   
--------------------------------------------------|
--------------------------------------------------|
--------------------------------------------------|
--------------------------------------------------|
--------------------------------------------------|
--7--7--7--6--5--4--7--7--7--7--6--5--8--8--8--8--|


  PM PM PM PM PM PM PM PM PM PM PM PM PM PM PM PM  
  S  S  S  S  S  S  S  S  S  S  S  S  S  S  S  S   
--------------------------------------------------|
--------------------------------------------------|
--------------------------------------------------|
--------------------------------------------------|
--------------------------------------------------|
--7--7--7--6--5--4--7--7--7--7--6--5--8--8--8--8--|


  PM PM PM PM PM PM PM PM PM PM PM PM PM PM PM PM  
  S  S  S  S  S  S  S  S  S  S  S  S  S  S  S  S   
--------------------------------------------------|
--------------------------------------------------|
--------------------------------------------------|
--------------------------------------------------|
--------------------------------------------------|
--7--7--7--6--5--4--7--7--7--7--6--5--8--8--8--8--|


  PM PM PM PM PM PM PM PM PM PM PM PM PM PM PM PM  
  S  S  S  S  S  S  S  S  S  S  S  S  S  S  S  S   
--------------------------------------------------|
--------------------------------------------------|
--------------------------------------------------|
--------------------------------------------------|
--------------------------------------------------|
--7--7--7--6--5--4--7--7--7--7--6--5--8--8--8--8--|


  PM PM PM PM PM PM PM PM PM PM PM PM PM PM PM PM  
  S  S  S  S  S  S  S  S  S  S  S  S  S  S  S  S   
--------------------------------------------------|
--------------------------------------------------|
--------------------------------------------------|
--------------------------------------------------|
--------------------------------------------------|
--7--7--7--6--5--4--7--7--7--7--6--5--8--8--8--8--|


  PM PM PM PM PM PM PM PM PM PM PM PM PM PM PM PM  
  S  S  S  S  S  S  S  S  S  S  S  S  S  S  S  S   
--------------------------------------------------|
--------------------------------------------------|
--------------------------------------------------|
--------------------------------------------------|
--------------------------------------------------|
--7--7--7--6--5--4--7--7--7--7--6--5--8--8--8--8--|


  PM PM PM PM PM PM PM PM PM PM PM PM PM PM PM PM  
  S  S  S  S  S  S  S  S  S  S  S  S  S  S  S  S   
--------------------------------------------------|
--------------------------------------------------|
--------------------------------------------------|
--------------------------------------------------|
--------------------------------------------------|
--7--7--7--6--5--4--7--7--7--7--6--5--8--8--8--8--|


  PM PM PM PM PM PM PM PM PM PM PM PM PM PM PM PM                       
  S  S  S  S  S  S  S  S  S  S  S  S  S  S  S  S     H.           Q     
--------------------------------------------------|--------------------|
--------------------------------------------------|--------------------|
--------------------------------------------------|--------------------|
--------------------------------------------------|--5------------5----|
--------------------------------------------------|--5------------5----|
--7--7--7--6--5--4--7--7--7--7--6--5--8--8--8--8--|--3------------3----|


               PM PM                                      PM PM  
  H.           E  E     H.           Q       H.           E  E   
---------------------|--------------------|---------------------|
---------------------|--------------------|---------------------|
---------------------|--5------------7----|--L------------------|
--L------------------|--5------------7----|--L------------7--7--|
--L------------5--5--|--3------------5----|--L------------5--5--|
--L------------3--3--|--------------------|---------------------|


                                    PM PM                       
  H.           Q       H.           E  E     H.           Q     
--------------------|---------------------|--------------------|
--------------------|---------------------|--------------------|
--------------------|---------------------|--5------------7----|
--5------------5----|--L------------------|--5------------7----|
--5------------5----|--L------------5--5--|--3------------5----|
--3------------3----|--L------------3--3--|--------------------|


               PM PM                                      PM PM  
  H.           E  E     H.           Q       H.           E  E   
---------------------|--------------------|---------------------|
---------------------|--------------------|---------------------|
--L------------------|--------------------|---------------------|
--L------------7--7--|--5------------5----|--L------------------|
--L------------5--5--|--5------------5----|--L------------5--5--|
---------------------|--3------------3----|--L------------3--3--|


  H.           Q       H        H            H.           Q     
--------------------|---------------------|--------------------|
--------------------|---------------------|--------------------|
--5------------7----|--L--------7\--------|--------------------|
--5------------7----|--L--------7\--------|--5------------5----|
--3------------5----|--L--------5\--------|--5------------5----|
--------------------|---------------------|--3------------3----|


               PM PM                                      PM PM  
  H.           E  E     H.           Q       H.           E  E   
---------------------|--------------------|---------------------|
---------------------|--------------------|---------------------|
---------------------|--5------------7----|--L------------------|
--L------------------|--5------------7----|--L------------7--7--|
--L------------5--5--|--3------------5----|--L------------5--5--|
--L------------3--3--|--------------------|---------------------|


                                    PM PM                       
  H.           Q       H.           E  E     H.           Q     
--------------------|---------------------|--------------------|
--------------------|---------------------|--------------------|
--------------------|---------------------|--5------------7----|
--5------------5----|--L------------------|--5------------7----|
--5------------5----|--L------------5--5--|--3------------5----|
--3------------3----|--L------------3--3--|--------------------|


               PM PM                                      PM PM  
  H.           E  E     H.           Q       H.           E  E   
---------------------|--------------------|---------------------|
---------------------|--------------------|---------------------|
--L------------------|--------------------|---------------------|
--L------------7--7--|--5------------5----|--L------------------|
--L------------5--5--|--5------------5----|--L------------5--5--|
---------------------|--3------------3----|--L------------3--3--|


                                                PM PM    PM PM    PM  
  H.           Q       H        H            E  E  E  E  E  E  E  E   
--------------------|---------------------|--------------------------|
--------------------|---------------------|--------------------------|
--5------------7----|--L--------7\--------|--------------------------|
--5------------7----|--L--------7\--------|--7--------7--------7-----|
--3------------5----|--L--------5\--------|--7--------7--------7-----|
--------------------|---------------------|--5--5--5--5--5--5--5--5--|


  PM    PM PM                 PM PM    PM PM    PM    PM                       
  E  E  E  E  Q    Q       E  E  E  E  E  E  E  E     E  E  E  E  E  E  E  E   
------------------------|--------------------------|--------------------------|
------------------------|--------------------------|--------------------------|
--------------8----8----|--------------------------|--------------------------|
-----7--------8----8----|--7--------7--------7-----|--------------------------|
-----7--------6----6----|--7--------7--------7-----|-----8--7--5--7--5--------|
--5--5--5--5------------|--5--5--5--5--5--5--5--5--|--5-----------------7--8--|


     PM PM    PM PM    PM    PM    PM PM                 PM PM    PM PM    PM  
  E  E  E  E  E  E  E  E     E  E  E  E  Q    Q       E  E  E  E  E  E  E  E   
--------------------------|------------------------|--------------------------|
--------------------------|------------------------|--------------------------|
--------------------------|--------------8----8----|--------------------------|
--7--------7--------7-----|-----7--------8----8----|--7--------7--------7-----|
--7--------7--------7-----|-----7--------6----6----|--7--------7--------7-----|
--5--5--5--5--5--5--5--5--|--5--5--5--5------------|--5--5--5--5--5--5--5--5--|


  PM                           PM PM    PM PM    PM    PM    PM PM            
  E  E  E  E  E  E  Q       E  E  E  E  E  E  E  E     E  E  E  E  Q    Q     
-------------------------|--------------------------|------------------------|
-------------------------|--------------------------|------------------------|
-------------------------|--------------------------|--------------8----8----|
-------------------------|--7--------7--------7-----|-----7--------8----8----|
-----8--7--5--7--5-------|--7--------7--------7-----|-----7--------6----6----|
--5-----------------7----|--5--5--5--5--5--5--5--5--|--5--5--5--5------------|


     PM PM    PM PM    PM    PM                        
  E  E  E  E  E  E  E  E     E  E  E  E  E  E  E  E    
--------------------------|--------------------------||
--------------------------|--------------------------||
--------------------------|--------------------------||
--7--------7--------7-----|--------------------------||
--7--------7--------7-----|-----8--7--5--7--5--------||
--5--5--5--5--5--5--5--5--|--5-----------------7--8--||

Bass Guitar

     E  Q    E  Q    Q       W                   E  Q    E  Q    Q     
G||-----------------------|-------------------|-----------------------|
D||-----------------------|-------------------|-----------------------|
A||-----------------------|-------------------|-----------------------|
E||-----------------------|-------------------|-----------------------|
B||--3--3----3--3----3----|-------------------|--3--3----3--3----3----|


  W                   E  Q    E  Q    Q       W                 
-------------------|-----------------------|-------------------|
-------------------|-----------------------|-------------------|
-------------------|-----------------------|-------------------|
-------------------|-----------------------|-------------------|
-------------------|--3--3----3--3----3----|-------------------|


  E  Q    E  Q    Q       W                   E  Q    E  Q    Q     
-----------------------|-------------------|-----------------------|
-----------------------|-------------------|-----------------------|
-----------------------|-------------------|-----------------------|
-----------------------|-------------------|-----------------------|
--3--3----3--3----3----|-------------------|--3--3----3--3----3----|


  W                   E  Q    E  Q    Q       W                 
-------------------|-----------------------|-------------------|
-------------------|-----------------------|-------------------|
-------------------|-----------------------|-------------------|
-------------------|-----------------------|-------------------|
-------------------|--3--3----3--3----3----|-------------------|


  E  Q    E  Q    Q       W                   E  Q    E  Q    Q     
-----------------------|-------------------|-----------------------|
-----------------------|-------------------|-----------------------|
-----------------------|-------------------|-----------------------|
-----------------------|-------------------|-----------------------|
--3--3----3--3----3----|-------------------|--3--3----3--3----3----|


  W                   H        E  E  Q       H.           E  E   
-------------------|----------------------|---------------------|
-------------------|----------------------|---------------------|
-------------------|----------------------|---------------------|
-------------------|----------------------|---------------------|
-------------------|--5--------5--5--5----|--L------------5--5--|


  H        E  E  Q       H.           E  E     H        E  E  Q     
----------------------|---------------------|----------------------|
----------------------|---------------------|----------------------|
----------------------|---------------------|----------------------|
----------------------|---------------------|----------------------|
--5--------5--5--5----|--L------------5--5--|--5--------5--5--5----|


  H.           E  E     H        E  E  Q       H.           E  E   
---------------------|----------------------|---------------------|
---------------------|----------------------|---------------------|
---------------------|----------------------|---------------------|
---------------------|----------------------|---------------------|
--L------------5--5--|--5--------5--5--5----|--L------------5--5--|


  H        E  E  Q       H.           E  E     H        E  E  Q     
----------------------|---------------------|----------------------|
----------------------|---------------------|----------------------|
----------------------|---------------------|----------------------|
----------------------|---------------------|----------------------|
--5--------5--5--5----|--L------------5--5--|--5--------5--5--5----|


  W                   E  S S S S E  S S S S E  S S    S S E  S S S S Q    Q     
-------------------|-------------------------------|---------------------------|
-------------------|-------------------------------|---------------------------|
-------------------|-------------------------------|---------------------------|
-------------------|-------------------------------|-----------------6----6----|
-------------------|--5--5-5-5-5-5--5-5-5-5-5--5-5-|--5-5-5--5-5-5-5-----------|


  E  S S S S E  S S S S E  S S    E  E  S S S S S S S S S S S S  
-------------------------------|--------------------------------|
-------------------------------|--------------------------------|
-------------------------------|--------------------------------|
-------------------------------|-----7--7-6-5-4-6-5-4-3-5-4-3-2-|
--5--5-5-5-5-5--5-5-5-5-5--5-5-|--5-----------------------------|


  E  S S S S E  S S S S E  S S    S S E  S S S S Q    Q     
-------------------------------|---------------------------|
-------------------------------|---------------------------|
-------------------------------|---------------------------|
-------------------------------|-----------------6----6----|
--5--5-5-5-5-5--5-5-5-5-5--5-5-|--5-5-5--5-5-5-5-----------|


  E  S S S S E  S S S S E  S S    E  E  S S S S S S S S S S S S  
-------------------------------|--------------------------------|
-------------------------------|--------------------------------|
-------------------------------|--------------------------------|
-------------------------------|-----7--7-6-5-4-6-5-4-3-5-4-3-2-|
--5--5-5-5-5-5--5-5-5-5-5--5-5-|--5-----------------------------|


  E  E  E  E  E  E  E  E     E  E  E  E  Q    Q       E  E  E  E  E  E  E  E   
--------------------------|------------------------|--------------------------|
--------------------------|------------------------|--------------------------|
--------------------------|------------------------|--------------------------|
--------------------------|--------------6----6----|--------------------------|
--5--5--5--5--5--5--5--5--|--5--5--5--5------------|--5--5--5--5--5--5--5--5--|


  E  E  E  E  E  E  E  E     E  E  E  E  E  E  E  E     E  E  E  E  Q    Q     
--------------------------|--------------------------|------------------------|
--------------------------|--------------------------|------------------------|
--------------------------|--------------------------|------------------------|
-----8--7--5--7--5--------|--------------------------|--------------6----6----|
--5-----------------7--8--|--5--5--5--5--5--5--5--5--|--5--5--5--5------------|


  E  E  E  E  E  E  E  E     E  E  E  E  E  E  Q     
--------------------------|-------------------------|
--------------------------|-------------------------|
--------------------------|-------------------------|
--------------------------|-----8--7--5--7--5-------|
--5--5--5--5--5--5--5--5--|--5-----------------7----|


  E  S S S S E  S S S S E  S S    S S E  S S S S Q    Q     
-------------------------------|---------------------------|
-------------------------------|---------------------------|
-------------------------------|---------------------------|
-------------------------------|-----------------6----6----|
--5--5-5-5-5-5--5-5-5-5-5--5-5-|--5-5-5--5-5-5-5-----------|


  E  S S S S E  S S S S E  S S    E  E  S S S S S S S S S S S S  
-------------------------------|--------------------------------|
-------------------------------|--------------------------------|
-------------------------------|--------------------------------|
-------------------------------|-----7--7-6-5-4-6-5-4-3-5-4-3-2-|
--5--5-5-5-5-5--5-5-5-5-5--5-5-|--5-----------------------------|


  E  S S S S E  S S S S E  S S    S S E  S S S S Q    Q     
-------------------------------|---------------------------|
-------------------------------|---------------------------|
-------------------------------|---------------------------|
-------------------------------|-----------------6----6----|
--5--5-5-5-5-5--5-5-5-5-5--5-5-|--5-5-5--5-5-5-5-----------|


  E  S S S S E  S S S S E  S S    E  E  S S S S S S S S S S S S  
-------------------------------|--------------------------------|
-------------------------------|--------------------------------|
-------------------------------|--------------------------------|
-------------------------------|-----7--7-6-5-4-6-5-4-3-5-4-3-2-|
--5--5-5-5-5-5--5-5-5-5-5--5-5-|--5-----------------------------|


  H.           Q       H.           E  E     H.           Q     
--------------------|---------------------|--------------------|
--------------------|---------------------|--------------------|
--------------------|---------------------|--------------------|
--------------------|---------------------|--3------------5----|
--3------------3----|--L------------3--3--|--------------------|


  H.           E  E     H.           Q       H.           E  E   
---------------------|--------------------|---------------------|
---------------------|--------------------|---------------------|
---------------------|--------------------|---------------------|
--L------------5--5--|--------------------|---------------------|
---------------------|--3------------3----|--L------------3--3--|


  H.           Q       H.           E  E     H.           Q     
--------------------|---------------------|--------------------|
--------------------|---------------------|--------------------|
--------------------|---------------------|--------------------|
--3------------5----|--L------------5--5--|--------------------|
--------------------|---------------------|--3------------3----|


  H.           E  E     H.           Q       H.           Q      
---------------------|--------------------|---------------------|
---------------------|--------------------|---------------------|
---------------------|--------------------|---------------------|
---------------------|--3------------5----|--L------------5\----|
--L------------3--3--|--------------------|---------------------|


  E  S S S S E  S S S S E  S S    S S E  S S S S Q    Q     
-------------------------------|---------------------------|
-------------------------------|---------------------------|
-------------------------------|---------------------------|
-------------------------------|-----------------6----6----|
--5--5-5-5-5-5--5-5-5-5-5--5-5-|--5-5-5--5-5-5-5-----------|


  E  S S S S E  S S S S E  S S    E  E  S S S S S S S S S S S S  
-------------------------------|--------------------------------|
-------------------------------|--------------------------------|
-------------------------------|--------------------------------|
-------------------------------|-----7--7-6-5-4-6-5-4-3-5-4-3-2-|
--5--5-5-5-5-5--5-5-5-5-5--5-5-|--5-----------------------------|


  E  S S S S E  S S S S E  S S    S S E  S S S S Q    Q     
-------------------------------|---------------------------|
-------------------------------|---------------------------|
-------------------------------|---------------------------|
-------------------------------|-----------------6----6----|
--5--5-5-5-5-5--5-5-5-5-5--5-5-|--5-5-5--5-5-5-5-----------|


  E  S S S S E  S S S S E  S S    E  E  S S S S S S S S S S S S  
-------------------------------|--------------------------------|
-------------------------------|--------------------------------|
-------------------------------|--------------------------------|
-------------------------------|-----7--7-6-5-4-6-5-4-3-5-4-3-2-|
--5--5-5-5-5-5--5-5-5-5-5--5-5-|--5-----------------------------|


  E  E  E  E  E  E  E  E     E  E  E  E  Q    Q       E  E  E  E  E  E  E  E   
--------------------------|------------------------|--------------------------|
--------------------------|------------------------|--------------------------|
--------------------------|------------------------|--------------------------|
--------------------------|--------------6----6----|--------------------------|
--5--5--5--5--5--5--5--5--|--5--5--5--5------------|--5--5--5--5--5--5--5--5--|


  E  E  E  E  E  E  E  E     E  E  E  E  E  E  E  E     E  E  E  E  Q    Q     
--------------------------|--------------------------|------------------------|
--------------------------|--------------------------|------------------------|
--------------------------|--------------------------|------------------------|
-----8--7--5--7--5--------|--------------------------|--------------6----6----|
--5-----------------7--8--|--5--5--5--5--5--5--5--5--|--5--5--5--5------------|


  E  E  E  E  E  E  E  E     E  E  E  E  E  E  Q     
--------------------------|-------------------------|
--------------------------|-------------------------|
--------------------------|-------------------------|
--------------------------|-----8--7--5--7--5-------|
--5--5--5--5--5--5--5--5--|--5-----------------7----|


  E  S S S S E  S S S S E  S S    S S E  S S S S Q    Q     
-------------------------------|---------------------------|
-------------------------------|---------------------------|
-------------------------------|---------------------------|
-------------------------------|-----------------6----6----|
--5--5-5-5-5-5--5-5-5-5-5--5-5-|--5-5-5--5-5-5-5-----------|


  E  S S S S E  S S S S E  S S    E  E  S S S S S S S S S S S S  
-------------------------------|--------------------------------|
-------------------------------|--------------------------------|
-------------------------------|--------------------------------|
-------------------------------|-----7--7-6-5-4-6-5-4-3-5-4-3-2-|
--5--5-5-5-5-5--5-5-5-5-5--5-5-|--5-----------------------------|


  E  S S S S E  S S S S E  S S    S S E  S S S S Q    Q     
-------------------------------|---------------------------|
-------------------------------|---------------------------|
-------------------------------|---------------------------|
-------------------------------|-----------------6----6----|
--5--5-5-5-5-5--5-5-5-5-5--5-5-|--5-5-5--5-5-5-5-----------|


  E  S S S S E  S S S S E  S S    E  E  S S S S S S S S S S S S  
-------------------------------|--------------------------------|
-------------------------------|--------------------------------|
-------------------------------|--------------------------------|
-------------------------------|-----7--7-6-5-4-6-5-4-3-5-4-3-2-|
--5--5-5-5-5-5--5-5-5-5-5--5-5-|--5-----------------------------|


  H.           Q       H.           E  E     H.           Q     
--------------------|---------------------|--------------------|
--------------------|---------------------|--------------------|
--------------------|---------------------|--------------------|
--------------------|---------------------|--3------------5----|
--3------------3----|--L------------3--3--|--------------------|


  H.           E  E     H.           Q       H.           E  E   
---------------------|--------------------|---------------------|
---------------------|--------------------|---------------------|
---------------------|--------------------|---------------------|
--L------------5--5--|--------------------|---------------------|
---------------------|--3------------3----|--L------------3--3--|


  H.           Q       H.           E  E     H.           Q     
--------------------|---------------------|--------------------|
--------------------|---------------------|--------------------|
--------------------|---------------------|--------------------|
--3------------5----|--L------------5--5--|--------------------|
--------------------|---------------------|--3------------3----|


  H.           E  E     H.           Q       H.           Q      
---------------------|--------------------|---------------------|
---------------------|--------------------|---------------------|
---------------------|--------------------|---------------------|
---------------------|--3------------5----|--L------------5\----|
--L------------3--3--|--------------------|---------------------|


  S S S S S S S S S S S S S E.     S S S S S S S S S S S S S E.   
--------------------------------|--------------------------------|
--------------------------------|--------------------------------|
--------------------------------|--------------------------------|
--------------------------------|--------------------------------|
--7-7-7-6-5-4-7-7-7-7-6-5-4-----|--7-7-7-6-5-4-7-7-7-7-6-5-4-----|


  S S S S S S S S S S S S S E.     S S S S S S S S S S S S S E.   
--------------------------------|--------------------------------|
--------------------------------|--------------------------------|
--------------------------------|--------------------------------|
--------------------------------|--------------------------------|
--7-7-7-6-5-4-7-7-7-7-6-5-4-----|--7-7-7-6-5-4-7-7-7-7-6-5-4-----|


  S S S S S S S S S S S S S E.     S S S S S S S S S S S S S E.   
--------------------------------|--------------------------------|
--------------------------------|--------------------------------|
--------------------------------|--------------------------------|
--------------------------------|--------------------------------|
--7-7-7-6-5-4-7-7-7-7-6-5-4-----|--7-7-7-6-5-4-7-7-7-7-6-5-4-----|


  S S S S S S S S S S S S S E.     S S S S S S S S S S S S S E.   
--------------------------------|--------------------------------|
--------------------------------|--------------------------------|
--------------------------------|--------------------------------|
--------------------------------|--------------------------------|
--7-7-7-6-5-4-7-7-7-7-6-5-4-----|--7-7-7-6-5-4-7-7-7-7-6-5-4-----|


  S S S S S S S S S S S S S E.     S S S S S S S S S S S S S S S S  
--------------------------------|----------------------------------|
--------------------------------|----------------------------------|
--------------------------------|----------------------------------|
--------------------------------|----------------------------------|
--7-7-7-6-5-4-7-7-7-7-6-5-4-----|--7-7-7-6-5-4-7-7-7-7-6-5-8-8-8-8-|


  S S S S S S S S S S S S S E.     S S S S S S S S S S S S S S S S  
--------------------------------|----------------------------------|
--------------------------------|----------------------------------|
--------------------------------|----------------------------------|
--------------------------------|----------------------------------|
--7-7-7-6-5-4-7-7-7-7-6-5-4-----|--7-7-7-6-5-4-7-7-7-7-6-5-8-8-8-8-|


  S S S S S S S S S S S S S E.     S S S S S S S S S S S S S S S S  
--------------------------------|----------------------------------|
--------------------------------|----------------------------------|
--------------------------------|----------------------------------|
--------------------------------|----------------------------------|
--7-7-7-6-5-4-7-7-7-7-6-5-4-----|--7-7-7-6-5-4-7-7-7-7-6-5-8-8-8-8-|


  S S S S S S S S S S S S S E.     S S S S S S S S S S S S S S S S  
--------------------------------|----------------------------------|
--------------------------------|----------------------------------|
--------------------------------|----------------------------------|
--------------------------------|----------------------------------|
--7-7-7-6-5-4-7-7-7-7-6-5-4-----|--7-7-7-6-5-4-7-7-7-7-6-5-8-8-8-8-|


  S S S S S S S S S S S S S S S S    S S S S S S S S S S S S S S S S  
----------------------------------|----------------------------------|
----------------------------------|----------------------------------|
----------------------------------|----------------------------------|
----------------------------------|----------------------------------|
--7-7-7-6-5-4-7-7-7-7-6-5-8-8-8-8-|--7-7-7-6-5-4-7-7-7-7-6-5-8-8-8-8-|


  S S S S S S S S S S S S S S S S    S S S S S S S S S S S S S S S S  
----------------------------------|----------------------------------|
----------------------------------|----------------------------------|
----------------------------------|----------------------------------|
----------------------------------|----------------------------------|
--7-7-7-6-5-4-7-7-7-7-6-5-8-8-8-8-|--7-7-7-6-5-4-7-7-7-7-6-5-8-8-8-8-|


  S S S S S S S S S S S S S S S S    S S S S S S S S S S S S S S S S  
----------------------------------|----------------------------------|
----------------------------------|----------------------------------|
----------------------------------|----------------------------------|
----------------------------------|----------------------------------|
--7-7-7-6-5-4-7-7-7-7-6-5-8-8-8-8-|--7-7-7-6-5-4-7-7-7-7-6-5-8-8-8-8-|


  S S S S S S S S S S S S S S S S    S S S S S S S S S S S S S S S S  
----------------------------------|----------------------------------|
----------------------------------|----------------------------------|
----------------------------------|----------------------------------|
----------------------------------|----------------------------------|
--7-7-7-6-5-4-7-7-7-7-6-5-8-8-8-8-|--7-7-7-6-5-4-7-7-7-7-6-5-8-8-8-8-|


  H.           Q       H.           E  E     H.           Q     
--------------------|---------------------|--------------------|
--------------------|---------------------|--------------------|
--------------------|---------------------|--------------------|
--------------------|---------------------|--3------------5----|
--3------------3----|--L------------3--3--|--------------------|


  H.           E  E     H.           Q       H.           E  E   
---------------------|--------------------|---------------------|
---------------------|--------------------|---------------------|
---------------------|--------------------|---------------------|
--L------------5--5--|--------------------|---------------------|
---------------------|--3------------3----|--L------------3--3--|


  H.           Q       H.           E  E     H.           Q     
--------------------|---------------------|--------------------|
--------------------|---------------------|--------------------|
--------------------|---------------------|--------------------|
--3------------5----|--L------------5--5--|--------------------|
--------------------|---------------------|--3------------3----|


  H.           E  E     H.           Q       H.           Q      
---------------------|--------------------|---------------------|
---------------------|--------------------|---------------------|
---------------------|--------------------|---------------------|
---------------------|--3------------5----|--L------------5\----|
--L------------3--3--|--------------------|---------------------|


  H.           Q       H.           E  E     H.           Q     
--------------------|---------------------|--------------------|
--------------------|---------------------|--------------------|
--------------------|---------------------|--------------------|
--------------------|---------------------|--3------------5----|
--3------------3----|--L------------3--3--|--------------------|


  H.           E  E     H.           Q       H.           E  E   
---------------------|--------------------|---------------------|
---------------------|--------------------|---------------------|
---------------------|--------------------|---------------------|
--L------------5--5--|--------------------|---------------------|
---------------------|--3------------3----|--L------------3--3--|


  H.           Q       H.           E  E     H.           Q     
--------------------|---------------------|--------------------|
--------------------|---------------------|--------------------|
--------------------|---------------------|--------------------|
--3------------5----|--L------------5--5--|--------------------|
--------------------|---------------------|--3------------3----|


  H.           E  E     H.           Q       H.           Q      
---------------------|--------------------|---------------------|
---------------------|--------------------|---------------------|
---------------------|--------------------|---------------------|
---------------------|--3------------5----|--L------------5\----|
--L------------3--3--|--------------------|---------------------|


  E  E  E  E  E  E  E  E     E  E  E  E  Q    Q       E  E  E  E  E  E  E  E   
--------------------------|------------------------|--------------------------|
--------------------------|------------------------|--------------------------|
--------------------------|------------------------|--------------------------|
--------------------------|--------------6----6----|--------------------------|
--5--5--5--5--5--5--5--5--|--5--5--5--5------------|--5--5--5--5--5--5--5--5--|


  E  E  E  E  E  E  E  E     E  E  E  E  E  E  E  E     E  E  E  E  Q    Q     
--------------------------|--------------------------|------------------------|
--------------------------|--------------------------|------------------------|
--------------------------|--------------------------|------------------------|
-----8--7--5--7--5--------|--------------------------|--------------6----6----|
--5-----------------7--8--|--5--5--5--5--5--5--5--5--|--5--5--5--5------------|


  E  E  E  E  E  E  E  E     E  E  E  E  E  E  E  E   
--------------------------|--------------------------|
--------------------------|--------------------------|
--------------------------|--------------------------|
--------------------------|-----8--7--5--7--5--------|
--5--5--5--5--5--5--5--5--|--5-----------------7--8--|


  E  E  E  E  E  E  E  E     E  E  E  E  Q    Q       E  E  E  E  E  E  E  E   
--------------------------|------------------------|--------------------------|
--------------------------|------------------------|--------------------------|
--------------------------|------------------------|--------------------------|
--------------------------|--------------6----6----|--------------------------|
--5--5--5--5--5--5--5--5--|--5--5--5--5------------|--5--5--5--5--5--5--5--5--|


  E  E  E  E  E  E  E  E    
--------------------------||
--------------------------||
--------------------------||
-----8--7--5--7--5--------||
--5-----------------7--8--||

==========Meet The Monster==========

Lead Guitar

      W                   W                   W                 
B ||-------------------|-------------------|-------------------|
F#||-------------------|-------------------|-------------------|
D ||-------------------|-------------------|-------------------|
A ||-------------------|-------------------|-------------------|
E ||-------------------|-------------------|-------------------|
B ||-------------------|-------------------|-------------------|


                                                        |-3-|                  
  W                   E  S S Q    E  E   Q        E  E  S S S E  E  E   E  E   
-------------------|---------------------------|------------------------------|
-------------------|---------------------------|------------------------------|
-------------------|---------------------------|------------------------------|
-------------------|---------------------------|-----9--8-9-8-------9---------|
-------------------|-----------------9--10~----|--L-----------9--9-----10--9--|
-------------------|--0--0-0-0----0------------|------------------------------|


                                    |-3-|                 
  E  S S Q    E  E   Q        E  E  S S S E   E  Q.       
---------------------------|-----------------------------|
---------------------------|-----------------------------|
---------------------------|-----------------------------|
---------------------------|-----9--8-9-8----------------|
-----------------9--10~----|--L-----------9--10--9~------|
--0--0-0-0----0------------|-----------------------------|


                                    |-3-|                  
  E  S S Q    E  E   Q        E  E  S S S E  E  E   E  E   
---------------------------|------------------------------|
---------------------------|------------------------------|
---------------------------|------------------------------|
---------------------------|-----9--8-9-8-------9---------|
-----------------9--10~----|--L-----------9--9-----10--9--|
--0--0-0-0----0------------|------------------------------|


                                    |-3-|                 
  E  S S Q    E  E   Q        E  E  S S S E   E  Q.       
---------------------------|-----------------------------|
---------------------------|-----------------------------|
---------------------------|-----------------------------|
---------------------------|-----9--8-9-8----------------|
-----------------9--10~----|--L-----------9--10--9~------|
--0--0-0-0----0------------|-----------------------------|


                                    |-3-|                  
  E  S S Q    E  E   Q        E  E  S S S E  E  E   E  E   
---------------------------|------------------------------|
---------------------------|------------------------------|
---------------------------|------------------------------|
---------------------------|-----9--8-9-8-------9---------|
-----------------9--10~----|--L-----------9--9-----10--9--|
--0--0-0-0----0------------|------------------------------|


                                    |-3-|                 
  E  S S Q    E  E   Q        E  E  S S S E   E  Q.       
---------------------------|-----------------------------|
---------------------------|-----------------------------|
---------------------------|-----------------------------|
---------------------------|-----9--8-9-8----------------|
-----------------9--10~----|--L-----------9--10--9~------|
--0--0-0-0----0------------|-----------------------------|


                                    |-3-|                  
  E  S S Q    E  E   Q        E  E  S S S E  E  E   E  E   
---------------------------|------------------------------|
---------------------------|------------------------------|
---------------------------|------------------------------|
---------------------------|-----9--8-9-8-------9---------|
-----------------9--10~----|--L-----------9--9-----10--9--|
--0--0-0-0----0------------|------------------------------|


                                    |-3-|                 
  E  S S Q    E  E   Q        E  E  S S S E   E  Q.       
---------------------------|-----------------------------|
---------------------------|-----------------------------|
---------------------------|-----------------------------|
---------------------------|-----9--8-9-8----------------|
-----------------9--10~----|--L-----------9--10--9~------|
--0--0-0-0----0------------|-----------------------------|


        PM PM PM PM                                         
  E  E  S  S  S  S  E  E  E  E     E  E  E  E  E  E  E  E   
--------------------------------|--------------------------|
--------------------------------|--------------------------|
--------------------------------|--------------------------|
--2--2--------------3--2--2--2--|--L-----------------------|
--2--2--2--2--2--2--3--2--2--2--|--L--2--1-----1-----------|
--0--0--0--0--0--0--1--0--0--0--|--L--------3-----3--2--3--|


        PM PM PM PM                                         
  E  E  S  S  S  S  E  E  E  E     E  E  E  E  E  E  E  E   
--------------------------------|--------------------------|
--------------------------------|--------------------------|
--------------------------------|--------------------------|
--2--2--------------3--2--2--2--|--L-----------------------|
--2--2--2--2--2--2--3--2--2--2--|--L--2--1-----1-----------|
--0--0--0--0--0--0--1--0--0--0--|--L--------3-----3--2--3--|


        PM PM PM PM                                         
  E  E  S  S  S  S  E  E  E  E     E  E  E  E  E  E  E  E   
--------------------------------|--------------------------|
--------------------------------|--------------------------|
--------------------------------|--------------------------|
--2--2--------------3--2--2--2--|--L-----------------------|
--2--2--2--2--2--2--3--2--2--2--|--L--2--1-----1-----------|
--0--0--0--0--0--0--1--0--0--0--|--L--------3-----3--2--3--|


        PM PM PM PM                                                             
  E  E  S  S  S  S  E  E  E  E     E  E  E  E  E  E  E  E     W                 
--------------------------------|--------------------------|-------------------|
--------------------------------|--------------------------|-------------------|
--------------------------------|--------------------------|-------------------|
--2--2--------------3--2--2--2--|--L-----------------------|--2----------------|
--2--2--2--2--2--2--3--2--2--2--|--L--2--1-----1-----------|--2----------------|
--0--0--0--0--0--0--1--0--0--0--|--L--------3-----3--2--3--|--0----------------|


  Q.     Q    Q.        H.           E  E     W                 
---------------------|---------------------|-------------------|
---------------------|---------------------|-------------------|
---------------------|---------------------|-------------------|
--L------2-----------|--5------------L--7--|--L----------------|
--L-----------2------|--5------------L--7--|--L----------------|
--L------------------|--3------------L--5--|--L----------------|


  W                   Q.     Q    Q.        H.           E  E   
-------------------|---------------------|---------------------|
-------------------|---------------------|---------------------|
-------------------|---------------------|---------------------|
--2----------------|--L------2-----------|--5------------L--7--|
--2----------------|--L-----------2------|--5------------L--7--|
--0----------------|--L------------------|--3------------L--5--|


  H        H            W                   Q.     Q    Q.      
---------------------|-------------------|---------------------|
---------------------|-------------------|---------------------|
---------------------|-------------------|---------------------|
--L------------------|--2----------------|--L------2-----------|
--L--------7\--------|--2----------------|--L-----------2------|
--L--------5\--------|--0----------------|--L------------------|


  H.           E  E     H        H            W                 
---------------------|---------------------|-------------------|
---------------------|---------------------|-------------------|
---------------------|---------------------|-------------------|
--5------------L--7--|--L------------------|--2----------------|
--5------------L--7--|--L--------7\--------|--2----------------|
--3------------L--5--|--L--------5\--------|--0----------------|


  Q.     Q    Q.        H.           E  E     H.           Q      
---------------------|---------------------|---------------------|
---------------------|---------------------|---------------------|
---------------------|---------------------|---------------------|
--L------2-----------|--5------------L--7--|---------------------|
--L-----------2------|--5------------L--7--|---------------9\----|
--L------------------|--3------------L--5--|---------------7\----|


                                    |-3-|                  
  E  S S Q    E  E   Q        E  E  S S S E  E  E   E  E   
---------------------------|------------------------------|
---------------------------|------------------------------|
---------------------------|------------------------------|
---------------------------|-----9--8-9-8-------9---------|
-----------------9--10~----|--L-----------9--9-----10--9--|
--0--0-0-0----0------------|------------------------------|


                                    |-3-|                 
  E  S S Q    E  E   Q        E  E  S S S E   E  Q.       
---------------------------|-----------------------------|
---------------------------|-----------------------------|
---------------------------|-----------------------------|
---------------------------|-----9--8-9-8----------------|
-----------------9--10~----|--L-----------9--10--9~------|
--0--0-0-0----0------------|-----------------------------|


                                    |-3-|                  
  E  S S Q    E  E   Q        E  E  S S S E  E  E   E  E   
---------------------------|------------------------------|
---------------------------|------------------------------|
---------------------------|------------------------------|
---------------------------|-----9--8-9-8-------9---------|
-----------------9--10~----|--L-----------9--9-----10--9--|
--0--0-0-0----0------------|------------------------------|


                                    |-3-|                 
  E  S S Q    E  E   Q        E  E  S S S E   E  Q.       
---------------------------|-----------------------------|
---------------------------|-----------------------------|
---------------------------|-----------------------------|
---------------------------|-----9--8-9-8----------------|
-----------------9--10~----|--L-----------9--10--9~------|
--0--0-0-0----0------------|-----------------------------|


        PM PM PM PM                                         
  E  E  S  S  S  S  E  E  E  E     E  E  E  E  E  E  E  E   
--------------------------------|--------------------------|
--------------------------------|--------------------------|
--------------------------------|--------------------------|
--2--2--------------3--2--2--2--|--L-----------------------|
--2--2--2--2--2--2--3--2--2--2--|--L--2--1-----1-----------|
--0--0--0--0--0--0--1--0--0--0--|--L--------3-----3--2--3--|


        PM PM PM PM                                         
  E  E  S  S  S  S  E  E  E  E     E  E  E  E  E  E  E  E   
--------------------------------|--------------------------|
--------------------------------|--------------------------|
--------------------------------|--------------------------|
--2--2--------------3--2--2--2--|--L-----------------------|
--2--2--2--2--2--2--3--2--2--2--|--L--2--1-----1-----------|
--0--0--0--0--0--0--1--0--0--0--|--L--------3-----3--2--3--|


        PM PM PM PM                                         
  E  E  S  S  S  S  E  E  E  E     E  E  E  E  E  E  E  E   
--------------------------------|--------------------------|
--------------------------------|--------------------------|
--------------------------------|--------------------------|
--2--2--------------3--2--2--2--|--L-----------------------|
--2--2--2--2--2--2--3--2--2--2--|--L--2--1-----1-----------|
--0--0--0--0--0--0--1--0--0--0--|--L--------3-----3--2--3--|


        PM PM PM PM                                                             
  E  E  S  S  S  S  E  E  E  E     E  E  E  E  E  E  E  E     W                 
--------------------------------|--------------------------|-------------------|
--------------------------------|--------------------------|-------------------|
--------------------------------|--------------------------|-------------------|
--2--2--------------3--2--2--2--|--L-----------------------|--2----------------|
--2--2--2--2--2--2--3--2--2--2--|--L--2--1-----1-----------|--2----------------|
--0--0--0--0--0--0--1--0--0--0--|--L--------3-----3--2--3--|--0----------------|


  Q.     Q    Q.        H.           E  E     W                 
---------------------|---------------------|-------------------|
---------------------|---------------------|-------------------|
---------------------|---------------------|-------------------|
--L------2-----------|--5------------L--7--|--L----------------|
--L-----------2------|--5------------L--7--|--L----------------|
--L------------------|--3------------L--5--|--L----------------|


  W                   Q.     Q    Q.        H.           E  E   
-------------------|---------------------|---------------------|
-------------------|---------------------|---------------------|
-------------------|---------------------|---------------------|
--2----------------|--L------2-----------|--5------------L--7--|
--2----------------|--L-----------2------|--5------------L--7--|
--0----------------|--L------------------|--3------------L--5--|


  H        H            W                   Q.     Q    Q.      
---------------------|-------------------|---------------------|
---------------------|-------------------|---------------------|
---------------------|-------------------|---------------------|
--L------------------|--2----------------|--L------2-----------|
--L--------7\--------|--2----------------|--L-----------2------|
--L--------5\--------|--0----------------|--L------------------|


  H.           E  E     H        H            W                 
---------------------|---------------------|-------------------|
---------------------|---------------------|-------------------|
---------------------|---------------------|-------------------|
--5------------L--7--|--L------------------|--2----------------|
--5------------L--7--|--L--------7\--------|--2----------------|
--3------------L--5--|--L--------5\--------|--0----------------|


  Q.     Q    Q.        H.           E  E     H.           Q      
---------------------|---------------------|---------------------|
---------------------|---------------------|---------------------|
---------------------|---------------------|---------------------|
--L------2-----------|--5------------L--7--|---------------------|
--L-----------2------|--5------------L--7--|---------------9\----|
--L------------------|--3------------L--5--|---------------7\----|


                                    |-3-|                  
  E  S S Q    E  E   Q        E  E  S S S E  E  E   E  E   
---------------------------|------------------------------|
---------------------------|------------------------------|
---------------------------|------------------------------|
---------------------------|-----9--8-9-8-------9---------|
-----------------9--10~----|--L-----------9--9-----10--9--|
--0--0-0-0----0------------|------------------------------|


                                    |-3-|                 
  E  S S Q    E  E   Q        E  E  S S S E   E  Q.       
---------------------------|-----------------------------|
---------------------------|-----------------------------|
---------------------------|-----------------------------|
---------------------------|-----9--8-9-8----------------|
-----------------9--10~----|--L-----------9--10--9~------|
--0--0-0-0----0------------|-----------------------------|


                                    |-3-|                  
  E  S S Q    E  E   Q        E  E  S S S E  E  E   E  E   
---------------------------|------------------------------|
---------------------------|------------------------------|
---------------------------|------------------------------|
---------------------------|-----9--8-9-8-------9---------|
-----------------9--10~----|--L-----------9--9-----10--9--|
--0--0-0-0----0------------|------------------------------|


                                    |-3-|                 
  E  S S Q    E  E   Q        E  E  S S S E   E  Q.       
---------------------------|-----------------------------|
---------------------------|-----------------------------|
---------------------------|-----------------------------|
---------------------------|-----9--8-9-8----------------|
-----------------9--10~----|--L-----------9--10--9~------|
--0--0-0-0----0------------|-----------------------------|


  E  S S Q    E  E   Q        E  E  E  E  E   E  E   E   
---------------------------|----------------------------|
---------------------------|----------------------------|
---------------------------|----------------------------|
---------------------------|-----9--7-----7-------------|
-----------------9--10~----|--L--------9-----10--9--10--|
--0--0-0-0----0------------|----------------------------|


  E  S S Q    E   E  Q        E  E  E  E  Q    E   E   
---------------------------|--------------------------|
---------------------------|--------------------------|
---------------------7~----|--L--9--7-----------------|
--------------9--10--------|-----------9--9----7------|
---------------------------|----------------------10--|
--0--0-0-0-----------------|--------------------------|


  E  S S Q    E  E   Q        E  E  E  E  E   E  E   E   
---------------------------|----------------------------|
---------------------------|----------------------------|
---------------------------|----------------------------|
---------------------------|-----9--7-----7-------------|
-----------------9--10~----|--L--------9-----10--9--10--|
--0--0-0-0----0------------|----------------------------|


  E  S S Q    E   E  Q        E  E  E  E  Q    E   E   
---------------------------|--------------------------|
---------------------------|--------------------------|
---------------------7~----|--L--9--7-----------------|
--------------9--10--------|-----------9--9----7------|
---------------------------|----------------------10--|
--0--0-0-0-----------------|--------------------------|


  PM PM     PM PM               PM PM     PM PM             
  E  E   E  E  E   E  E   E     E  E   E  E  E   E  E   E   
-----------------------------|-----------------------------|
-----------------------------|-----------------------------|
-----------------------------|-----------------------------|
--7--9--10--7--9--10--7--10--|--7--9--10--7--9--10--7--10--|
-----------------------------|-----------------------------|
-----------------------------|-----------------------------|


  PM PM     PM PM               PM PM  PM PM               
  E  E   E  E  E   E  E   E     E  E   E  E  E   E  E  E   
-----------------------------|----------------------------|
-----------------------------|----------------------------|
-----------------------------|---------------7------------|
--7--9--10--7--9--10--7--10--|--7--9--10--7-----10--9--7--|
-----------------------------|----------------------------|
-----------------------------|----------------------------|


  PM PM     PM PM               PM PM     PM PM             
  E  E   E  E  E   E  E   E     E  E   E  E  E   E  E   E   
-----------------------------|-----------------------------|
-----------------------------|-----------------------------|
-----------------------------|-----------------------------|
--7--9--10--7--9--10--7--10--|--7--9--10--7--9--10--7--10--|
-----------------------------|-----------------------------|
-----------------------------|-----------------------------|


  PM PM     PM PM               PM PM  PM PM               
  E  E   E  E  E   E  E   E     E  E   E  E  E   E  E  E   
-----------------------------|----------------------------|
-----------------------------|----------------------------|
-----------------------------|---------------7------------|
--7--9--10--7--9--10--7--10--|--7--9--10--7-----10--9--7--|
-----------------------------|----------------------------|
-----------------------------|----------------------------|


  E  E  E   E  E  E  E   E     E  E  E   E  E   E  E   E   
----------------------------|-----------------------------|
----------------------------|-----------------------------|
----------------------------|-----------------------------|
----------------------------|-----9--7------7-------------|
--------9--10--------9--10--|-----------10-----10--9--10--|
--0--0---------0--0---------|--0--------------------------|


  E  E  E   E  E   E  E   E     E  E  E   E  E   E  E   E   
-----------------------------|-----------------------------|
-----------------------------|-----------------------------|
-----------------------------|-----------------------------|
---------------7-------------|-----9--7------7-------------|
--------9--10-----10--9--10--|-----------10-----10--9--10--|
--0--0-----------------------|--0--------------------------|


  E  E  E   E  E  E  E   E     E  E  E   E  E   E  E   E   
----------------------------|-----------------------------|
----------------------------|-----------------------------|
----------------------------|-----------------------------|
----------------------------|-----9--7------7-------------|
--------9--10--------9--10--|-----------10-----10--9--10--|
--0--0---------0--0---------|--0--------------------------|


  E  E  E   E  E   E  E   E     E  E  E   E  E   E  E   E   
-----------------------------|-----------------------------|
-----------------------------|-----------------------------|
-----------------------------|-----------------------------|
---------------7-------------|-----9--7------7-------------|
--------9--10-----10--9--10--|-----------10-----10--9--10--|
--0--0-----------------------|--0--------------------------|


        PM PM PM PM                                         
  E  E  S  S  S  S  E  E  E  E     E  E  E  E  E  E  E  E   
--------------------------------|--------------------------|
--------------------------------|--------------------------|
--------------------------------|--------------------------|
--2--2--------------3--2--2--2--|--L-----------------------|
--2--2--2--2--2--2--3--2--2--2--|--L--2--1-----1-----------|
--0--0--0--0--0--0--1--0--0--0--|--L--------3-----3--2--3--|


        PM PM PM PM                                         
  E  E  S  S  S  S  E  E  E  E     E  E  E  E  E  E  E  E   
--------------------------------|--------------------------|
--------------------------------|--------------------------|
--------------------------------|--------------------------|
--2--2--------------3--2--2--2--|--L-----------------------|
--2--2--2--2--2--2--3--2--2--2--|--L--2--1-----1-----------|
--0--0--0--0--0--0--1--0--0--0--|--L--------3-----3--2--3--|


        PM PM PM PM                                         
  E  E  S  S  S  S  E  E  E  E     E  E  E  E  E  E  E  E   
--------------------------------|--------------------------|
--------------------------------|--------------------------|
--------------------------------|--------------------------|
--2--2--------------3--2--2--2--|--L-----------------------|
--2--2--2--2--2--2--3--2--2--2--|--L--2--1-----1-----------|
--0--0--0--0--0--0--1--0--0--0--|--L--------3-----3--2--3--|


        PM PM PM PM                                         
  E  E  S  S  S  S  E  E  E  E     E  E  E  E  E  E  E  E   
--------------------------------|--------------------------|
--------------------------------|--------------------------|
--------------------------------|--------------------------|
--2--2--------------3--2--2--2--|--L-----------------------|
--2--2--2--2--2--2--3--2--2--2--|--L--2--1-----1-----------|
--0--0--0--0--0--0--1--0--0--0--|--L--------3-----3--2--3--|


        PM PM PM PM                                         
  E  E  S  S  S  S  E  E  E  E     E  E  E  E  E  E  E  E   
--------------------------------|--------------------------|
--------------------------------|--------------------------|
--------------------------------|--------------------------|
--2--2--------------3--2--2--2--|--L-----------------------|
--2--2--2--2--2--2--3--2--2--2--|--L--2--1-----1-----------|
--0--0--0--0--0--0--1--0--0--0--|--L--------3-----3--2--3--|


        PM PM PM PM                                         
  E  E  S  S  S  S  E  E  E  E     E  E  E  E  E  E  E  E   
--------------------------------|--------------------------|
--------------------------------|--------------------------|
--------------------------------|--------------------------|
--2--2--------------3--2--2--2--|--L-----------------------|
--2--2--2--2--2--2--3--2--2--2--|--L--2--1-----1-----------|
--0--0--0--0--0--0--1--0--0--0--|--L--------3-----3--2--3--|


        PM PM PM PM                                         
  E  E  S  S  S  S  E  E  E  E     E  E  E  E  E  E  E  E   
--------------------------------|--------------------------|
--------------------------------|--------------------------|
--------------------------------|--------------------------|
--2--2--------------3--2--2--2--|--L-----------------------|
--2--2--2--2--2--2--3--2--2--2--|--L--2--1-----1-----------|
--0--0--0--0--0--0--1--0--0--0--|--L--------3-----3--2--3--|


        PM PM PM PM                                         
  E  E  S  S  S  S  E  E  E  E     E  E  E  E  E  E  E  E   
--------------------------------|--------------------------|
--------------------------------|--------------------------|
--------------------------------|--------------------------|
--2--2--------------3--2--2--2--|--L-----------------------|
--2--2--2--2--2--2--3--2--2--2--|--L--2--1-----1-----------|
--0--0--0--0--0--0--1--0--0--0--|--L--------3-----3--2--3--|


        PM PM PM PM                                         
  E  E  S  S  S  S  E  E  E  E     E  E  E  E  E  E  E  E   
--------------------------------|--------------------------|
--------------------------------|--------------------------|
--------------------------------|--------------------------|
--2--2--------------3--2--2--2--|--L-----------------------|
--2--2--2--2--2--2--3--2--2--2--|--L--2--1-----1-----------|
--0--0--0--0--0--0--1--0--0--0--|--L--------3-----3--2--3--|


        PM PM PM PM                                         
  E  E  S  S  S  S  E  E  E  E     E  E  E  E  E  E  E  E   
--------------------------------|--------------------------|
--------------------------------|--------------------------|
--------------------------------|--------------------------|
--2--2--------------3--2--2--2--|--L-----------------------|
--2--2--2--2--2--2--3--2--2--2--|--L--2--1-----1-----------|
--0--0--0--0--0--0--1--0--0--0--|--L--------3-----3--2--3--|


        PM PM PM PM                                         
  E  E  S  S  S  S  E  E  E  E     E  E  E  E  E  E  E  E   
--------------------------------|--------------------------|
--------------------------------|--------------------------|
--------------------------------|--------------------------|
--2--2--------------3--2--2--2--|--L-----------------------|
--2--2--2--2--2--2--3--2--2--2--|--L--2--1-----1-----------|
--0--0--0--0--0--0--1--0--0--0--|--L--------3-----3--2--3--|


        PM PM PM PM                                         
  E  E  S  S  S  S  E  E  E  E     E  E  E  E  E  E  E  E   
--------------------------------|--------------------------|
--------------------------------|--------------------------|
--------------------------------|--------------------------|
--2--2--------------3--2--2--2--|--L-----------------------|
--2--2--2--2--2--2--3--2--2--2--|--L--2--1-----1-----------|
--0--0--0--0--0--0--1--0--0--0--|--L--------3-----3--2--3--|


        PM PM PM PM                                         
  E  E  S  S  S  S  E  E  E  E     E  E  E  E  E  E  E  E   
--------------------------------|--------------------------|
--------------------------------|--------------------------|
--------------------------------|--------------------------|
--2--2--------------3--2--2--2--|--L-----------------------|
--2--2--2--2--2--2--3--2--2--2--|--L--2--1-----1-----------|
--0--0--0--0--0--0--1--0--0--0--|--L--------3-----3--2--3--|


        PM PM PM PM                                                             
  E  E  S  S  S  S  E  E  E  E     E  E  E  E  E  E  E  E     W                 
--------------------------------|--------------------------|-------------------|
--------------------------------|--------------------------|-------------------|
--------------------------------|--------------------------|-------------------|
--2--2--------------3--2--2--2--|--L-----------------------|--2----------------|
--2--2--2--2--2--2--3--2--2--2--|--L--2--1-----1-----------|--2----------------|
--0--0--0--0--0--0--1--0--0--0--|--L--------3-----3--2--3--|--0----------------|


  W                   W                   W                   W                 
-------------------|-------------------|-------------------|-------------------|
-------------------|-------------------|-------------------|-------------------|
-------------------|-------------------|-------------------|-------------------|
--L----------------|--L----------------|--L----------------|--L----------------|
--L----------------|--L----------------|--L----------------|--L----------------|
--L----------------|--L----------------|--L----------------|--L----------------|


  W                   W                   W                  
-------------------|-------------------|-------------------||
-------------------|-------------------|-------------------||
-------------------|-------------------|-------------------||
--L----------------|--L----------------|--L----------------||
--L----------------|--L----------------|--L----------------||
--L----------------|--L----------------|--L----------------||

Rhythm Guitar

      E  E  Q    E  E  Q       E  E  Q    E  E  Q       E  E  Q    E  E  Q     
B ||------------------------|------------------------|------------------------|
F#||------------------------|------------------------|------------------------|
D ||------------------------|------------------------|------------------------|
A ||--2--2-------2--2-------|--2--2-------2--2-------|--2--2-------2--2-------|
E ||--2--2-------2--2-------|--2--2-------2--2-------|--2--2-------2--2-------|
B ||--0--0-------0--0-------|--0--0-------0--0-------|--0--0-------0--0-------|


  E  E  Q    E  E  Q       E  E  Q    E  E  Q       E  E  Q    E  E  Q     
------------------------|------------------------|------------------------|
------------------------|------------------------|------------------------|
------------------------|------------------------|------------------------|
--2--2-------2--2-------|--2--2-------2--2-------|--2--2-------2--2-------|
--2--2-------2--2-------|--2--2-------2--2-------|--2--2-------2--2-------|
--0--0-------0--0-------|--0--0-------0--0-------|--0--0-------0--0-------|


  E  E  Q    E  E  Q       E  E  Q    E  E  Q       E  E  Q    E  E  Q     
------------------------|------------------------|------------------------|
------------------------|------------------------|------------------------|
------------------------|------------------------|------------------------|
--2--2-------2--2-------|--2--2-------2--2-------|--2--2-------2--2-------|
--2--2-------2--2-------|--2--2-------2--2-------|--2--2-------2--2-------|
--0--0-------0--0-------|--0--0-------0--0-------|--0--0-------0--0-------|


  E  E  Q    E  E  Q       E  E  Q    E  E  Q       E  E  Q    E  E  Q     
------------------------|------------------------|------------------------|
------------------------|------------------------|------------------------|
------------------------|------------------------|------------------------|
--2--2-------2--2-------|--2--2-------2--2-------|--2--2-------2--2-------|
--2--2-------2--2-------|--2--2-------2--2-------|--2--2-------2--2-------|
--0--0-------0--0-------|--0--0-------0--0-------|--0--0-------0--0-------|


  E  E  Q    E  E  Q       E  E  Q    E  E  Q       E  E  Q    E  E  Q     
------------------------|------------------------|------------------------|
------------------------|------------------------|------------------------|
------------------------|------------------------|------------------------|
--2--2-------2--2-------|--2--2-------2--2-------|--2--2-------2--2-------|
--2--2-------2--2-------|--2--2-------2--2-------|--2--2-------2--2-------|
--0--0-------0--0-------|--0--0-------0--0-------|--0--0-------0--0-------|


  E  E  Q    E  E  Q       E  E  Q    E  E  Q       E  E  Q    E  E  Q     
------------------------|------------------------|------------------------|
------------------------|------------------------|------------------------|
------------------------|------------------------|------------------------|
--2--2-------2--2-------|--2--2-------2--2-------|--2--2-------2--2-------|
--2--2-------2--2-------|--2--2-------2--2-------|--2--2-------2--2-------|
--0--0-------0--0-------|--0--0-------0--0-------|--0--0-------0--0-------|


  E  E  Q    E  E  Q       E  E  Q    E  E  Q     
------------------------|------------------------|
------------------------|------------------------|
------------------------|------------------------|
--2--2-------2--2-------|--2--2-------2--2-------|
--2--2-------2--2-------|--2--2-------2--2-------|
--0--0-------0--0-------|--0--0-------0--0-------|


        PM PM PM PM                                         
  E  E  S  S  S  S  E  E  E  E     E  E  E  E  E  E  E  E   
--------------------------------|--------------------------|
--------------------------------|--------------------------|
--------------------------------|--------------------------|
--2--2--------------3--2--2--2--|--L-----------------------|
--2--2--2--2--2--2--3--2--2--2--|--L--2--1-----1-----------|
--0--0--0--0--0--0--1--0--0--0--|--L--------3-----3--2--3--|


        PM PM PM PM                                         
  E  E  S  S  S  S  E  E  E  E     E  E  E  E  E  E  E  E   
--------------------------------|--------------------------|
--------------------------------|--------------------------|
--------------------------------|--------------------------|
--2--2--------------3--2--2--2--|--L-----------------------|
--2--2--2--2--2--2--3--2--2--2--|--L--2--1-----1-----------|
--0--0--0--0--0--0--1--0--0--0--|--L--------3-----3--2--3--|


        PM PM PM PM                                         
  E  E  S  S  S  S  E  E  E  E     E  E  E  E  E  E  E  E   
--------------------------------|--------------------------|
--------------------------------|--------------------------|
--------------------------------|--------------------------|
--2--2--------------3--2--2--2--|--L-----------------------|
--2--2--2--2--2--2--3--2--2--2--|--L--2--1-----1-----------|
--0--0--0--0--0--0--1--0--0--0--|--L--------3-----3--2--3--|


        PM PM PM PM                                         
  E  E  S  S  S  S  E  E  E  E     E  E  E  E  E  E  E  E   
--------------------------------|--------------------------|
--------------------------------|--------------------------|
--------------------------------|--------------------------|
--2--2--------------3--2--2--2--|--L-----------------------|
--2--2--2--2--2--2--3--2--2--2--|--L--2--1-----1-----------|
--0--0--0--0--0--0--1--0--0--0--|--L--------3-----3--2--3--|


  PM PM PM PM PM PM PM PM PM PM PM PM PM  
  S  S  S  S  E  S  S  S  S  E  S  S  E   
-----------------------------------------|
-----------------------------------------|
-----------------------------------------|
-----------------------------------------|
--2--2--2--2--2--2--2--2--2--2--2--2--2--|
--0--0--0--0--0--0--0--0--0--0--0--0--0--|


  PM PM PM PM PM PM PM PM PM PM PM PM PM  
  S  S  S  S  E  S  S  S  S  E  S  S  E   
-----------------------------------------|
-----------------------------------------|
-----------------------------------------|
-----------------------------------------|
--2--2--2--2--2--2--2--2--2--2--2--2--2--|
--0--0--0--0--0--0--0--0--0--0--0--0--0--|


  PM PM PM PM PM PM PM PM PM PM PM PM PM  
  S  S  S  S  E  S  S  S  S  E  S  S  E   
-----------------------------------------|
-----------------------------------------|
-----------------------------------------|
-----------------------------------------|
--5--5--5--5--5--5--5--5--5--5--5--5--5--|
--3--3--3--3--3--3--3--3--3--3--3--3--3--|


  PM PM PM PM PM PM PM PM PM PM PM PM PM  
  S  S  S  S  E  S  S  S  S  E  S  S  E   
-----------------------------------------|
-----------------------------------------|
-----------------------------------------|
-----------------------------------------|
--7--7--7--7--7--7--7--7--7--7--7--7--7--|
--5--5--5--5--5--5--5--5--5--5--5--5--5--|


  PM PM PM PM PM PM PM PM PM PM PM PM PM  
  S  S  S  S  E  S  S  S  S  E  S  S  E   
-----------------------------------------|
-----------------------------------------|
-----------------------------------------|
-----------------------------------------|
--2--2--2--2--2--2--2--2--2--2--2--2--2--|
--0--0--0--0--0--0--0--0--0--0--0--0--0--|


  PM PM PM PM PM PM PM PM PM PM PM PM PM  
  S  S  S  S  E  S  S  S  S  E  S  S  E   
-----------------------------------------|
-----------------------------------------|
-----------------------------------------|
-----------------------------------------|
--2--2--2--2--2--2--2--2--2--2--2--2--2--|
--0--0--0--0--0--0--0--0--0--0--0--0--0--|


  PM PM PM PM PM PM PM PM PM PM PM PM PM  
  S  S  S  S  E  S  S  S  S  E  S  S  E   
-----------------------------------------|
-----------------------------------------|
-----------------------------------------|
-----------------------------------------|
--5--5--5--5--5--5--5--5--5--5--5--5--5--|
--3--3--3--3--3--3--3--3--3--3--3--3--3--|


  PM PM PM PM PM PM PM PM PM PM PM PM PM  
  S  S  S  S  E  S  S  S  S  E  S  S  E   
-----------------------------------------|
-----------------------------------------|
-----------------------------------------|
-----------------------------------------|
--7--7--7--7--7--7--7--7--7--7--7--7--7--|
--5--5--5--5--5--5--5--5--5--5--5--5--5--|


  PM PM PM PM PM PM PM PM PM PM PM PM PM  
  S  S  S  S  E  S  S  S  S  E  S  S  E   
-----------------------------------------|
-----------------------------------------|
-----------------------------------------|
-----------------------------------------|
--2--2--2--2--2--2--2--2--2--2--2--2--2--|
--0--0--0--0--0--0--0--0--0--0--0--0--0--|


  PM PM PM PM PM PM PM PM PM PM PM PM PM  
  S  S  S  S  E  S  S  S  S  E  S  S  E   
-----------------------------------------|
-----------------------------------------|
-----------------------------------------|
-----------------------------------------|
--2--2--2--2--2--2--2--2--2--2--2--2--2--|
--0--0--0--0--0--0--0--0--0--0--0--0--0--|


  PM PM PM PM PM PM PM PM PM PM PM PM PM  
  S  S  S  S  E  S  S  S  S  E  S  S  E   
-----------------------------------------|
-----------------------------------------|
-----------------------------------------|
-----------------------------------------|
--5--5--5--5--5--5--5--5--5--5--5--5--5--|
--3--3--3--3--3--3--3--3--3--3--3--3--3--|


  PM PM PM PM PM PM PM PM PM PM PM PM PM  
  S  S  S  S  E  S  S  S  S  E  S  S  E   
-----------------------------------------|
-----------------------------------------|
-----------------------------------------|
-----------------------------------------|
--7--7--7--7--7--7--7--7--7--7--7--7--7--|
--5--5--5--5--5--5--5--5--5--5--5--5--5--|


  PM PM PM PM PM PM PM PM PM PM PM PM PM  
  S  S  S  S  E  S  S  S  S  E  S  S  E   
-----------------------------------------|
-----------------------------------------|
-----------------------------------------|
-----------------------------------------|
--2--2--2--2--2--2--2--2--2--2--2--2--2--|
--0--0--0--0--0--0--0--0--0--0--0--0--0--|


  PM PM PM PM PM PM PM PM PM PM PM PM PM  
  S  S  S  S  E  S  S  S  S  E  S  S  E   
-----------------------------------------|
-----------------------------------------|
-----------------------------------------|
-----------------------------------------|
--2--2--2--2--2--2--2--2--2--2--2--2--2--|
--0--0--0--0--0--0--0--0--0--0--0--0--0--|


  PM PM PM PM PM PM PM PM PM PM PM PM PM                        
  S  S  S  S  E  S  S  S  S  E  S  S  E     H.           Q      
-----------------------------------------|---------------------|
-----------------------------------------|---------------------|
-----------------------------------------|---------------------|
-----------------------------------------|---------------------|
--5--5--5--5--5--5--5--5--5--5--5--5--5--|---------------9\----|
--3--3--3--3--3--3--3--3--3--3--3--3--3--|---------------7\----|


  E  E  Q    E  E  Q       E  E  Q    E  E  Q       E  E  Q    E  E  Q     
------------------------|------------------------|------------------------|
------------------------|------------------------|------------------------|
------------------------|------------------------|------------------------|
--2--2-------2--2-------|--2--2-------2--2-------|--2--2-------2--2-------|
--2--2-------2--2-------|--2--2-------2--2-------|--2--2-------2--2-------|
--0--0-------0--0-------|--0--0-------0--0-------|--0--0-------0--0-------|


  E  E  Q    E  E  Q       E  E  Q    E  E  Q       E  E  Q    E  E  Q     
------------------------|------------------------|------------------------|
------------------------|------------------------|------------------------|
------------------------|------------------------|------------------------|
--2--2-------2--2-------|--2--2-------2--2-------|--2--2-------2--2-------|
--2--2-------2--2-------|--2--2-------2--2-------|--2--2-------2--2-------|
--0--0-------0--0-------|--0--0-------0--0-------|--0--0-------0--0-------|


  E  E  Q    E  E  Q       E  E  Q    E  E  Q     
------------------------|------------------------|
------------------------|------------------------|
------------------------|------------------------|
--2--2-------2--2-------|--2--2-------2--2-------|
--2--2-------2--2-------|--2--2-------2--2-------|
--0--0-------0--0-------|--0--0-------0--0-------|


        PM PM PM PM                                         
  E  E  S  S  S  S  E  E  E  E     E  E  E  E  E  E  E  E   
--------------------------------|--------------------------|
--------------------------------|--------------------------|
--------------------------------|--------------------------|
--2--2--------------3--2--2--2--|--L-----------------------|
--2--2--2--2--2--2--3--2--2--2--|--L--2--1-----1-----------|
--0--0--0--0--0--0--1--0--0--0--|--L--------3-----3--2--3--|


        PM PM PM PM                                         
  E  E  S  S  S  S  E  E  E  E     E  E  E  E  E  E  E  E   
--------------------------------|--------------------------|
--------------------------------|--------------------------|
--------------------------------|--------------------------|
--2--2--------------3--2--2--2--|--L-----------------------|
--2--2--2--2--2--2--3--2--2--2--|--L--2--1-----1-----------|
--0--0--0--0--0--0--1--0--0--0--|--L--------3-----3--2--3--|


        PM PM PM PM                                         
  E  E  S  S  S  S  E  E  E  E     E  E  E  E  E  E  E  E   
--------------------------------|--------------------------|
--------------------------------|--------------------------|
--------------------------------|--------------------------|
--2--2--------------3--2--2--2--|--L-----------------------|
--2--2--2--2--2--2--3--2--2--2--|--L--2--1-----1-----------|
--0--0--0--0--0--0--1--0--0--0--|--L--------3-----3--2--3--|


        PM PM PM PM                                         
  E  E  S  S  S  S  E  E  E  E     E  E  E  E  E  E  E  E   
--------------------------------|--------------------------|
--------------------------------|--------------------------|
--------------------------------|--------------------------|
--2--2--------------3--2--2--2--|--L-----------------------|
--2--2--2--2--2--2--3--2--2--2--|--L--2--1-----1-----------|
--0--0--0--0--0--0--1--0--0--0--|--L--------3-----3--2--3--|


  PM PM PM PM PM PM PM PM PM PM PM PM PM  
  S  S  S  S  E  S  S  S  S  E  S  S  E   
-----------------------------------------|
-----------------------------------------|
-----------------------------------------|
-----------------------------------------|
--2--2--2--2--2--2--2--2--2--2--2--2--2--|
--0--0--0--0--0--0--0--0--0--0--0--0--0--|


  PM PM PM PM PM PM PM PM PM PM PM PM PM  
  S  S  S  S  E  S  S  S  S  E  S  S  E   
-----------------------------------------|
-----------------------------------------|
-----------------------------------------|
-----------------------------------------|
--2--2--2--2--2--2--2--2--2--2--2--2--2--|
--0--0--0--0--0--0--0--0--0--0--0--0--0--|


  PM PM PM PM PM PM PM PM PM PM PM PM PM  
  S  S  S  S  E  S  S  S  S  E  S  S  E   
-----------------------------------------|
-----------------------------------------|
-----------------------------------------|
-----------------------------------------|
--5--5--5--5--5--5--5--5--5--5--5--5--5--|
--3--3--3--3--3--3--3--3--3--3--3--3--3--|


  PM PM PM PM PM PM PM PM PM PM PM PM PM  
  S  S  S  S  E  S  S  S  S  E  S  S  E   
-----------------------------------------|
-----------------------------------------|
-----------------------------------------|
-----------------------------------------|
--7--7--7--7--7--7--7--7--7--7--7--7--7--|
--5--5--5--5--5--5--5--5--5--5--5--5--5--|


  PM PM PM PM PM PM PM PM PM PM PM PM PM  
  S  S  S  S  E  S  S  S  S  E  S  S  E   
-----------------------------------------|
-----------------------------------------|
-----------------------------------------|
-----------------------------------------|
--2--2--2--2--2--2--2--2--2--2--2--2--2--|
--0--0--0--0--0--0--0--0--0--0--0--0--0--|


  PM PM PM PM PM PM PM PM PM PM PM PM PM  
  S  S  S  S  E  S  S  S  S  E  S  S  E   
-----------------------------------------|
-----------------------------------------|
-----------------------------------------|
-----------------------------------------|
--2--2--2--2--2--2--2--2--2--2--2--2--2--|
--0--0--0--0--0--0--0--0--0--0--0--0--0--|


  PM PM PM PM PM PM PM PM PM PM PM PM PM  
  S  S  S  S  E  S  S  S  S  E  S  S  E   
-----------------------------------------|
-----------------------------------------|
-----------------------------------------|
-----------------------------------------|
--5--5--5--5--5--5--5--5--5--5--5--5--5--|
--3--3--3--3--3--3--3--3--3--3--3--3--3--|


  PM PM PM PM PM PM PM PM PM PM PM PM PM  
  S  S  S  S  E  S  S  S  S  E  S  S  E   
-----------------------------------------|
-----------------------------------------|
-----------------------------------------|
-----------------------------------------|
--7--7--7--7--7--7--7--7--7--7--7--7--7--|
--5--5--5--5--5--5--5--5--5--5--5--5--5--|


  PM PM PM PM PM PM PM PM PM PM PM PM PM  
  S  S  S  S  E  S  S  S  S  E  S  S  E   
-----------------------------------------|
-----------------------------------------|
-----------------------------------------|
-----------------------------------------|
--2--2--2--2--2--2--2--2--2--2--2--2--2--|
--0--0--0--0--0--0--0--0--0--0--0--0--0--|


  PM PM PM PM PM PM PM PM PM PM PM PM PM  
  S  S  S  S  E  S  S  S  S  E  S  S  E   
-----------------------------------------|
-----------------------------------------|
-----------------------------------------|
-----------------------------------------|
--2--2--2--2--2--2--2--2--2--2--2--2--2--|
--0--0--0--0--0--0--0--0--0--0--0--0--0--|


  PM PM PM PM PM PM PM PM PM PM PM PM PM  
  S  S  S  S  E  S  S  S  S  E  S  S  E   
-----------------------------------------|
-----------------------------------------|
-----------------------------------------|
-----------------------------------------|
--5--5--5--5--5--5--5--5--5--5--5--5--5--|
--3--3--3--3--3--3--3--3--3--3--3--3--3--|


  PM PM PM PM PM PM PM PM PM PM PM PM PM  
  S  S  S  S  E  S  S  S  S  E  S  S  E   
-----------------------------------------|
-----------------------------------------|
-----------------------------------------|
-----------------------------------------|
--7--7--7--7--7--7--7--7--7--7--7--7--7--|
--5--5--5--5--5--5--5--5--5--5--5--5--5--|


  PM PM PM PM PM PM PM PM PM PM PM PM PM  
  S  S  S  S  E  S  S  S  S  E  S  S  E   
-----------------------------------------|
-----------------------------------------|
-----------------------------------------|
-----------------------------------------|
--2--2--2--2--2--2--2--2--2--2--2--2--2--|
--0--0--0--0--0--0--0--0--0--0--0--0--0--|


  PM PM PM PM PM PM PM PM PM PM PM PM PM  
  S  S  S  S  E  S  S  S  S  E  S  S  E   
-----------------------------------------|
-----------------------------------------|
-----------------------------------------|
-----------------------------------------|
--2--2--2--2--2--2--2--2--2--2--2--2--2--|
--0--0--0--0--0--0--0--0--0--0--0--0--0--|


  PM PM PM PM PM PM PM PM PM PM PM PM PM                        
  S  S  S  S  E  S  S  S  S  E  S  S  E     H.           Q      
-----------------------------------------|---------------------|
-----------------------------------------|---------------------|
-----------------------------------------|---------------------|
-----------------------------------------|---------------------|
--5--5--5--5--5--5--5--5--5--5--5--5--5--|---------------9\----|
--3--3--3--3--3--3--3--3--3--3--3--3--3--|---------------7\----|


  E  E  Q    E  E  Q       E  E  Q    E  E  Q       E  E  Q    E  E  Q     
------------------------|------------------------|------------------------|
------------------------|------------------------|------------------------|
------------------------|------------------------|------------------------|
--2--2-------2--2-------|--2--2-------2--2-------|--2--2-------2--2-------|
--2--2-------2--2-------|--2--2-------2--2-------|--2--2-------2--2-------|
--0--0-------0--0-------|--0--0-------0--0-------|--0--0-------0--0-------|


  E  E  Q    E  E  Q       E  E  Q    E  E  Q       E  E  Q    E  E  Q     
------------------------|------------------------|------------------------|
------------------------|------------------------|------------------------|
------------------------|------------------------|------------------------|
--2--2-------2--2-------|--2--2-------2--2-------|--2--2-------2--2-------|
--2--2-------2--2-------|--2--2-------2--2-------|--2--2-------2--2-------|
--0--0-------0--0-------|--0--0-------0--0-------|--0--0-------0--0-------|


  E  E  Q    E  E  Q       E  E  Q    E  E  Q       W                 
------------------------|------------------------|-------------------|
------------------------|------------------------|-------------------|
------------------------|------------------------|-------------------|
--2--2-------2--2-------|--2--2-------2--2-------|--2----------------|
--2--2-------2--2-------|--2--2-------2--2-------|--2----------------|
--0--0-------0--0-------|--0--0-------0--0-------|--0----------------|


  W                   W                   W                   W                 
-------------------|-------------------|-------------------|-------------------|
-------------------|-------------------|-------------------|-------------------|
-------------------|-------------------|-------------------|-------------------|
--L----------------|--5----------------|--7----------------|--2----------------|
--L----------------|--5----------------|--7----------------|--2----------------|
--L----------------|--3----------------|--5----------------|--0----------------|


  W                   W                   W                   W                 
-------------------|-------------------|-------------------|-------------------|
-------------------|-------------------|-------------------|-------------------|
-------------------|-------------------|-------------------|-------------------|
--L----------------|--5----------------|--7----------------|--7----------------|
--L----------------|--5----------------|--7----------------|--7----------------|
--L----------------|--3----------------|--5----------------|--5----------------|


  W                   W                   W                   W                 
-------------------|-------------------|-------------------|-------------------|
-------------------|-------------------|-------------------|-------------------|
-------------------|-------------------|-------------------|-------------------|
--L----------------|--3----------------|--5----------------|--7----------------|
--L----------------|--3----------------|--5----------------|--7----------------|
--L----------------|--1----------------|--3----------------|--5----------------|


  W                   W                   W                 
-------------------|-------------------|-------------------|
-------------------|-------------------|-------------------|
-------------------|-------------------|-------------------|
--L----------------|--3----------------|--5----------------|
--L----------------|--3----------------|--5----------------|
--L----------------|--1----------------|--3----------------|


  PM PM      PM PM                             PM PM      PM PM       
  E  E  Q    E  E  Q       W                   E  E  Q    E  E  Q     
------------------------|-------------------|------------------------|
------------------------|-------------------|------------------------|
------------------------|-------------------|------------------------|
--2--2-------2--2-------|-------------------|--2--2-------2--2-------|
--2--2-------2--2-------|-------------------|--2--2-------2--2-------|
--0--0-------0--0-------|-------------------|--0--0-------0--0-------|


                         PM PM      PM PM                           
  H.            Q        E  E  Q    E  E  Q       W                 
----------------------|------------------------|-------------------|
----------------------|------------------------|-------------------|
----------------------|------------------------|-------------------|
----------------------|--2--2-------2--2-------|-------------------|
---------------10\----|--2--2-------2--2-------|-------------------|
----------------8\----|--0--0-------0--0-------|-------------------|


  PM PM      PM PM                              
  E  E  Q    E  E  Q       H.            Q      
------------------------|----------------------|
------------------------|----------------------|
------------------------|----------------------|
--2--2-------2--2-------|----------------------|
--2--2-------2--2-------|---------------10\----|
--0--0-------0--0-------|----------------8\----|


        PM PM PM PM                                         
  E  E  S  S  S  S  E  E  E  E     E  E  E  E  E  E  E  E   
--------------------------------|--------------------------|
--------------------------------|--------------------------|
--------------------------------|--------------------------|
--2--2--------------3--2--2--2--|--L-----------------------|
--2--2--2--2--2--2--3--2--2--2--|--L--2--1-----1-----------|
--0--0--0--0--0--0--1--0--0--0--|--L--------3-----3--2--3--|


        PM PM PM PM                                         
  E  E  S  S  S  S  E  E  E  E     E  E  E  E  E  E  E  E   
--------------------------------|--------------------------|
--------------------------------|--------------------------|
--------------------------------|--------------------------|
--2--2--------------3--2--2--2--|--L-----------------------|
--2--2--2--2--2--2--3--2--2--2--|--L--2--1-----1-----------|
--0--0--0--0--0--0--1--0--0--0--|--L--------3-----3--2--3--|


        PM PM PM PM                                         
  E  E  S  S  S  S  E  E  E  E     E  E  E  E  E  E  E  E   
--------------------------------|--------------------------|
--------------------------------|--------------------------|
--------------------------------|--------------------------|
--2--2--------------3--2--2--2--|--L-----------------------|
--2--2--2--2--2--2--3--2--2--2--|--L--2--1-----1-----------|
--0--0--0--0--0--0--1--0--0--0--|--L--------3-----3--2--3--|


        PM PM PM PM                                         
  E  E  S  S  S  S  E  E  E  E     E  E  E  E  E  E  E  E   
--------------------------------|--------------------------|
--------------------------------|--------------------------|
--------------------------------|--------------------------|
--2--2--------------3--2--2--2--|--L-----------------------|
--2--2--2--2--2--2--3--2--2--2--|--L--2--1-----1-----------|
--0--0--0--0--0--0--1--0--0--0--|--L--------3-----3--2--3--|


        PM PM PM PM                                         
  E  E  S  S  S  S  E  E  E  E     E  E  E  E  E  E  E  E   
--------------------------------|--------------------------|
--------------------------------|--------------------------|
--------------------------------|--------------------------|
--2--2--------------3--2--2--2--|--L-----------------------|
--2--2--2--2--2--2--3--2--2--2--|--L--2--1-----1-----------|
--0--0--0--0--0--0--1--0--0--0--|--L--------3-----3--2--3--|


        PM PM PM PM                                         
  E  E  S  S  S  S  E  E  E  E     E  E  E  E  E  E  E  E   
--------------------------------|--------------------------|
--------------------------------|--------------------------|
--------------------------------|--------------------------|
--2--2--------------3--2--2--2--|--L-----------------------|
--2--2--2--2--2--2--3--2--2--2--|--L--2--1-----1-----------|
--0--0--0--0--0--0--1--0--0--0--|--L--------3-----3--2--3--|


        PM PM PM PM                                         
  E  E  S  S  S  S  E  E  E  E     E  E  E  E  E  E  E  E   
--------------------------------|--------------------------|
--------------------------------|--------------------------|
--------------------------------|--------------------------|
--2--2--------------3--2--2--2--|--L-----------------------|
--2--2--2--2--2--2--3--2--2--2--|--L--2--1-----1-----------|
--0--0--0--0--0--0--1--0--0--0--|--L--------3-----3--2--3--|


        PM PM PM PM                                         
  E  E  S  S  S  S  E  E  E  E     E  E  E  E  E  E  E  E   
--------------------------------|--------------------------|
--------------------------------|--------------------------|
--------------------------------|--------------------------|
--2--2--------------3--2--2--2--|--L-----------------------|
--2--2--2--2--2--2--3--2--2--2--|--L--2--1-----1-----------|
--0--0--0--0--0--0--1--0--0--0--|--L--------3-----3--2--3--|


        PM PM PM PM                                         
  E  E  S  S  S  S  E  E  E  E     E  E  E  E  E  E  E  E   
--------------------------------|--------------------------|
--------------------------------|--------------------------|
--------------------------------|--------------------------|
--2--2--------------3--2--2--2--|--L-----------------------|
--2--2--2--2--2--2--3--2--2--2--|--L--2--1-----1-----------|
--0--0--0--0--0--0--1--0--0--0--|--L--------3-----3--2--3--|


        PM PM PM PM                                         
  E  E  S  S  S  S  E  E  E  E     E  E  E  E  E  E  E  E   
--------------------------------|--------------------------|
--------------------------------|--------------------------|
--------------------------------|--------------------------|
--2--2--------------3--2--2--2--|--L-----------------------|
--2--2--2--2--2--2--3--2--2--2--|--L--2--1-----1-----------|
--0--0--0--0--0--0--1--0--0--0--|--L--------3-----3--2--3--|


        PM PM PM PM                                         
  E  E  S  S  S  S  E  E  E  E     E  E  E  E  E  E  E  E   
--------------------------------|--------------------------|
--------------------------------|--------------------------|
--------------------------------|--------------------------|
--2--2--------------3--2--2--2--|--L-----------------------|
--2--2--2--2--2--2--3--2--2--2--|--L--2--1-----1-----------|
--0--0--0--0--0--0--1--0--0--0--|--L--------3-----3--2--3--|


        PM PM PM PM                                         
  E  E  S  S  S  S  E  E  E  E     E  E  E  E  E  E  E  E   
--------------------------------|--------------------------|
--------------------------------|--------------------------|
--------------------------------|--------------------------|
--2--2--------------3--2--2--2--|--L-----------------------|
--2--2--2--2--2--2--3--2--2--2--|--L--2--1-----1-----------|
--0--0--0--0--0--0--1--0--0--0--|--L--------3-----3--2--3--|


        PM PM PM PM                                         
  E  E  S  S  S  S  E  E  E  E     E  E  E  E  E  E  E  E   
--------------------------------|--------------------------|
--------------------------------|--------------------------|
--------------------------------|--------------------------|
--2--2--------------3--2--2--2--|--L-----------------------|
--2--2--2--2--2--2--3--2--2--2--|--L--2--1-----1-----------|
--0--0--0--0--0--0--1--0--0--0--|--L--------3-----3--2--3--|


        PM PM PM PM                                                             
  E  E  S  S  S  S  E  E  E  E     E  E  E  E  E  E  E  E     W                 
--------------------------------|--------------------------|-------------------|
--------------------------------|--------------------------|-------------------|
--------------------------------|--------------------------|-------------------|
--2--2--------------3--2--2--2--|--L-----------------------|--2----------------|
--2--2--2--2--2--2--3--2--2--2--|--L--2--1-----1-----------|--2----------------|
--0--0--0--0--0--0--1--0--0--0--|--L--------3-----3--2--3--|--0----------------|


  W                   W                   W                   W                 
-------------------|-------------------|-------------------|-------------------|
-------------------|-------------------|-------------------|-------------------|
-------------------|-------------------|-------------------|-------------------|
--L----------------|--L----------------|--L----------------|--L----------------|
--L----------------|--L----------------|--L----------------|--L----------------|
--L----------------|--L----------------|--L----------------|--L----------------|


  W                   W                   W                  
-------------------|-------------------|-------------------||
-------------------|-------------------|-------------------||
-------------------|-------------------|-------------------||
--L----------------|--L----------------|--L----------------||
--L----------------|--L----------------|--L----------------||
--L----------------|--L----------------|--L----------------||

Bass Guitar

     E  E  Q    E  E  Q       E  E  Q    E  E  Q       E  E  Q    E  E  Q     
G||------------------------|------------------------|------------------------|
D||------------------------|------------------------|------------------------|
A||------------------------|------------------------|------------------------|
E||------------------------|------------------------|------------------------|
B||--0--0-------0--0-------|--0--0-------0--0-------|--0--0-------0--0-------|


  E  E  Q    E  E  Q       E  E  Q    E  E  Q       E  E  Q    E  E  Q     
------------------------|------------------------|------------------------|
------------------------|------------------------|------------------------|
------------------------|------------------------|------------------------|
------------------------|------------------------|------------------------|
--0--0-------0--0-------|--0--0-------0--0-------|--0--0-------0--0-------|


  E  E  Q    E  E  Q       E  E  Q    E  E  Q       E  E  Q    E  E  Q     
------------------------|------------------------|------------------------|
------------------------|------------------------|------------------------|
------------------------|------------------------|------------------------|
------------------------|------------------------|------------------------|
--0--0-------0--0-------|--0--0-------0--0-------|--0--0-------0--0-------|


  E  E  Q    E  E  Q       E  E  Q    E  E  Q       E  E  Q    E  E  Q     
------------------------|------------------------|------------------------|
------------------------|------------------------|------------------------|
------------------------|------------------------|------------------------|
------------------------|------------------------|------------------------|
--0--0-------0--0-------|--0--0-------0--0-------|--0--0-------0--0-------|


  E  E  Q    E  E  Q       E  E  Q    E  E  Q       E  E  Q    E  E  Q     
------------------------|------------------------|------------------------|
------------------------|------------------------|------------------------|
------------------------|------------------------|------------------------|
------------------------|------------------------|------------------------|
--0--0-------0--0-------|--0--0-------0--0-------|--0--0-------0--0-------|


  E  E  Q    E  E  Q       E  E  Q    E  E  Q       E  E  Q    E  E  Q     
------------------------|------------------------|------------------------|
------------------------|------------------------|------------------------|
------------------------|------------------------|------------------------|
------------------------|------------------------|------------------------|
--0--0-------0--0-------|--0--0-------0--0-------|--0--0-------0--0-------|


  E  E  Q    E  E  Q       E  E  Q    E  E  Q       E  E  S S S S E  E  E  E   
------------------------|------------------------|----------------------------|
------------------------|------------------------|----------------------------|
------------------------|------------------------|----------------------------|
------------------------|------------------------|----------------------------|
--0--0-------0--0-------|--0--0-------0--0-------|--0--0--0-0-0-0-1--0--0--0--|


  E  E  E  E  E  E  E  E     E  E  S S S S E  E  E  E   
--------------------------|----------------------------|
--------------------------|----------------------------|
--------------------------|----------------------------|
-----2--1-----1-----------|----------------------------|
--L--------3-----3--2--3--|--0--0--0-0-0-0-1--0--0--0--|


  E  E  E  E  E  E  E  E     E  E  S S S S E  E  E  E   
--------------------------|----------------------------|
--------------------------|----------------------------|
--------------------------|----------------------------|
-----2--1-----1-----------|----------------------------|
--L--------3-----3--2--3--|--0--0--0-0-0-0-1--0--0--0--|


  E  E  E  E  E  E  E  E     E  E  S S S S E  E  E  E   
--------------------------|----------------------------|
--------------------------|----------------------------|
--------------------------|----------------------------|
-----2--1-----1-----------|----------------------------|
--L--------3-----3--2--3--|--0--0--0-0-0-0-1--0--0--0--|


  E  E  E  E  E  E  E  E     S S S S E  S S S S E  S S E   
--------------------------|-------------------------------|
--------------------------|-------------------------------|
--------------------------|-------------------------------|
-----2--1-----1-----------|-------------------------------|
--L--------3-----3--2--3--|--0-0-0-0-0--0-0-0-0-0--0-0-0--|


  S S S S E  S S S S E  S S E     S S S S E  S S S S E  S S E   
-------------------------------|-------------------------------|
-------------------------------|-------------------------------|
-------------------------------|-------------------------------|
-------------------------------|-------------------------------|
--0-0-0-0-0--0-0-0-0-0--0-0-0--|--3-3-3-3-3--3-3-3-3-3--3-3-3--|


  S S S S E  S S S S E  S S E     S S S S E  S S S S E  S S E   
-------------------------------|-------------------------------|
-------------------------------|-------------------------------|
-------------------------------|-------------------------------|
--0-0-0-0-0--0-0-0-0-0--0-0-0--|-------------------------------|
-------------------------------|--0-0-0-0-0--0-0-0-0-0--0-0-0--|


  S S S S E  S S S S E  S S E     S S S S E  S S S S E  S S E   
-------------------------------|-------------------------------|
-------------------------------|-------------------------------|
-------------------------------|-------------------------------|
-------------------------------|-------------------------------|
--0-0-0-0-0--0-0-0-0-0--0-0-0--|--3-3-3-3-3--3-3-3-3-3--3-3-3--|


  S S S S E  S S S S E  S S E     S S S S E  S S S S E  S S E   
-------------------------------|-------------------------------|
-------------------------------|-------------------------------|
-------------------------------|-------------------------------|
--0-0-0-0-0--0-0-0-0-0--0-0-0--|-------------------------------|
-------------------------------|--0-0-0-0-0--0-0-0-0-0--0-0-0--|


  S S S S E  S S S S E  S S E     S S S S E  S S S S E  S S E   
-------------------------------|-------------------------------|
-------------------------------|-------------------------------|
-------------------------------|-------------------------------|
-------------------------------|-------------------------------|
--0-0-0-0-0--0-0-0-0-0--0-0-0--|--3-3-3-3-3--3-3-3-3-3--3-3-3--|


  S S S S E  S S S S E  S S E     S S S S E  S S S S E  S S E   
-------------------------------|-------------------------------|
-------------------------------|-------------------------------|
-------------------------------|-------------------------------|
--0-0-0-0-0--0-0-0-0-0--0-0-0--|-------------------------------|
-------------------------------|--0-0-0-0-0--0-0-0-0-0--0-0-0--|


  S S S S E  S S S S E  S S E     S S S S E  S S S S E  S S E   
-------------------------------|-------------------------------|
-------------------------------|-------------------------------|
-------------------------------|-------------------------------|
-------------------------------|-------------------------------|
--0-0-0-0-0--0-0-0-0-0--0-0-0--|--3-3-3-3-3--3-3-3-3-3--3-3-3--|


  H.           Q        E  E  Q    E  E  Q       E  E  Q    E  E  Q     
---------------------|------------------------|------------------------|
---------------------|------------------------|------------------------|
---------------------|------------------------|------------------------|
---------------2\----|------------------------|------------------------|
---------------------|--0--0-------0--0-------|--0--0-------0--0-------|


  E  E  Q    E  E  Q       E  E  Q    E  E  Q       E  E  Q    E  E  Q     
------------------------|------------------------|------------------------|
------------------------|------------------------|------------------------|
------------------------|------------------------|------------------------|
------------------------|------------------------|------------------------|
--0--0-------0--0-------|--0--0-------0--0-------|--0--0-------0--0-------|


  E  E  Q    E  E  Q       E  E  Q    E  E  Q       E  E  Q    E  E  Q     
------------------------|------------------------|------------------------|
------------------------|------------------------|------------------------|
------------------------|------------------------|------------------------|
------------------------|------------------------|------------------------|
--0--0-------0--0-------|--0--0-------0--0-------|--0--0-------0--0-------|


  E  E  S S S S E  E  E  E     E  E  E  E  E  E  E  E   
----------------------------|--------------------------|
----------------------------|--------------------------|
----------------------------|--------------------------|
----------------------------|-----2--1-----1-----------|
--0--0--0-0-0-0-1--0--0--0--|--L--------3-----3--2--3--|


  E  E  S S S S E  E  E  E     E  E  E  E  E  E  E  E   
----------------------------|--------------------------|
----------------------------|--------------------------|
----------------------------|--------------------------|
----------------------------|-----2--1-----1-----------|
--0--0--0-0-0-0-1--0--0--0--|--L--------3-----3--2--3--|


  E  E  S S S S E  E  E  E     E  E  E  E  E  E  E  E   
----------------------------|--------------------------|
----------------------------|--------------------------|
----------------------------|--------------------------|
----------------------------|-----2--1-----1-----------|
--0--0--0-0-0-0-1--0--0--0--|--L--------3-----3--2--3--|


  E  E  S S S S E  E  E  E     E  E  E  E  E  E  E  E   
----------------------------|--------------------------|
----------------------------|--------------------------|
----------------------------|--------------------------|
----------------------------|-----2--1-----1-----------|
--0--0--0-0-0-0-1--0--0--0--|--L--------3-----3--2--3--|


  S S S S E  S S S S E  S S E     S S S S E  S S S S E  S S E   
-------------------------------|-------------------------------|
-------------------------------|-------------------------------|
-------------------------------|-------------------------------|
-------------------------------|-------------------------------|
--0-0-0-0-0--0-0-0-0-0--0-0-0--|--0-0-0-0-0--0-0-0-0-0--0-0-0--|


  S S S S E  S S S S E  S S E     S S S S E  S S S S E  S S E   
-------------------------------|-------------------------------|
-------------------------------|-------------------------------|
-------------------------------|-------------------------------|
-------------------------------|--0-0-0-0-0--0-0-0-0-0--0-0-0--|
--3-3-3-3-3--3-3-3-3-3--3-3-3--|-------------------------------|


  S S S S E  S S S S E  S S E     S S S S E  S S S S E  S S E   
-------------------------------|-------------------------------|
-------------------------------|-------------------------------|
-------------------------------|-------------------------------|
-------------------------------|-------------------------------|
--0-0-0-0-0--0-0-0-0-0--0-0-0--|--0-0-0-0-0--0-0-0-0-0--0-0-0--|


  S S S S E  S S S S E  S S E     S S S S E  S S S S E  S S E   
-------------------------------|-------------------------------|
-------------------------------|-------------------------------|
-------------------------------|-------------------------------|
-------------------------------|--0-0-0-0-0--0-0-0-0-0--0-0-0--|
--3-3-3-3-3--3-3-3-3-3--3-3-3--|-------------------------------|


  S S S S E  S S S S E  S S E     S S S S E  S S S S E  S S E   
-------------------------------|-------------------------------|
-------------------------------|-------------------------------|
-------------------------------|-------------------------------|
-------------------------------|-------------------------------|
--0-0-0-0-0--0-0-0-0-0--0-0-0--|--0-0-0-0-0--0-0-0-0-0--0-0-0--|


  S S S S E  S S S S E  S S E     S S S S E  S S S S E  S S E   
-------------------------------|-------------------------------|
-------------------------------|-------------------------------|
-------------------------------|-------------------------------|
-------------------------------|--0-0-0-0-0--0-0-0-0-0--0-0-0--|
--3-3-3-3-3--3-3-3-3-3--3-3-3--|-------------------------------|


  S S S S E  S S S S E  S S E     S S S S E  S S S S E  S S E   
-------------------------------|-------------------------------|
-------------------------------|-------------------------------|
-------------------------------|-------------------------------|
-------------------------------|-------------------------------|
--0-0-0-0-0--0-0-0-0-0--0-0-0--|--0-0-0-0-0--0-0-0-0-0--0-0-0--|


  S S S S E  S S S S E  S S E     H.           Q        E  E  Q    E  E  Q     
-------------------------------|---------------------|------------------------|
-------------------------------|---------------------|------------------------|
-------------------------------|---------------------|------------------------|
-------------------------------|---------------2\----|------------------------|
--3-3-3-3-3--3-3-3-3-3--3-3-3--|---------------------|--0--0-------0--0-------|


  E  E  Q    E  E  Q       E  E  Q    E  E  Q       E  E  Q    E  E  Q     
------------------------|------------------------|------------------------|
------------------------|------------------------|------------------------|
------------------------|------------------------|------------------------|
------------------------|------------------------|------------------------|
--0--0-------0--0-------|--0--0-------0--0-------|--0--0-------0--0-------|


  E  E  Q    E  E  Q       E  E  Q    E  E  Q       E  E  Q    E  E  Q     
------------------------|------------------------|------------------------|
------------------------|------------------------|------------------------|
------------------------|------------------------|------------------------|
------------------------|------------------------|------------------------|
--0--0-------0--0-------|--0--0-------0--0-------|--0--0-------0--0-------|


  E  E  Q    E  E  Q       W                   W                 
------------------------|-------------------|-------------------|
------------------------|-------------------|-------------------|
------------------------|-------------------|-------------------|
------------------------|-------------------|-------------------|
--0--0-------0--0-------|--0----------------|--L----------------|


  W                   W                   W                   W                 
-------------------|-------------------|-------------------|-------------------|
-------------------|-------------------|-------------------|-------------------|
-------------------|-------------------|-------------------|-------------------|
-------------------|--0----------------|-------------------|-------------------|
--3----------------|-------------------|--0----------------|--L----------------|


  W                   W                   W                   W                 
-------------------|-------------------|-------------------|-------------------|
-------------------|-------------------|-------------------|-------------------|
-------------------|-------------------|-------------------|-------------------|
-------------------|--0----------------|--0----------------|--L----------------|
--3----------------|-------------------|-------------------|-------------------|


  W                   W                   W                   W                 
-------------------|-------------------|-------------------|-------------------|
-------------------|-------------------|-------------------|-------------------|
-------------------|-------------------|-------------------|-------------------|
-------------------|-------------------|--0----------------|--L----------------|
--1----------------|--3----------------|-------------------|-------------------|


  W                   W                   E  E  Q    E  E  Q     
-------------------|-------------------|------------------------|
-------------------|-------------------|------------------------|
-------------------|-------------------|------------------------|
-------------------|-------------------|------------------------|
--1----------------|--3----------------|--0--0-------0--0-------|


                      E  E  Q    E  E  Q       H.           Q      
-------------------|------------------------|---------------------|
-------------------|------------------------|---------------------|
-------------------|------------------------|---------------------|
-------------------|------------------------|---------------3\----|
-------------------|--0--0-------0--0-------|---------------------|


  E  E  Q    E  E  Q                           E  E  Q    E  E  Q     
------------------------|-------------------|------------------------|
------------------------|-------------------|------------------------|
------------------------|-------------------|------------------------|
------------------------|-------------------|------------------------|
--0--0-------0--0-------|-------------------|--0--0-------0--0-------|


  H.           Q        E  E  S S S S E  E  E  E     E  E  E  E  E  E  E  E   
---------------------|----------------------------|--------------------------|
---------------------|----------------------------|--------------------------|
---------------------|----------------------------|--------------------------|
---------------3\----|----------------------------|-----2--1-----1-----------|
---------------------|--0--0--0-0-0-0-1--0--0--0--|--L--------3-----3--2--3--|


  E  E  S S S S E  E  E  E     E  E  E  E  E  E  E  E   
----------------------------|--------------------------|
----------------------------|--------------------------|
----------------------------|--------------------------|
----------------------------|-----2--1-----1-----------|
--0--0--0-0-0-0-1--0--0--0--|--L--------3-----3--2--3--|


  E  E  S S S S E  E  E  E     E  E  E  E  E  E  E  E   
----------------------------|--------------------------|
----------------------------|--------------------------|
----------------------------|--------------------------|
----------------------------|-----2--1-----1-----------|
--0--0--0-0-0-0-1--0--0--0--|--L--------3-----3--2--3--|


  E  E  S S S S E  E  E  E     E  E  E  E  E  E  E  E   
----------------------------|--------------------------|
----------------------------|--------------------------|
----------------------------|--------------------------|
----------------------------|-----2--1-----1-----------|
--0--0--0-0-0-0-1--0--0--0--|--L--------3-----3--2--3--|


  E  E  S S S S E  E  E  E     E  E  E  E  E  E  E  E   
----------------------------|--------------------------|
----------------------------|--------------------------|
----------------------------|--------------------------|
----------------------------|-----2--1-----1-----------|
--0--0--0-0-0-0-1--0--0--0--|--L--------3-----3--2--3--|


  E  E  S S S S E  E  E  E     E  E  E  E  E  E  E  E   
----------------------------|--------------------------|
----------------------------|--------------------------|
----------------------------|--------------------------|
----------------------------|-----2--1-----1-----------|
--0--0--0-0-0-0-1--0--0--0--|--L--------3-----3--2--3--|


  E  E  S S S S E  E  E  E     E  E  E  E  E  E  E  E   
----------------------------|--------------------------|
----------------------------|--------------------------|
----------------------------|--------------------------|
----------------------------|-----2--1-----1-----------|
--0--0--0-0-0-0-1--0--0--0--|--L--------3-----3--2--3--|


  E  E  S S S S E  E  E  E     E  E  E  E  E  E  E  E   
----------------------------|--------------------------|
----------------------------|--------------------------|
----------------------------|--------------------------|
----------------------------|-----2--1-----1-----------|
--0--0--0-0-0-0-1--0--0--0--|--L--------3-----3--2--3--|


  E  E  S S S S E  E  E  E     E  E  E  E  E  E  E  E   
----------------------------|--------------------------|
----------------------------|--------------------------|
----------------------------|--------------------------|
----------------------------|-----2--1-----1-----------|
--0--0--0-0-0-0-1--0--0--0--|--L--------3-----3--2--3--|


  E  E  S S S S E  E  E  E     E  E  E  E  E  E  E  E   
----------------------------|--------------------------|
----------------------------|--------------------------|
----------------------------|--------------------------|
----------------------------|-----2--1-----1-----------|
--0--0--0-0-0-0-1--0--0--0--|--L--------3-----3--2--3--|


  E  E  S S S S E  E  E  E     E  E  E  E  E  E  E  E   
----------------------------|--------------------------|
----------------------------|--------------------------|
----------------------------|--------------------------|
----------------------------|-----2--1-----1-----------|
--0--0--0-0-0-0-1--0--0--0--|--L--------3-----3--2--3--|


  E  E  S S S S E  E  E  E     E  E  E  E  E  E  E  E   
----------------------------|--------------------------|
----------------------------|--------------------------|
----------------------------|--------------------------|
----------------------------|-----2--1-----1-----------|
--0--0--0-0-0-0-1--0--0--0--|--L--------3-----3--2--3--|


  E  E  S S S S E  E  E  E     E  E  E  E  E  E  E  E   
----------------------------|--------------------------|
----------------------------|--------------------------|
----------------------------|--------------------------|
----------------------------|-----2--1-----1-----------|
--0--0--0-0-0-0-1--0--0--0--|--L--------3-----3--2--3--|


  E  E  S S S S E  E  E  E     E  E  E  E  E  E  E  E     W                 
----------------------------|--------------------------|-------------------|
----------------------------|--------------------------|-------------------|
----------------------------|--------------------------|-------------------|
----------------------------|-----2--1-----1-----------|-------------------|
--0--0--0-0-0-0-1--0--0--0--|--L--------3-----3--2--3--|--0----------------|


  W                   W                   W                   W                 
-------------------|-------------------|-------------------|-------------------|
-------------------|-------------------|-------------------|-------------------|
-------------------|-------------------|-------------------|-------------------|
-------------------|-------------------|-------------------|-------------------|
--L----------------|--L----------------|--L----------------|--L----------------|


  W                   W                   W                  
-------------------|-------------------|-------------------||
-------------------|-------------------|-------------------||
-------------------|-------------------|-------------------||
-------------------|-------------------|-------------------||
--L----------------|--L----------------|--L----------------||

==========Never Enough==========

Lead Guitar

               PM PM   PM       PM PM      PM       PM    PM PM PM PM PM PM PM  
      E  E  E  S  S  S S  E  E  S  S     S S  E  E  S  E  S  S  S  S  S  S  S   
B ||----------------------------------|----------------------------------------|
F#||----------------------------------|----------------------------------------|
D ||----------------------------------|----------------------------------------|
A ||-----2----------------2-----------|-------2--------5-----------------------|
E ||--2--2-----2--2----2--2-----2--2--|----2--2-----5--5-----------------------|
B ||--0--0-----0--0----0--0-----0--0--|----0--0-----3--3--5--3--0--5--0--3--5--|


           PM PM   PM       PM PM      PM       PM    PM PM PM PM PM PM PM  
  E  E  E  S  S  S S  E  E  S  S     S S  E  E  S  E  S  S  S  S  S  S  S   
----------------------------------|----------------------------------------|
----------------------------------|----------------------------------------|
----------------------------------|----------------------------------------|
-----2----------------2-----------|-------2--------5-----------------------|
--2--2-----2--2----2--2-----2--2--|----2--2-----5--5-----------------------|
--0--0-----0--0----0--0-----0--0--|----0--0-----3--3--5--3--0--5--0--3--5--|


           PM PM   PM       PM PM      PM       PM    PM PM PM PM PM PM PM  
  E  E  E  S  S  S S  E  E  S  S     S S  E  E  S  E  S  S  S  S  S  S  S   
----------------------------------|----------------------------------------|
----------------------------------|----------------------------------------|
----------------------------------|----------------------------------------|
-----2----------------2-----------|-------2--------5-----------------------|
--2--2-----2--2----2--2-----2--2--|----2--2-----5--5-----------------------|
--0--0-----0--0----0--0-----0--0--|----0--0-----3--3--5--3--0--5--0--3--5--|


           PM PM   PM       PM PM      PM       PM    PM PM PM PM PM PM PM  
  E  E  E  S  S  S S  E  E  S  S     S S  E  E  S  E  S  S  S  S  S  S  S   
----------------------------------|----------------------------------------|
----------------------------------|----------------------------------------|
----------------------------------|----------------------------------------|
-----2----------------2-----------|-------2--------5-----------------------|
--2--2-----2--2----2--2-----2--2--|----2--2-----5--5-----------------------|
--0--0-----0--0----0--0-----0--0--|----0--0-----3--3--5--3--0--5--0--3--5--|


           PM PM   PM       PM PM      PM       PM    PM PM PM PM PM PM PM  
  E  E  E  S  S  S S  E  E  S  S     S S  E  E  S  E  S  S  S  S  S  S  S   
----------------------------------|----------------------------------------|
----------------------------------|----------------------------------------|
----------------------------------|----------------------------------------|
-----2----------------2-----------|-------2--------5-----------------------|
--2--2-----2--2----2--2-----2--2--|----2--2-----5--5-----------------------|
--0--0-----0--0----0--0-----0--0--|----0--0-----3--3--5--3--0--5--0--3--5--|


  E  E  E  E  H           E  E  E  E  H         
-----------------------|-----------------------|
-----------------------|-----------------------|
--5--L--L--5--L--------|--2--L--L--2--L--------|
--5--L--5--L--L--------|--2--L--2--L--L--------|
--3--3--L--L--L--------|--0--0--L--L--L--------|
-----------------------|-----------------------|


           PM PM   PM       PM PM      PM       PM    PM PM PM PM PM PM PM  
  E  E  E  S  S  S S  E  E  S  S     S S  E  E  S  E  S  S  S  S  S  S  S   
----------------------------------|----------------------------------------|
----------------------------------|----------------------------------------|
----------------------------------|----------------------------------------|
-----2----------------2-----------|-------2--------5-----------------------|
--2--2-----2--2----2--2-----2--2--|----2--2-----5--5-----------------------|
--0--0-----0--0----0--0-----0--0--|----0--0-----3--3--5--3--0--5--0--3--5--|


  E  E  E  E  H           E  E  E  E  H         
-----------------------|-----------------------|
-----------------------|-----------------------|
--5--L--L--5--L--------|--2--L--L--2--L--------|
--5--L--5--L--L--------|--2--L--2--L--L--------|
--3--3--L--L--L--------|--0--0--L--L--L--------|
-----------------------|-----------------------|


           PM PM   PM       PM PM      PM       PM    PM PM PM PM PM PM PM  
  E  E  E  S  S  S S  E  E  S  S     S S  E  E  S  E  S  S  S  S  S  S  S   
----------------------------------|----------------------------------------|
----------------------------------|----------------------------------------|
----------------------------------|----------------------------------------|
-----2----------------2-----------|-------2--------5-----------------------|
--2--2-----2--2----2--2-----2--2--|----2--2-----5--5-----------------------|
--0--0-----0--0----0--0-----0--0--|----0--0-----3--3--5--3--0--5--0--3--5--|


           PM PM   PM       PM PM      PM       PM    PM PM PM PM PM PM PM  
  E  E  E  S  S  S S  E  E  S  S     S S  E  E  S  E  S  S  S  S  S  S  S   
----------------------------------|----------------------------------------|
----------------------------------|----------------------------------------|
----------------------------------|----------------------------------------|
-----2----------------2-----------|-------2--------5-----------------------|
--2--2-----2--2----2--2-----2--2--|----2--2-----5--5-----------------------|
--0--0-----0--0----0--0-----0--0--|----0--0-----3--3--5--3--0--5--0--3--5--|


           PM PM   PM       PM PM      PM       PM    PM PM PM PM PM PM PM  
  E  E  E  S  S  S S  E  E  S  S     S S  E  E  S  E  S  S  S  S  S  S  S   
----------------------------------|----------------------------------------|
----------------------------------|----------------------------------------|
----------------------------------|----------------------------------------|
-----2----------------2-----------|-------2--------5-----------------------|
--2--2-----2--2----2--2-----2--2--|----2--2-----5--5-----------------------|
--0--0-----0--0----0--0-----0--0--|----0--0-----3--3--5--3--0--5--0--3--5--|


  E  E  E  E  H           E  E  E  E  H           W                 
-----------------------|-----------------------|-------------------|
-----------------------|-----------------------|-------------------|
--5--L--L--5--L--------|--2--L--L--2--L--------|-------------------|
--5--L--5--L--L--------|--2--L--2--L--L--------|-------------------|
--3--3--L--L--L--------|--0--0--L--L--L--------|-------------------|
-----------------------|-----------------------|-------------------|


  W                    H         E   Q     E     H         E   Q     E    
-------------------|------------15--17--------|-----------15--17---------|
-------------------|--17------------------17--|--L------------------17~--|
-------------------|--------------------------|--------------------------|
-------------------|--------------------------|--------------------------|
-------------------|--------------------------|--------------------------|
-------------------|--------------------------|--------------------------|


  W                   W                    H         E   Q     E   
-------------------|-------------------|------------15--17--------|
--L----------------|-------------------|--17------------------17--|
-------------------|-------------------|--------------------------|
-------------------|-------------------|--------------------------|
-------------------|-------------------|--------------------------|
-------------------|-------------------|--------------------------|


                                   PM PM   PM       PM PM  
  H         E   Q.        E  E  E  S  S  S S  E  E  S  S   
-----------15--17------|----------------------------------|
--L--------------------|----------------------------------|
-----------------------|----------------------------------|
-----------------------|-----2----------------2-----------|
-----------------------|--2--2-----2--2----2--2-----2--2--|
-----------------------|--0--0-----0--0----0--0-----0--0--|


    PM       PM    PM PM PM PM PM PM PM             PM PM   PM       PM PM  
  S S  E  E  S  E  S  S  S  S  S  S  S     E  E  E  S  S  S S  E  E  S  S   
----------------------------------------|----------------------------------|
----------------------------------------|----------------------------------|
----------------------------------------|----------------------------------|
-------2--------5-----------------------|-----2----------------2-----------|
----2--2-----5--5-----------------------|--2--2-----2--2----2--2-----2--2--|
----0--0-----3--3--5--3--0--5--0--3--5--|--0--0-----0--0----0--0-----0--0--|


    PM       PM    PM PM PM PM                 PM PM   PM       PM PM  
  S S  E  E  S  E  S  S  S  S  E.     E  E  E  S  S  S S  E  E  S  S   
-----------------------------------|----------------------------------|
-----------------------------------|----------------------------------|
-----------------------------------|----------------------------------|
-------2--------5------------------|-----2----------------2-----------|
----2--2-----5--5------------------|--2--2-----2--2----2--2-----2--2--|
----0--0-----3--3--5--3--0--5------|--0--0-----0--0----0--0-----0--0--|


    PM       PM    PM PM PM PM PM PM PM                          
  S S  E  E  S  E  S  S  S  S  S  S  S     E  E  E  E  H         
----------------------------------------|-----------------------|
----------------------------------------|-----------------------|
----------------------------------------|--5--L--L--5--L--------|
-------2--------5-----------------------|--5--L--5--L--L--------|
----2--2-----5--5-----------------------|--3--3--L--L--L--------|
----0--0-----3--3--5--3--0--5--0--3--5--|-----------------------|


                                   PM PM   PM       PM PM  
  E  E  E  E  H           E  E  E  S  S  S S  E  E  S  S   
-----------------------|----------------------------------|
-----------------------|----------------------------------|
--2--L--L--2--L--------|----------------------------------|
--2--L--2--L--L--------|-----2----------------2-----------|
--0--0--L--L--L--------|--2--2-----2--2----2--2-----2--2--|
-----------------------|--0--0-----0--0----0--0-----0--0--|


    PM       PM    PM PM PM PM PM PM PM                          
  S S  E  E  S  E  S  S  S  S  S  S  S     E  E  E  E  H         
----------------------------------------|-----------------------|
----------------------------------------|-----------------------|
----------------------------------------|--5--L--L--5--L--------|
-------2--------5-----------------------|--5--L--5--L--L--------|
----2--2-----5--5-----------------------|--3--3--L--L--L--------|
----0--0-----3--3--5--3--0--5--0--3--5--|-----------------------|


                                   PM PM   PM       PM PM  
  E  E  E  E  H           E  E  E  S  S  S S  E  E  S  S   
-----------------------|----------------------------------|
-----------------------|----------------------------------|
--2--L--L--2--L--------|----------------------------------|
--2--L--2--L--L--------|-----2----------------2-----------|
--0--0--L--L--L--------|--2--2-----2--2----2--2-----2--2--|
-----------------------|--0--0-----0--0----0--0-----0--0--|


    PM       PM    PM PM PM PM PM PM PM             PM PM   PM       PM PM  
  S S  E  E  S  E  S  S  S  S  S  S  S     E  E  E  S  S  S S  E  E  S  S   
----------------------------------------|----------------------------------|
----------------------------------------|----------------------------------|
----------------------------------------|----------------------------------|
-------2--------5-----------------------|-----2----------------2-----------|
----2--2-----5--5-----------------------|--2--2-----2--2----2--2-----2--2--|
----0--0-----3--3--5--3--0--5--0--3--5--|--0--0-----0--0----0--0-----0--0--|


    PM       PM    PM PM PM PM PM PM PM             PM PM   PM       PM PM  
  S S  E  E  S  E  S  S  S  S  S  S  S     E  E  E  S  S  S S  E  E  S  S   
----------------------------------------|----------------------------------|
----------------------------------------|----------------------------------|
----------------------------------------|----------------------------------|
-------2--------5-----------------------|-----2----------------2-----------|
----2--2-----5--5-----------------------|--2--2-----2--2----2--2-----2--2--|
----0--0-----3--3--5--3--0--5--0--3--5--|--0--0-----0--0----0--0-----0--0--|


    PM       PM    PM PM PM PM PM PM PM                          
  S S  E  E  S  E  S  S  S  S  S  S  S     E  E  E  E  H         
----------------------------------------|-----------------------|
----------------------------------------|-----------------------|
----------------------------------------|--5--L--L--5--L--------|
-------2--------5-----------------------|--5--L--5--L--L--------|
----2--2-----5--5-----------------------|--3--3--L--L--L--------|
----0--0-----3--3--5--3--0--5--0--3--5--|-----------------------|


  E  E  E  E  H           W                   W                 
-----------------------|-------------------|-------------------|
-----------------------|-------------------|-------------------|
--2--L--L--2--L--------|-------------------|-------------------|
--2--L--2--L--L--------|-------------------|-------------------|
--0--0--L--L--L--------|-------------------|-------------------|
-----------------------|-------------------|-------------------|


   H         E   Q     E     H         E   Q     E      W                 
------------15--17--------|-----------15--17---------|-------------------|
--17------------------17--|--L------------------17~--|--L----------------|
--------------------------|--------------------------|-------------------|
--------------------------|--------------------------|-------------------|
--------------------------|--------------------------|-------------------|
--------------------------|--------------------------|-------------------|


  W                    H         E   Q     E     H         E   Q.      
-------------------|------------15--17--------|-----------15--17------|
-------------------|--17------------------17--|--L--------------------|
-------------------|--------------------------|-----------------------|
-------------------|--------------------------|-----------------------|
-------------------|--------------------------|-----------------------|
-------------------|--------------------------|-----------------------|


  PM PM PM PM    PM PM   PM PM          PM PM PM PM    PM PM   PM PM        
  S  S  S  S  E  S  S  S S  E  E  E     S  S  S  S  E  S  S  S S  E  E  E   
-------------------------------------|-------------------------------------|
-------------------------------------|-------------------------------------|
-------------------------------9--9--|-------------------------------9--9--|
-------------------------------------|-------------------------------------|
--2--2--2--2-----2--2----2--2--7--7--|--2--2--2--2-----2--2----2--2--7--7--|
--0--0--0--0-----0--0----0--0--------|--0--0--0--0-----0--0----0--0--------|


  PM PM PM PM    PM PM   PM PM          PM PM PM PM    PM PM PM PM         
  S  S  S  S  E  S  S  S S  E  E  E     S  S  S  S  E  S  S  S  S  Q.      
-------------------------------------|------------------------------------|
-------------------------------------|------------------------------------|
-------------------------------9--9--|------------------------------------|
-------------------------------------|------------------------------------|
--2--2--2--2-----2--2----2--2--7--7--|--2--2--2--2-----2--2--2--2---------|
--0--0--0--0-----0--0----0--0--------|--0--0--0--0-----0--0--0--0---------|


  PM   PM   PM                               PM   PM   PM         
  Q    Q    Q    Q       W                   Q    Q    Q    Q     
----------------------|-------------------|----------------------|
----------------------|-------------------|----------------------|
----------------------|-------------------|----------------------|
----------------------|-------------------|----------------------|
--2----2----2---------|-------------------|--2----2----2---------|
--0----0----0---------|-------------------|--0----0----0---------|


                      PM   PM   PM                       PM PM  
  W                   Q    Q    H           H.           E  E   
-------------------|---------------------|---------------------|
-------------------|---------------------|---------------------|
-------------------|---------------------|---------------------|
-------------------|--5----5----5--------|--L------------5--5--|
-------------------|--3----3----3--------|--L------------3--3--|
-------------------|---------------------|---------------------|


  PM   PM   PM     PM       PM PM PM PM PM PM                              
  Q    Q    Q.     E     E  E  E  E  E  E  Q       Q    Q    E  E  E  E    
----------------------|-------------------------|-------------------------|
----------------------|-------------------------|---------------------5~--|
----------------------|-------------------------|------------4--5--7------|
--2----2----2------2--|--L--2--2--2--2--2--2----|-------------------------|
--0----0----0------0--|--L--0--0--0--0--0--0----|--7----7-----------------|
----------------------|-------------------------|-------------------------|


  E  E  E  Q     E  E  E     Q    Q    E  E  E  E    
--------------------------|-------------------------|
--L-----------------------|---------------------5~--|
-----7--5--7~----5--4-----|------------4--5--7------|
-----------------------4--|-------------------------|
--------------------------|--7----7-----------------|
--------------------------|-------------------------|


  E  E  E    Q     E  E  E     Q    Q    E  E  E  E    
----------------------------|-------------------------|
--L-------------------------|-------------------------|
-----7--5--5g7~----5--4-----|---------------------4~--|
-------------------------4--|------------4--5--7------|
----------------------------|--3----3-----------------|
----------------------------|-------------------------|


  E  E  E  Q     E  E  E     Q    Q    E  E  E  E      E  E  E  Q     E  Q      
--------------------------|-------------------------|--------------------------|
--------------------------|-------------------------|--------------------------|
--L-----------------------|---------------------2~--|--L-----------------------|
-----7--5--7~----5--4-----|------------2--4--5------|-----5--4--5~----4--2~----|
-----------------------3--|--0----0-----------------|--------------------------|
--------------------------|-------------------------|--------------------------|


  Q    Q    E  E  E  E      E  E  E  Q     E  E  E     Q    Q    E  E  E  E    
-------------------------|--------------------------|-------------------------|
---------------------5~--|--L-----------------------|---------------------5~--|
------------4--5--7------|-----7--5--7~----5--4-----|------------4--5--7------|
-------------------------|-----------------------4--|-------------------------|
--7----7-----------------|--------------------------|--7----7-----------------|
-------------------------|--------------------------|-------------------------|


  E  E  E  Q     E  E  E     Q    Q    E  E  E  E      E  E  E  Q     E  E  E   
--------------------------|-------------------------|--------------------------|
--L-----------------------|------------------5--8~--|--L-----------------------|
-----7--5--7~----5--4-----|------------5--7---------|-----9--7--9~----7--5-----|
-----------------------4--|--5----5-----------------|-----------------------5--|
--------------------------|-------------------------|--------------------------|
--------------------------|-------------------------|--------------------------|


  Q    Q    E  E  E  E      Q      H.               W                 
-------------------------|-------<>5~------------|-------------------|
------------------5--8~--|--L--------------------|-------------------|
------------5--7---------|-----------------------|-------------------|
--7----7-----------------|-----------------------|-------------------|
-------------------------|-----------------------|-------------------|
-------------------------|-----------------------|-------------------|


  W                    H         E   Q     E     H         E   Q     E    
-------------------|------------15--17--------|-----------15--17---------|
-------------------|--17------------------17--|--L------------------17~--|
-------------------|--------------------------|--------------------------|
-------------------|--------------------------|--------------------------|
-------------------|--------------------------|--------------------------|
-------------------|--------------------------|--------------------------|


  W                   W                    H         E   Q     E   
-------------------|-------------------|------------15--17--------|
--L----------------|-------------------|--17------------------17--|
-------------------|-------------------|--------------------------|
-------------------|-------------------|--------------------------|
-------------------|-------------------|--------------------------|
-------------------|-------------------|--------------------------|


  H         E   Q.        W                   W                 
-----------15--17------|-------------------|-------------------|
--L--------------------|-------------------|-------------------|
-----------------------|-------------------|-------------------|
-----------------------|-------------------|-------------------|
-----------------------|-------------------|-------------------|
-----------------------|-------------------|-------------------|


   H         E   Q     E     H         E   Q     E      W                 
------------15--17--------|-----------15--17---------|-------------------|
--17------------------17--|--L------------------17~--|--L----------------|
--------------------------|--------------------------|-------------------|
--------------------------|--------------------------|-------------------|
--------------------------|--------------------------|-------------------|
--------------------------|--------------------------|-------------------|


  W                    H         E   Q     E     H         E   Q.      
-------------------|------------15--17--------|-----------15--17------|
-------------------|--17------------------17--|--L--------------------|
-------------------|--------------------------|-----------------------|
-------------------|--------------------------|-----------------------|
-------------------|--------------------------|-----------------------|
-------------------|--------------------------|-----------------------|


  PM PM PM PM    PM PM   PM PM          PM PM PM PM    PM PM   PM PM        
  S  S  S  S  E  S  S  S S  E  E  E     S  S  S  S  E  S  S  S S  E  E  E   
-------------------------------------|-------------------------------------|
-------------------------------------|-------------------------------------|
-------------------------------9--9--|-------------------------------9--9--|
-------------------------------------|-------------------------------------|
--2--2--2--2-----2--2----2--2--7--7--|--2--2--2--2-----2--2----2--2--7--7--|
--0--0--0--0-----0--0----0--0--------|--0--0--0--0-----0--0----0--0--------|


  PM PM PM PM    PM PM   PM PM          PM PM PM PM    PM PM PM PM          
  S  S  S  S  E  S  S  S S  E  E  E     S  S  S  S  E  S  S  S  S  Q.       
-------------------------------------|------------------------------------||
-------------------------------------|------------------------------------||
-------------------------------9--9--|------------------------------------||
-------------------------------------|------------------------------------||
--2--2--2--2-----2--2----2--2--7--7--|--2--2--2--2-----2--2--2--2---------||
--0--0--0--0-----0--0----0--0--------|--0--0--0--0-----0--0--0--0---------||

Rhythm Guitar

               PM PM   PM       PM PM      PM       PM    PM PM PM PM PM PM PM  
      E  E  E  S  S  S S  E  E  S  S     S S  E  E  S  E  S  S  S  S  S  S  S   
B ||----------------------------------|----------------------------------------|
F#||----------------------------------|----------------------------------------|
D ||----------------------------------|----------------------------------------|
A ||-----2----------------2-----------|-------2--------5-----------------------|
E ||--2--2-----2--2----2--2-----2--2--|----2--2-----5--5-----------------------|
B ||--0--0-----0--0----0--0-----0--0--|----0--0-----3--3--5--3--0--5--0--3--5--|


           PM PM   PM       PM PM      PM       PM    PM PM PM PM PM PM PM  
  E  E  E  S  S  S S  E  E  S  S     S S  E  E  S  E  S  S  S  S  S  S  S   
----------------------------------|----------------------------------------|
----------------------------------|----------------------------------------|
----------------------------------|----------------------------------------|
-----2----------------2-----------|-------2--------5-----------------------|
--2--2-----2--2----2--2-----2--2--|----2--2-----5--5-----------------------|
--0--0-----0--0----0--0-----0--0--|----0--0-----3--3--5--3--0--5--0--3--5--|


           PM PM   PM       PM PM      PM       PM    PM PM PM PM PM PM PM  
  E  E  E  S  S  S S  E  E  S  S     S S  E  E  S  E  S  S  S  S  S  S  S   
----------------------------------|----------------------------------------|
----------------------------------|----------------------------------------|
----------------------------------|----------------------------------------|
-----2----------------2-----------|-------2--------5-----------------------|
--2--2-----2--2----2--2-----2--2--|----2--2-----5--5-----------------------|
--0--0-----0--0----0--0-----0--0--|----0--0-----3--3--5--3--0--5--0--3--5--|


           PM PM   PM       PM PM      PM       PM    PM PM PM PM PM PM PM  
  E  E  E  S  S  S S  E  E  S  S     S S  E  E  S  E  S  S  S  S  S  S  S   
----------------------------------|----------------------------------------|
----------------------------------|----------------------------------------|
----------------------------------|----------------------------------------|
-----2----------------2-----------|-------2--------5-----------------------|
--2--2-----2--2----2--2-----2--2--|----2--2-----5--5-----------------------|
--0--0-----0--0----0--0-----0--0--|----0--0-----3--3--5--3--0--5--0--3--5--|


           PM PM   PM       PM PM      PM       PM    PM PM PM PM PM PM PM  
  E  E  E  S  S  S S  E  E  S  S     S S  E  E  S  E  S  S  S  S  S  S  S   
----------------------------------|----------------------------------------|
----------------------------------|----------------------------------------|
----------------------------------|----------------------------------------|
-----2----------------2-----------|-------2--------5-----------------------|
--2--2-----2--2----2--2-----2--2--|----2--2-----5--5-----------------------|
--0--0-----0--0----0--0-----0--0--|----0--0-----3--3--5--3--0--5--0--3--5--|


  E  E  E  E  H           E  E  E  E  H         
-----------------------|-----------------------|
-----------------------|-----------------------|
--5--L--L--5--L--------|--2--L--L--2--L--------|
--5--L--5--L--L--------|--2--L--2--L--L--------|
--3--3--L--L--L--------|--0--0--L--L--L--------|
-----------------------|-----------------------|


           PM PM   PM       PM PM      PM       PM    PM PM PM PM PM PM PM  
  E  E  E  S  S  S S  E  E  S  S     S S  E  E  S  E  S  S  S  S  S  S  S   
----------------------------------|----------------------------------------|
----------------------------------|----------------------------------------|
----------------------------------|----------------------------------------|
-----2----------------2-----------|-------2--------5-----------------------|
--2--2-----2--2----2--2-----2--2--|----2--2-----5--5-----------------------|
--0--0-----0--0----0--0-----0--0--|----0--0-----3--3--5--3--0--5--0--3--5--|


  E  E  E  E  H           E  E  E  E  H         
-----------------------|-----------------------|
-----------------------|-----------------------|
--5--L--L--5--L--------|--2--L--L--2--L--------|
--5--L--5--L--L--------|--2--L--2--L--L--------|
--3--3--L--L--L--------|--0--0--L--L--L--------|
-----------------------|-----------------------|


           PM PM   PM       PM PM      PM       PM    PM PM PM PM PM PM PM  
  E  E  E  S  S  S S  E  E  S  S     S S  E  E  S  E  S  S  S  S  S  S  S   
----------------------------------|----------------------------------------|
----------------------------------|----------------------------------------|
----------------------------------|----------------------------------------|
-----2----------------2-----------|-------2--------5-----------------------|
--2--2-----2--2----2--2-----2--2--|----2--2-----5--5-----------------------|
--0--0-----0--0----0--0-----0--0--|----0--0-----3--3--5--3--0--5--0--3--5--|


           PM PM   PM       PM PM      PM       PM    PM PM PM PM PM PM PM  
  E  E  E  S  S  S S  E  E  S  S     S S  E  E  S  E  S  S  S  S  S  S  S   
----------------------------------|----------------------------------------|
----------------------------------|----------------------------------------|
----------------------------------|----------------------------------------|
-----2----------------2-----------|-------2--------5-----------------------|
--2--2-----2--2----2--2-----2--2--|----2--2-----5--5-----------------------|
--0--0-----0--0----0--0-----0--0--|----0--0-----3--3--5--3--0--5--0--3--5--|


           PM PM   PM       PM PM      PM       PM    PM PM PM PM PM PM PM  
  E  E  E  S  S  S S  E  E  S  S     S S  E  E  S  E  S  S  S  S  S  S  S   
----------------------------------|----------------------------------------|
----------------------------------|----------------------------------------|
----------------------------------|----------------------------------------|
-----2----------------2-----------|-------2--------5-----------------------|
--2--2-----2--2----2--2-----2--2--|----2--2-----5--5-----------------------|
--0--0-----0--0----0--0-----0--0--|----0--0-----3--3--5--3--0--5--0--3--5--|


                                                                       PM PM  
  E  E  E  E  H           E  E  E  E  H           Q    E   E  E  E  E  S  S   
-----------------------|-----------------------|-----------------------------|
-----------------------|-----------------------|-----------------------------|
--5--L--L--5--L--------|--2--L--L--2--L--------|-----------------------------|
--5--L--5--L--L--------|--2--L--2--L--L--------|--5----L\--2-----2-----------|
--3--3--L--L--L--------|--0--0--L--L--L--------|--5----L\--2-----2-----2--2--|
-----------------------|-----------------------|--3----L\--0-----0-----0--0--|


                       PM PM                                                  
  Q    E   E  E  E  E  S  S     E  E  E  E  H           E  E  E  E  H         
-----------------------------|-----------------------|-----------------------|
-----------------------------|-----------------------|-----------------------|
-----------------------------|--5--L--L--5--L--------|--2--L--L--2--L--------|
--5----L\--2-----2-----------|--5--L--5--L--L--------|--2--L--2--L--L--------|
--5----L\--2-----2-----2--2--|--3--3--L--L--L--------|--0--0--L--L--L--------|
--3----L\--0-----0-----0--0--|-----------------------|-----------------------|


                       PM PM                         PM PM  
  Q    E   E  E  E  E  S  S     Q    E   E  E  E  E  S  S   
-----------------------------|-----------------------------|
-----------------------------|-----------------------------|
-----------------------------|-----------------------------|
--5----L\--2-----2-----------|--5----L\--2-----2-----------|
--5----L\--2-----2-----2--2--|--5----L\--2-----2-----2--2--|
--3----L\--0-----0-----0--0--|--3----L\--0-----0-----0--0--|


  E  E  E  E  H           E  E  E  E  H         
-----------------------|-----------------------|
-----------------------|-----------------------|
--5--L--L--5--L--------|--2--L--L--2--L--------|
--5--L--5--L--L--------|--2--L--2--L--L--------|
--3--3--L--L--L--------|--0--0--L--L--L--------|
-----------------------|-----------------------|


           PM PM   PM       PM PM      PM       PM    PM PM PM PM PM PM PM  
  E  E  E  S  S  S S  E  E  S  S     S S  E  E  S  E  S  S  S  S  S  S  S   
----------------------------------|----------------------------------------|
----------------------------------|----------------------------------------|
----------------------------------|----------------------------------------|
-----2----------------2-----------|-------2--------5-----------------------|
--2--2-----2--2----2--2-----2--2--|----2--2-----5--5-----------------------|
--0--0-----0--0----0--0-----0--0--|----0--0-----3--3--5--3--0--5--0--3--5--|


           PM PM   PM       PM PM      PM       PM    PM PM PM PM      
  E  E  E  S  S  S S  E  E  S  S     S S  E  E  S  E  S  S  S  S  E.   
----------------------------------|-----------------------------------|
----------------------------------|-----------------------------------|
----------------------------------|-----------------------------------|
-----2----------------2-----------|-------2--------5------------------|
--2--2-----2--2----2--2-----2--2--|----2--2-----5--5------------------|
--0--0-----0--0----0--0-----0--0--|----0--0-----3--3--5--3--0--5------|


           PM PM   PM       PM PM      PM       PM    PM PM PM PM PM PM PM  
  E  E  E  S  S  S S  E  E  S  S     S S  E  E  S  E  S  S  S  S  S  S  S   
----------------------------------|----------------------------------------|
----------------------------------|----------------------------------------|
----------------------------------|----------------------------------------|
-----2----------------2-----------|-------2--------5-----------------------|
--2--2-----2--2----2--2-----2--2--|----2--2-----5--5-----------------------|
--0--0-----0--0----0--0-----0--0--|----0--0-----3--3--5--3--0--5--0--3--5--|


  E  E  E  E  H           E  E  E  E  H         
-----------------------|-----------------------|
-----------------------|-----------------------|
--5--L--L--5--L--------|--2--L--L--2--L--------|
--5--L--5--L--L--------|--2--L--2--L--L--------|
--3--3--L--L--L--------|--0--0--L--L--L--------|
-----------------------|-----------------------|


           PM PM   PM       PM PM      PM       PM    PM PM PM PM PM PM PM  
  E  E  E  S  S  S S  E  E  S  S     S S  E  E  S  E  S  S  S  S  S  S  S   
----------------------------------|----------------------------------------|
----------------------------------|----------------------------------------|
----------------------------------|----------------------------------------|
-----2----------------2-----------|-------2--------5-----------------------|
--2--2-----2--2----2--2-----2--2--|----2--2-----5--5-----------------------|
--0--0-----0--0----0--0-----0--0--|----0--0-----3--3--5--3--0--5--0--3--5--|


  E  E  E  E  H           E  E  E  E  H         
-----------------------|-----------------------|
-----------------------|-----------------------|
--5--L--L--5--L--------|--2--L--L--2--L--------|
--5--L--5--L--L--------|--2--L--2--L--L--------|
--3--3--L--L--L--------|--0--0--L--L--L--------|
-----------------------|-----------------------|


           PM PM   PM       PM PM      PM       PM    PM PM PM PM PM PM PM  
  E  E  E  S  S  S S  E  E  S  S     S S  E  E  S  E  S  S  S  S  S  S  S   
----------------------------------|----------------------------------------|
----------------------------------|----------------------------------------|
----------------------------------|----------------------------------------|
-----2----------------2-----------|-------2--------5-----------------------|
--2--2-----2--2----2--2-----2--2--|----2--2-----5--5-----------------------|
--0--0-----0--0----0--0-----0--0--|----0--0-----3--3--5--3--0--5--0--3--5--|


           PM PM   PM       PM PM      PM       PM    PM PM PM PM PM PM PM  
  E  E  E  S  S  S S  E  E  S  S     S S  E  E  S  E  S  S  S  S  S  S  S   
----------------------------------|----------------------------------------|
----------------------------------|----------------------------------------|
----------------------------------|----------------------------------------|
-----2----------------2-----------|-------2--------5-----------------------|
--2--2-----2--2----2--2-----2--2--|----2--2-----5--5-----------------------|
--0--0-----0--0----0--0-----0--0--|----0--0-----3--3--5--3--0--5--0--3--5--|


           PM PM   PM       PM PM      PM       PM    PM PM PM PM PM PM PM  
  E  E  E  S  S  S S  E  E  S  S     S S  E  E  S  E  S  S  S  S  S  S  S   
----------------------------------|----------------------------------------|
----------------------------------|----------------------------------------|
----------------------------------|----------------------------------------|
-----2----------------2-----------|-------2--------5-----------------------|
--2--2-----2--2----2--2-----2--2--|----2--2-----5--5-----------------------|
--0--0-----0--0----0--0-----0--0--|----0--0-----3--3--5--3--0--5--0--3--5--|


                                                                       PM PM  
  E  E  E  E  H           E  E  E  E  H           Q    E   E  E  E  E  S  S   
-----------------------|-----------------------|-----------------------------|
-----------------------|-----------------------|-----------------------------|
--5--L--L--5--L--------|--2--L--L--2--L--------|-----------------------------|
--5--L--5--L--L--------|--2--L--2--L--L--------|--5----L\--2-----2-----------|
--3--3--L--L--L--------|--0--0--L--L--L--------|--5----L\--2-----2-----2--2--|
-----------------------|-----------------------|--3----L\--0-----0-----0--0--|


                       PM PM                                                  
  Q    E   E  E  E  E  S  S     E  E  E  E  H           E  E  E  E  H         
-----------------------------|-----------------------|-----------------------|
-----------------------------|-----------------------|-----------------------|
-----------------------------|--5--L--L--5--L--------|--2--L--L--2--L--------|
--5----L\--2-----2-----------|--5--L--5--L--L--------|--2--L--2--L--L--------|
--5----L\--2-----2-----2--2--|--3--3--L--L--L--------|--0--0--L--L--L--------|
--3----L\--0-----0-----0--0--|-----------------------|-----------------------|


                       PM PM                         PM PM  
  Q    E   E  E  E  E  S  S     Q    E   E  E  E  E  S  S   
-----------------------------|-----------------------------|
-----------------------------|-----------------------------|
-----------------------------|-----------------------------|
--5----L\--2-----2-----------|--5----L\--2-----2-----------|
--5----L\--2-----2-----2--2--|--5----L\--2-----2-----2--2--|
--3----L\--0-----0-----0--0--|--3----L\--0-----0-----0--0--|


  E  E  E  E  H           E  E  E  E  H         
-----------------------|-----------------------|
-----------------------|-----------------------|
--5--L--L--5--L--------|--2--L--L--2--L--------|
--5--L--5--L--L--------|--2--L--2--L--L--------|
--3--3--L--L--L--------|--0--0--L--L--L--------|
-----------------------|-----------------------|


  PM PM PM PM    PM PM   PM PM          PM PM PM PM    PM PM   PM PM        
  S  S  S  S  E  S  S  S S  E  E  E     S  S  S  S  E  S  S  S S  E  E  E   
-------------------------------------|-------------------------------------|
-------------------------------------|-------------------------------------|
-------------------------------9--9--|-------------------------------9--9--|
-------------------------------------|-------------------------------------|
--2--2--2--2-----2--2----2--2--7--7--|--2--2--2--2-----2--2----2--2--7--7--|
--0--0--0--0-----0--0----0--0--------|--0--0--0--0-----0--0----0--0--------|


  PM PM PM PM    PM PM   PM PM          PM PM PM PM    PM PM PM PM         
  S  S  S  S  E  S  S  S S  E  E  E     S  S  S  S  E  S  S  S  S  Q.      
-------------------------------------|------------------------------------|
-------------------------------------|------------------------------------|
-------------------------------9--9--|------------------------------------|
-------------------------------------|------------------------------------|
--2--2--2--2-----2--2----2--2--7--7--|--2--2--2--2-----2--2--2--2---------|
--0--0--0--0-----0--0----0--0--------|--0--0--0--0-----0--0--0--0---------|


  PM   PM   PM                               PM   PM   PM         
  Q    Q    Q    Q       W                   Q    Q    Q    Q     
----------------------|-------------------|----------------------|
----------------------|-------------------|----------------------|
----------------------|-------------------|----------------------|
----------------------|-------------------|----------------------|
--2----2----2---------|-------------------|--2----2----2---------|
--0----0----0---------|-------------------|--0----0----0---------|


                      PM   PM   PM                       PM PM  
  W                   Q    Q    H           H.           E  E   
-------------------|---------------------|---------------------|
-------------------|---------------------|---------------------|
-------------------|---------------------|---------------------|
-------------------|--5----5----5--------|--L------------5--5--|
-------------------|--3----3----3--------|--L------------3--3--|
-------------------|---------------------|---------------------|


  PM   PM   PM     PM       PM PM PM PM PM PM      PM   PM   PM         
  Q    Q    Q.     E     E  E  E  E  E  E  Q       Q    Q    Q    Q     
----------------------|-------------------------|----------------------|
----------------------|-------------------------|----------------------|
----------------------|-------------------------|----------------------|
--2----2----2------2--|--L--2--2--2--2--2--2----|----------------------|
--0----0----0------0--|--L--0--0--0--0--0--0----|--2----2----2---------|
----------------------|-------------------------|--0----0----0---------|


                      PM   PM   PM                             
  W                   Q    Q    Q    Q       W                 
-------------------|----------------------|-------------------|
-------------------|----------------------|-------------------|
-------------------|----------------------|-------------------|
-------------------|----------------------|-------------------|
-------------------|--2----2----2---------|-------------------|
-------------------|--0----0----0---------|-------------------|


  PM   PM   PM                       PM PM    PM   PM   PM     PM  
  Q    Q    H           H.           E  E     Q    Q    Q.     E   
---------------------|---------------------|----------------------|
---------------------|---------------------|----------------------|
---------------------|---------------------|----------------------|
--5----5----5--------|--L------------5--5--|--2----2----2------2--|
--3----3----3--------|--L------------3--3--|--0----0----0------0--|
---------------------|---------------------|----------------------|


     PM PM PM PM PM PM      PM   PM   PM                             
  E  E  E  E  E  E  Q       Q    Q    Q    Q       W                 
-------------------------|----------------------|-------------------|
-------------------------|----------------------|-------------------|
-------------------------|----------------------|-------------------|
--L--2--2--2--2--2--2----|----------------------|-------------------|
--L--0--0--0--0--0--0----|--2----2----2---------|-------------------|
-------------------------|--0----0----0---------|-------------------|


  PM   PM   PM                               PM   PM   PM        
  Q    Q    Q    Q       W                   Q    Q    H         
----------------------|-------------------|---------------------|
----------------------|-------------------|---------------------|
----------------------|-------------------|---------------------|
----------------------|-------------------|--5----5----5--------|
--2----2----2---------|-------------------|--3----3----3--------|
--0----0----0---------|-------------------|---------------------|


               PM PM    PM   PM   PM     PM       PM PM PM PM PM PM    
  H.           E  E     Q    Q    Q.     E     E  E  E  E  E  E  Q     
---------------------|----------------------|-------------------------|
---------------------|----------------------|-------------------------|
---------------------|----------------------|-------------------------|
--L------------5--5--|--2----2----2------2--|--L--2--2--2--2--2--2----|
--L------------3--3--|--0----0----0------0--|--L--0--0--0--0--0--0----|
---------------------|----------------------|-------------------------|


  W                   W                   E  E  E  E  H         
-------------------|-------------------|-----------------------|
-------------------|-------------------|-----------------------|
-------------------|-------------------|--5--L--L--5--L--------|
-------------------|-------------------|--5--L--5--L--L--------|
-------------------|-------------------|--3--3--L--L--L--------|
-------------------|-------------------|-----------------------|


                                               PM PM  
  E  E  E  E  H           Q    E   E  E  E  E  S  S   
-----------------------|-----------------------------|
-----------------------|-----------------------------|
--2--L--L--2--L--------|-----------------------------|
--2--L--2--L--L--------|--5----L\--2-----2-----------|
--0--0--L--L--L--------|--5----L\--2-----2-----2--2--|
-----------------------|--3----L\--0-----0-----0--0--|


                       PM PM                                                  
  Q    E   E  E  E  E  S  S     E  E  E  E  H           E  E  E  E  H         
-----------------------------|-----------------------|-----------------------|
-----------------------------|-----------------------|-----------------------|
-----------------------------|--5--L--L--5--L--------|--2--L--L--2--L--------|
--5----L\--2-----2-----------|--5--L--5--L--L--------|--2--L--2--L--L--------|
--5----L\--2-----2-----2--2--|--3--3--L--L--L--------|--0--0--L--L--L--------|
--3----L\--0-----0-----0--0--|-----------------------|-----------------------|


                       PM PM                         PM PM  
  Q    E   E  E  E  E  S  S     Q    E   E  E  E  E  S  S   
-----------------------------|-----------------------------|
-----------------------------|-----------------------------|
-----------------------------|-----------------------------|
--5----L\--2-----2-----------|--5----L\--2-----2-----------|
--5----L\--2-----2-----2--2--|--5----L\--2-----2-----2--2--|
--3----L\--0-----0-----0--0--|--3----L\--0-----0-----0--0--|


                                                                       PM PM  
  E  E  E  E  H           E  E  E  E  H           Q    E   E  E  E  E  S  S   
-----------------------|-----------------------|-----------------------------|
-----------------------|-----------------------|-----------------------------|
--5--L--L--5--L--------|--2--L--L--2--L--------|-----------------------------|
--5--L--5--L--L--------|--2--L--2--L--L--------|--5----L\--2-----2-----------|
--3--3--L--L--L--------|--0--0--L--L--L--------|--5----L\--2-----2-----2--2--|
-----------------------|-----------------------|--3----L\--0-----0-----0--0--|


                       PM PM                                                  
  Q    E   E  E  E  E  S  S     E  E  E  E  H           E  E  E  E  H         
-----------------------------|-----------------------|-----------------------|
-----------------------------|-----------------------|-----------------------|
-----------------------------|--5--L--L--5--L--------|--2--L--L--2--L--------|
--5----L\--2-----2-----------|--5--L--5--L--L--------|--2--L--2--L--L--------|
--5----L\--2-----2-----2--2--|--3--3--L--L--L--------|--0--0--L--L--L--------|
--3----L\--0-----0-----0--0--|-----------------------|-----------------------|


  PM PM PM PM    PM PM   PM PM          PM PM PM PM    PM PM   PM PM        
  S  S  S  S  E  S  S  S S  E  E  E     S  S  S  S  E  S  S  S S  E  E  E   
-------------------------------------|-------------------------------------|
-------------------------------------|-------------------------------------|
-------------------------------9--9--|-------------------------------9--9--|
-------------------------------------|-------------------------------------|
--2--2--2--2-----2--2----2--2--7--7--|--2--2--2--2-----2--2----2--2--7--7--|
--0--0--0--0-----0--0----0--0--------|--0--0--0--0-----0--0----0--0--------|


  PM PM PM PM    PM PM   PM PM          PM PM PM PM    PM PM PM PM          
  S  S  S  S  E  S  S  S S  E  E  E     S  S  S  S  E  S  S  S  S  Q.       
-------------------------------------|------------------------------------||
-------------------------------------|------------------------------------||
-------------------------------9--9--|------------------------------------||
-------------------------------------|------------------------------------||
--2--2--2--2-----2--2----2--2--7--7--|--2--2--2--2-----2--2--2--2---------||
--0--0--0--0-----0--0----0--0--------|--0--0--0--0-----0--0--0--0---------||

Bass Guitar

     E  E  E  S S S S E  E  S S    S S E  E  S E  S S S S S S S  
G||-----------------------------|-------------------------------|
D||-----------------------------|-------------------------------|
A||-----------------------------|-------------------------------|
E||-----------------------------|-------------------------------|
B||--0--0-----0-0---0-0-----0-0-|----0-0-----3-3--5-3-0-5-0-3-5-|


  E  E  E  S S S S E  E  S S    S S E  E  S E  S S S S S S S  
-----------------------------|-------------------------------|
-----------------------------|-------------------------------|
-----------------------------|-------------------------------|
-----------------------------|-------------------------------|
--0--0-----0-0---0-0-----0-0-|----0-0-----3-3--5-3-0-5-0-3-5-|


  E  E  E  S S S S E  E  S S    S S E  E  S E  S S S S S S S  
-----------------------------|-------------------------------|
-----------------------------|-------------------------------|
-----------------------------|-------------------------------|
-----------------------------|-------------------------------|
--0--0-----0-0---0-0-----0-0-|----0-0-----3-3--5-3-0-5-0-3-5-|


  E  E  E  S S S S E  E  S S    S S E  E  S E  S S S S S S S  
-----------------------------|-------------------------------|
-----------------------------|-------------------------------|
-----------------------------|-------------------------------|
-----------------------------|-------------------------------|
--0--0-----0-0---0-0-----0-0-|----0-0-----3-3--5-3-0-5-0-3-5-|


  E  E  E  S S S S E  E  S S    S S E  E  S E  S S S S S S S  
-----------------------------|-------------------------------|
-----------------------------|-------------------------------|
-----------------------------|-------------------------------|
-----------------------------|-------------------------------|
--0--0-----0-0---0-0-----0-0-|----0-0-----3-3--5-3-0-5-0-3-5-|


  W                   W                   E  E  E  S S S S E  E  S S  
-------------------|-------------------|-----------------------------|
-------------------|-------------------|-----------------------------|
-------------------|-------------------|-----------------------------|
--3----------------|--0----------------|-----------------------------|
-------------------|-------------------|--0--0-----0-0---0-0-----0-0-|


  S S E  E  S E  S S S S S S S    W                   W                 
-------------------------------|-------------------|-------------------|
-------------------------------|-------------------|-------------------|
-------------------------------|-------------------|-------------------|
-------------------------------|--3----------------|--0----------------|
----0-0-----3-3--5-3-0-5-0-3-5-|-------------------|-------------------|


  E  E  E  S S S S E  E  S S    S S E  E  S E  S S S S S S S  
-----------------------------|-------------------------------|
-----------------------------|-------------------------------|
-----------------------------|-------------------------------|
-----------------------------|-------------------------------|
--0--0-----0-0---0-0-----0-0-|----0-0-----3-3--5-3-0-5-0-3-5-|


  E  E  E  S S S S E  E  S S    S S E  E  S E  S S S S S S S  
-----------------------------|-------------------------------|
-----------------------------|-------------------------------|
-----------------------------|-------------------------------|
-----------------------------|-------------------------------|
--0--0-----0-0---0-0-----0-0-|----0-0-----3-3--5-3-0-5-0-3-5-|


  E  E  E  S S S S E  E  S S    S S E  E  S E  S S S S S S S  
-----------------------------|-------------------------------|
-----------------------------|-------------------------------|
-----------------------------|-------------------------------|
-----------------------------|-------------------------------|
--0--0-----0-0---0-0-----0-0-|----0-0-----3-3--5-3-0-5-0-3-5-|


  W                   W                   Q    E   E  E  E  E  S S  
-------------------|-------------------|---------------------------|
-------------------|-------------------|---------------------------|
-------------------|-------------------|---------------------------|
--3----------------|--0----------------|---------------------------|
-------------------|-------------------|--3----L\--0-----0-----0-0-|


  Q    E   E  E  E  E  S S    W                   W                 
---------------------------|-------------------|-------------------|
---------------------------|-------------------|-------------------|
---------------------------|-------------------|-------------------|
---------------------------|--3----------------|--0----------------|
--3----L\--0-----0-----0-0-|-------------------|-------------------|


  Q    E   E  E  E  E  S S    Q    E   E  E  E  E  S S    W                 
---------------------------|---------------------------|-------------------|
---------------------------|---------------------------|-------------------|
---------------------------|---------------------------|-------------------|
---------------------------|---------------------------|--3----------------|
--3----L\--0-----0-----0-0-|--3----L\--0-----0-----0-0-|-------------------|


  W                   E  E  E  S S S S E  E  S S  
-------------------|-----------------------------|
-------------------|-----------------------------|
-------------------|-----------------------------|
--0----------------|-----------------------------|
-------------------|--0--0-----0-0---0-0-----0-0-|


  S S E  E  S E  S S S S S S S    E  E  E  S S S S E  E  S S  
-------------------------------|-----------------------------|
-------------------------------|-----------------------------|
-------------------------------|-----------------------------|
-------------------------------|-----------------------------|
----0-0-----3-3--5-3-0-5-0-3-5-|--0--0-----0-0---0-0-----0-0-|


  S S E  E  S E  S S S S E.     E  E  E  S S S S E  E  S S  
-----------------------------|-----------------------------|
-----------------------------|-----------------------------|
-----------------------------|-----------------------------|
-----------------------------|-----------------------------|
----0-0-----3-3--5-3-0-5-----|--0--0-----0-0---0-0-----0-0-|


  S S E  E  S E  S S S S S S S    W                   W                 
-------------------------------|-------------------|-------------------|
-------------------------------|-------------------|-------------------|
-------------------------------|-------------------|-------------------|
-------------------------------|--3----------------|--0----------------|
----0-0-----3-3--5-3-0-5-0-3-5-|-------------------|-------------------|


  E  E  E  S S S S E  E  S S    S S E  E  S E  S S S S S S S  
-----------------------------|-------------------------------|
-----------------------------|-------------------------------|
-----------------------------|-------------------------------|
-----------------------------|-------------------------------|
--0--0-----0-0---0-0-----0-0-|----0-0-----3-3--5-3-0-5-0-3-5-|


  W                   W                   E  E  E  S S S S E  E  S S  
-------------------|-------------------|-----------------------------|
-------------------|-------------------|-----------------------------|
-------------------|-------------------|-----------------------------|
--3----------------|--0----------------|-----------------------------|
-------------------|-------------------|--0--0-----0-0---0-0-----0-0-|


  S S E  E  S E  S S S S S S S    E  E  E  S S S S E  E  S S  
-------------------------------|-----------------------------|
-------------------------------|-----------------------------|
-------------------------------|-----------------------------|
-------------------------------|-----------------------------|
----0-0-----3-3--5-3-0-5-0-3-5-|--0--0-----0-0---0-0-----0-0-|


  S S E  E  S E  S S S S S S S    E  E  E  S S S S E  E  S S  
-------------------------------|-----------------------------|
-------------------------------|-----------------------------|
-------------------------------|-----------------------------|
-------------------------------|-----------------------------|
----0-0-----3-3--5-3-0-5-0-3-5-|--0--0-----0-0---0-0-----0-0-|


  S S E  E  S E  S S S S S S S    W                   W                 
-------------------------------|-------------------|-------------------|
-------------------------------|-------------------|-------------------|
-------------------------------|-------------------|-------------------|
-------------------------------|--3----------------|--0----------------|
----0-0-----3-3--5-3-0-5-0-3-5-|-------------------|-------------------|


  Q    E   E  E  E  E  S S    Q    E   E  E  E  E  S S    W                 
---------------------------|---------------------------|-------------------|
---------------------------|---------------------------|-------------------|
---------------------------|---------------------------|-------------------|
---------------------------|---------------------------|--3----------------|
--3----L\--0-----0-----0-0-|--3----L\--0-----0-----0-0-|-------------------|


  W                   Q    E   E  E  E  E  S S    Q    E   E  E  E  E  S S  
-------------------|---------------------------|---------------------------|
-------------------|---------------------------|---------------------------|
-------------------|---------------------------|---------------------------|
--0----------------|---------------------------|---------------------------|
-------------------|--3----L\--0-----0-----0-0-|--3----L\--0-----0-----0-0-|


  W                   W                   S S S S E  S S S S E  Q     
-------------------|-------------------|-----------------------------|
-------------------|-------------------|-----------------------------|
-------------------|-------------------|-----------------------------|
--3----------------|--0----------------|-----------------------------|
-------------------|-------------------|--0-0-0-0----0-0---0-0-------|


  S S S S E  S S S S E  Q       S S S S E  S S S S E  Q     
-----------------------------|-----------------------------|
-----------------------------|-----------------------------|
-----------------------------|-----------------------------|
-----------------------------|-----------------------------|
--0-0-0-0----0-0---0-0-------|--0-0-0-0----0-0---0-0-------|


  S S S S E  S S S S Q.        Q    Q    Q    Q       W                 
----------------------------|----------------------|-------------------|
----------------------------|----------------------|-------------------|
----------------------------|----------------------|-------------------|
----------------------------|----------------------|-------------------|
--0-0-0-0----0-0-0-0--------|--0----0----0---------|-------------------|


  Q    Q    Q    Q       W                   Q    Q    H         
----------------------|-------------------|---------------------|
----------------------|-------------------|---------------------|
----------------------|-------------------|---------------------|
----------------------|-------------------|--3----3----3--------|
--0----0----0---------|-------------------|---------------------|


  W                   Q    Q    Q.     E     E  E  E  E  E  E  Q     
-------------------|----------------------|-------------------------|
-------------------|----------------------|-------------------------|
-------------------|----------------------|-------------------------|
--L----------------|--0----0----0------0--|--L--0--0--0--0--0--0----|
-------------------|----------------------|-------------------------|


  Q    Q    Q    Q       W                   Q    Q    Q    Q     
----------------------|-------------------|----------------------|
----------------------|-------------------|----------------------|
----------------------|-------------------|----------------------|
----------------------|-------------------|----------------------|
--0----0----0---------|-------------------|--0----0----0---------|


  W                   Q    Q    H           W                 
-------------------|---------------------|-------------------|
-------------------|---------------------|-------------------|
-------------------|---------------------|-------------------|
-------------------|--3----3----3--------|--L----------------|
-------------------|---------------------|-------------------|


  Q    Q    Q.     E     E  E  E  E  E  E  Q       Q    Q    Q    Q     
----------------------|-------------------------|----------------------|
----------------------|-------------------------|----------------------|
----------------------|-------------------------|----------------------|
--0----0----0------0--|--L--0--0--0--0--0--0----|----------------------|
----------------------|-------------------------|--0----0----0---------|


  W                   Q    Q    Q    Q       W                 
-------------------|----------------------|-------------------|
-------------------|----------------------|-------------------|
-------------------|----------------------|-------------------|
-------------------|----------------------|-------------------|
-------------------|--0----0----0---------|-------------------|


  Q    Q    H           W                   Q    Q    Q.     E   
---------------------|-------------------|----------------------|
---------------------|-------------------|----------------------|
---------------------|-------------------|----------------------|
--3----3----3--------|--L----------------|--0----0----0------0--|
---------------------|-------------------|----------------------|


  E  E  E  E  E  E  Q       W                   W                 
-------------------------|-------------------|-------------------|
-------------------------|-------------------|-------------------|
-------------------------|-------------------|-------------------|
--L--0--0--0--0--0--0----|-------------------|-------------------|
-------------------------|-------------------|-------------------|


  W                   W                   Q    E   E  E  E  E  S S  
-------------------|-------------------|---------------------------|
-------------------|-------------------|---------------------------|
-------------------|-------------------|---------------------------|
--3----------------|--0----------------|---------------------------|
-------------------|-------------------|--3----L\--0-----0-----0-0-|


  Q    E   E  E  E  E  S S    W                   W                 
---------------------------|-------------------|-------------------|
---------------------------|-------------------|-------------------|
---------------------------|-------------------|-------------------|
---------------------------|--3----------------|--0----------------|
--3----L\--0-----0-----0-0-|-------------------|-------------------|


  Q    E   E  E  E  E  S S    Q    E   E  E  E  E  S S    W                 
---------------------------|---------------------------|-------------------|
---------------------------|---------------------------|-------------------|
---------------------------|---------------------------|-------------------|
---------------------------|---------------------------|--3----------------|
--3----L\--0-----0-----0-0-|--3----L\--0-----0-----0-0-|-------------------|


  W                   Q    E   E  E  E  E  S S    Q    E   E  E  E  E  S S  
-------------------|---------------------------|---------------------------|
-------------------|---------------------------|---------------------------|
-------------------|---------------------------|---------------------------|
--0----------------|---------------------------|---------------------------|
-------------------|--3----L\--0-----0-----0-0-|--3----L\--0-----0-----0-0-|


  W                   W                   S S S S E  S S S S E  Q     
-------------------|-------------------|-----------------------------|
-------------------|-------------------|-----------------------------|
-------------------|-------------------|-----------------------------|
--3----------------|--0----------------|-----------------------------|
-------------------|-------------------|--0-0-0-0----0-0---0-0-------|


  S S S S E  S S S S E  Q       S S S S E  S S S S E  Q     
-----------------------------|-----------------------------|
-----------------------------|-----------------------------|
-----------------------------|-----------------------------|
-----------------------------|-----------------------------|
--0-0-0-0----0-0---0-0-------|--0-0-0-0----0-0---0-0-------|


  S S S S E  S S S S Q.       
----------------------------||
----------------------------||
----------------------------||
----------------------------||
--0-0-0-0----0-0-0-0--------||

==========Stranger Than Fiction==========

Coming Soon

==========Hate Me==========

Lead Guitar

           PM PM      PM               PM                     PM PM      PM     
      Q    E  E  Q    E  E     E  Q    E  E  E  E  E     Q    E  E  Q    E  E   
B ||------------------------|-------------------------|------------------------|
F#||------------------------|-------------4--4--4--4--|------------------------|
D ||------------------------|-------------2--2--2--2--|------------------------|
A ||--2----------2-------2--|--L--2-------------------|--2----------2-------2--|
E ||--2----2--2--2----2--2--|--L--2----2--------------|--2----2--2--2----2--2--|
B ||--0----0--0--0----0--0--|--L--0----0--------------|--0----0--0--0----0--0--|


          PM                     PM PM      PM               PM              
  E  Q    E  E  E  E  E     Q    E  E  Q    E  E     E  Q    E  E  E  E  E   
-------------------------|------------------------|-------------------------|
-------------4--4--4--4--|------------------------|-------------4--4--4--4--|
-------------2--2--2--2--|------------------------|-------------2--2--2--2--|
--L--2-------------------|--2----------2-------2--|--L--2-------------------|
--L--2----2--------------|--2----2--2--2----2--2--|--L--2----2--------------|
--L--0----0--------------|--0----0--0--0----0--0--|--L--0----0--------------|


       PM PM      PM               PM              
  Q    E  E  Q    E  E     E  Q    E  E  E  E  E   
------------------------|-------------------------|
------------------------|-------------4--4--4--4--|
------------------------|-------------2--2--2--2--|
--2----------2-------2--|--L--2-------------------|
--2----2--2--2----2--2--|--L--2----2--------------|
--0----0--0--0----0--0--|--L--0----0--------------|


     PM PM PM PM PM PM    PM PM PM PM       PM PM    PM PM PM PM              
  E  S  S  S  S  S  S  E  S  S  S  S  E     S  S  E  S  S  S  S  E  E  E  E   
-----------------------------------------|-----------------------------------|
-----------------------------------------|-----------------------4--4--4--4--|
-----------------------------------------|-----------------------2--2--2--2--|
--2--------------------2--------------2--|--------2--------------------------|
--2--2--2--2--2--2--2--2--2--2--2--2--2--|--2--2--2--2--2--2--2--------------|
--0--0--0--0--0--0--0--0--0--0--0--0--0--|--0--0--0--0--0--0--0--------------|


     PM PM PM PM PM PM    PM PM PM PM       PM PM    PM PM PM PM              
  E  S  S  S  S  S  S  E  S  S  S  S  E     S  S  E  S  S  S  S  E  E  E  E   
-----------------------------------------|-----------------------------------|
-----------------------------------------|-----------------------4--4--4--4--|
-----------------------------------------|-----------------------2--2--2--2--|
--2--------------------2--------------2--|--------2--------------------------|
--2--2--2--2--2--2--2--2--2--2--2--2--2--|--2--2--2--2--2--2--2--------------|
--0--0--0--0--0--0--0--0--0--0--0--0--0--|--0--0--0--0--0--0--0--------------|


     PM PM PM PM PM PM    PM PM PM PM       PM PM    PM PM PM PM              
  E  S  S  S  S  S  S  E  S  S  S  S  E     S  S  E  S  S  S  S  E  E  E  E   
-----------------------------------------|-----------------------------------|
-----------------------------------------|-----------------------4--4--4--4--|
-----------------------------------------|-----------------------2--2--2--2--|
--2--------------------2--------------2--|--------2--------------------------|
--2--2--2--2--2--2--2--2--2--2--2--2--2--|--2--2--2--2--2--2--2--------------|
--0--0--0--0--0--0--0--0--0--0--0--0--0--|--0--0--0--0--0--0--0--------------|


     PM PM PM PM    PM PM PM PM    PM PM  
  E  S  S  S  S  E  S  S  S  S  E  S  S   
-----------------------------------------|
-----------------------------------------|
-----------------------------------------|
--2--------------2--------------2--------|
--2--2--2--2--2--2--2--2--2--2--2--2--2--|
--0--0--0--0--0--0--0--0--0--0--0--0--0--|


  PM PM PM PM PM PM PM PM PM PM PM PM PM PM PM PM  
  S  S  S  S  S  S  S  S  S  S  S  S  S  S  S  S   
--------------------------------------------------|
--------------------------------------------------|
--------------------------------------------------|
--------------------------------------------------|
--2--2--2--2--2--2--2--2--2--2--2--2--2--2--2--2--|
--0--0--0--0--0--0--0--0--0--0--0--0--0--0--0--0--|


     PM PM PM    PM PM PM    PM       PM PM PM    PM PM PM    PM  
  E  S  S  E  E  S  S  E  E  E     E  S  S  E  E  S  S  E  E  E   
--------------------------------|--------------------------------|
--------------------------------|--------------------------------|
--2-----------2-----------2-----|--------------------------------|
--2-----------2-----------2-----|--3-----------3-----------3-----|
--0--0--0--0--0--0--0--0--0--0--|--3-----------3-----------3-----|
--------------------------------|--1--1--1--1--1--1--1--1--1--1--|


     PM PM PM    PM PM PM    PM    PM PM PM PM PM PM PM PM PM PM  PM          
  E  S  S  E  E  S  S  E  E  E     S  S  S  S  S  S  S  S  S  E   S    Q      
--------------------------------|--------------------------------------------|
--------------------------------|--------------------------------------------|
--5-----------5-----------5-----|--------------------------------------------|
--5-----------5-----------5-----|--------------------------------------------|
--3--3--3--3--3--3--3--3--3--3--|--5--5--5--5--7--7--7--7--8--8--10-<>10~----|
--------------------------------|--------------------------------------------|


     PM PM PM    PM PM PM    PM       PM PM PM    PM PM PM    PM  
  E  S  S  E  E  S  S  E  E  E     E  S  S  E  E  S  S  E  E  E   
--------------------------------|--------------------------------|
--------------------------------|--------------------------------|
--2-----------2-----------2-----|--------------------------------|
--2-----------2-----------2-----|--3-----------3-----------3-----|
--0--0--0--0--0--0--0--0--0--0--|--3-----------3-----------3-----|
--------------------------------|--1--1--1--1--1--1--1--1--1--1--|


     PM PM PM    PM PM PM    PM                           
  E  S  S  E  E  S  S  E  E  E     E  E  Q    E  E  Q     
--------------------------------|------------------------|
--------------------------------|------------------------|
--5-----------5-----------5-----|------------------------|
--5-----------5-----------5-----|--5--5-------5--5-------|
--3--3--3--3--3--3--3--3--3--3--|--5--5-------5--5-------|
--------------------------------|--3--3-------3--3-------|


     PM PM PM PM    PM PM PM PM    PM PM  
  E  S  S  S  S  E  S  S  S  S  E  S  S   
-----------------------------------------|
-----------------------------------------|
--2--------------2--------------2--------|
--2--------------2--------------2--------|
--0--0--0--0--0--0--0--0--0--0--0--0--0--|
-----------------------------------------|


     PM PM PM PM    PM PM PM PM    PM PM  
  E  S  S  S  S  E  S  S  S  S  E  S  S   
-----------------------------------------|
-----------------------------------------|
-----------------------------------------|
--3--------------3--------------3--------|
--3--------------3--------------3--------|
--1--1--1--1--1--1--1--1--1--1--1--1--1--|


     PM PM PM PM    PM PM PM PM    PM PM  
  E  S  S  S  S  E  S  S  S  S  E  S  S   
-----------------------------------------|
-----------------------------------------|
--5--------------5--------------5--------|
--5--------------5--------------5--------|
--3--3--3--3--3--3--3--3--3--3--3--3--3--|
-----------------------------------------|


     PM PM PM PM    PM PM PM PM    PM PM  
  E  S  S  S  S  E  S  S  S  S  E  S  S   
-----------------------------------------|
-----------------------------------------|
-----------------------------------------|
--5--------------5--------------5--------|
--5--------------5--------------5--------|
--3--3--3--3--3--3--3--3--3--3--3--3--3--|


     PM PM PM PM    PM PM PM PM    PM PM  
  E  S  S  S  S  E  S  S  S  S  E  S  S   
-----------------------------------------|
-----------------------------------------|
--2--------------2--------------2--------|
--2--------------2--------------2--------|
--0--0--0--0--0--0--0--0--0--0--0--0--0--|
-----------------------------------------|


     PM PM PM PM    PM PM PM PM    PM PM  
  E  S  S  S  S  E  S  S  S  S  E  S  S   
-----------------------------------------|
-----------------------------------------|
-----------------------------------------|
--3--------------3--------------3--------|
--3--------------3--------------3--------|
--1--1--1--1--1--1--1--1--1--1--1--1--1--|


     PM PM PM PM    PM PM PM PM    PM PM  
  E  S  S  S  S  E  S  S  S  S  E  S  S   
-----------------------------------------|
-----------------------------------------|
--5--------------5--------------5--------|
--5--------------5--------------5--------|
--3--3--3--3--3--3--3--3--3--3--3--3--3--|
-----------------------------------------|


     PM PM PM PM    PM PM PM PM    PM PM                            
  E  S  S  S  S  E  S  S  S  S  E  S  S     Q    E  E  E  E  E  E   
-----------------------------------------|-------------------------|
-----------------------------------------|-------------------------|
-----------------------------------------|--5----9-----7--9-----5--|
--5--------------5--------------5--------|-------------------------|
--5--------------5--------------5--------|--3----7-----5--7-----3--|
--3--3--3--3--3--3--3--3--3--3--3--3--3--|-------------------------|


  Q    E  E  E  E  E  E     Q    E  E  E  E  E  E     Q    E  E  E  E  E  E   
-------------------------|-------------------------|-------------------------|
-------------------------|-------------------------|-------------------------|
--L----9-----7--9-----5--|--L----9-----7--9-----4--|--L----9-----7--9--7--5--|
-------------------------|-------------------------|-------------------------|
--L----7-----5--7-----3--|--L----7-----5--7-----2--|--L----7-----5--7--5--3--|
-------------------------|-------------------------|-------------------------|


  Q    E  E  E  E  E  E     Q    E  E  E  E  E  E     Q    E  E  E  E  E  E   
-------------------------|-------------------------|-------------------------|
-------------------------|-------------------------|-------------------------|
--L----9-----7--9-----5--|--L----9-----7--9-----5--|--L----9-----7--9-----4--|
-------------------------|-------------------------|-------------------------|
--L----7-----5--7-----3--|--L----7-----5--7-----3--|--L----7-----5--7-----2--|
-------------------------|-------------------------|-------------------------|


                                 PM PM      PM               PM              
  Q    E  E  E  E  E  E     Q    E  E  Q    E  E     E  Q    E  E  E  E  E   
-------------------------|------------------------|-------------------------|
-------------------------|------------------------|-------------4--4--4--4--|
--L----9-----7--9--7--5--|------------------------|-------------2--2--2--2--|
-------------------------|--2----------2-------2--|--L--2-------------------|
--L----7-----5--7--5--3--|--2----2--2--2----2--2--|--L--2----2--------------|
-------------------------|--0----0--0--0----0--0--|--L--0----0--------------|


       PM PM      PM               PM              
  Q    E  E  Q    E  E     E  Q    E  E  E  E  E   
------------------------|-------------------------|
------------------------|-------------4--4--4--4--|
------------------------|-------------2--2--2--2--|
--2----------2-------2--|--L--2-------------------|
--2----2--2--2----2--2--|--L--2----2--------------|
--0----0--0--0----0--0--|--L--0----0--------------|


     PM PM PM PM PM PM    PM PM PM PM       PM PM    PM PM PM PM              
  E  S  S  S  S  S  S  E  S  S  S  S  E     S  S  E  S  S  S  S  E  E  E  E   
-----------------------------------------|-----------------------------------|
-----------------------------------------|-----------------------4--4--4--4--|
-----------------------------------------|-----------------------2--2--2--2--|
--2--------------------2--------------2--|--------2--------------------------|
--2--2--2--2--2--2--2--2--2--2--2--2--2--|--2--2--2--2--2--2--2--------------|
--0--0--0--0--0--0--0--0--0--0--0--0--0--|--0--0--0--0--0--0--0--------------|


     PM PM PM PM    PM PM PM PM    PM PM  
  E  S  S  S  S  E  S  S  S  S  E  S  S   
-----------------------------------------|
-----------------------------------------|
-----------------------------------------|
--2--------------2--------------2--------|
--2--2--2--2--2--2--2--2--2--2--2--2--2--|
--0--0--0--0--0--0--0--0--0--0--0--0--0--|


  PM PM PM PM PM PM PM PM PM PM PM PM PM PM PM PM  
  S  S  S  S  S  S  S  S  S  S  S  S  S  S  S  S   
--------------------------------------------------|
--------------------------------------------------|
--------------------------------------------------|
--------------------------------------------------|
--2--2--2--2--2--2--2--2--2--2--2--2--2--2--2--2--|
--0--0--0--0--0--0--0--0--0--0--0--0--0--0--0--0--|


     PM PM PM    PM PM PM    PM       PM PM PM    PM PM PM    PM  
  E  S  S  E  E  S  S  E  E  E     E  S  S  E  E  S  S  E  E  E   
--------------------------------|--------------------------------|
--------------------------------|--------------------------------|
--2-----------2-----------2-----|--------------------------------|
--2-----------2-----------2-----|--3-----------3-----------3-----|
--0--0--0--0--0--0--0--0--0--0--|--3-----------3-----------3-----|
--------------------------------|--1--1--1--1--1--1--1--1--1--1--|


     PM PM PM    PM PM PM    PM       PM PM PM    PM PM PM    PM  
  E  S  S  E  E  S  S  E  E  E     E  S  S  E  E  S  S  E  E  E   
--------------------------------|--------------------------------|
--------------------------------|--------------------------------|
--5-----------5-----------5-----|--------------------------------|
--5-----------5-----------5-----|--5-----------5-----------5-----|
--3--3--3--3--3--3--3--3--3--3--|--5-----------5-----------5-----|
--------------------------------|--3--3--3--3--3--3--3--3--3--3--|


     PM PM PM    PM PM PM    PM       PM PM PM    PM PM PM    PM  
  E  S  S  E  E  S  S  E  E  E     E  S  S  E  E  S  S  E  E  E   
--------------------------------|--------------------------------|
--------------------------------|--------------------------------|
--2-----------2-----------2-----|--------------------------------|
--2-----------2-----------2-----|--3-----------3-----------3-----|
--0--0--0--0--0--0--0--0--0--0--|--3-----------3-----------3-----|
--------------------------------|--1--1--1--1--1--1--1--1--1--1--|


     PM PM PM    PM PM PM    PM                           
  E  S  S  E  E  S  S  E  E  E     E  E  Q    E  E  Q     
--------------------------------|------------------------|
--------------------------------|------------------------|
--5-----------5-----------5-----|------------------------|
--5-----------5-----------5-----|--5--5-------5--5-------|
--3--3--3--3--3--3--3--3--3--3--|--5--5-------5--5-------|
--------------------------------|--3--3-------3--3-------|


     PM PM PM PM    PM PM PM PM    PM PM  
  E  S  S  S  S  E  S  S  S  S  E  S  S   
-----------------------------------------|
-----------------------------------------|
--2--------------2--------------2--------|
--2--------------2--------------2--------|
--0--0--0--0--0--0--0--0--0--0--0--0--0--|
-----------------------------------------|


     PM PM PM PM    PM PM PM PM    PM PM  
  E  S  S  S  S  E  S  S  S  S  E  S  S   
-----------------------------------------|
-----------------------------------------|
-----------------------------------------|
--3--------------3--------------3--------|
--3--------------3--------------3--------|
--1--1--1--1--1--1--1--1--1--1--1--1--1--|


     PM PM PM PM    PM PM PM PM    PM PM  
  E  S  S  S  S  E  S  S  S  S  E  S  S   
-----------------------------------------|
-----------------------------------------|
--5--------------5--------------5--------|
--5--------------5--------------5--------|
--3--3--3--3--3--3--3--3--3--3--3--3--3--|
-----------------------------------------|


     PM PM PM PM    PM PM PM PM    PM PM  
  E  S  S  S  S  E  S  S  S  S  E  S  S   
-----------------------------------------|
-----------------------------------------|
-----------------------------------------|
--5--------------5--------------5--------|
--5--------------5--------------5--------|
--3--3--3--3--3--3--3--3--3--3--3--3--3--|


     PM PM PM PM    PM PM PM PM    PM PM  
  E  S  S  S  S  E  S  S  S  S  E  S  S   
-----------------------------------------|
-----------------------------------------|
--2--------------2--------------2--------|
--2--------------2--------------2--------|
--0--0--0--0--0--0--0--0--0--0--0--0--0--|
-----------------------------------------|


     PM PM PM PM    PM PM PM PM    PM PM  
  E  S  S  S  S  E  S  S  S  S  E  S  S   
-----------------------------------------|
-----------------------------------------|
-----------------------------------------|
--3--------------3--------------3--------|
--3--------------3--------------3--------|
--1--1--1--1--1--1--1--1--1--1--1--1--1--|


     PM PM PM PM    PM PM PM PM    PM PM  
  E  S  S  S  S  E  S  S  S  S  E  S  S   
-----------------------------------------|
-----------------------------------------|
--5--------------5--------------5--------|
--5--------------5--------------5--------|
--3--3--3--3--3--3--3--3--3--3--3--3--3--|
-----------------------------------------|


     PM PM PM PM    PM PM PM PM    PM PM                            
  E  S  S  S  S  E  S  S  S  S  E  S  S     Q    E  E  E  E  E  E   
-----------------------------------------|-------------------------|
-----------------------------------------|-------------------------|
-----------------------------------------|--5----9-----7--9-----5--|
--5--------------5--------------5--------|-------------------------|
--5--------------5--------------5--------|--3----7-----5--7-----3--|
--3--3--3--3--3--3--3--3--3--3--3--3--3--|-------------------------|


  Q    E  E  E  E  E  E     Q    E  E  E  E  E  E     Q    E  E  E  E  E  E   
-------------------------|-------------------------|-------------------------|
-------------------------|-------------------------|-------------------------|
--L----9-----7--9-----5--|--L----9-----7--9-----4--|--L----9-----7--9--7--5--|
-------------------------|-------------------------|-------------------------|
--L----7-----5--7-----3--|--L----7-----5--7-----2--|--L----7-----5--7--5--3--|
-------------------------|-------------------------|-------------------------|


  Q    E  E  E  E  E  E     Q    E  E  E  E  E  E     Q    E  E  E  E  E  E   
-------------------------|-------------------------|-------------------------|
-------------------------|-------------------------|-------------------------|
--L----9-----7--9-----5--|--L----9-----7--9-----5--|--L----9-----7--9-----4--|
-------------------------|-------------------------|-------------------------|
--L----7-----5--7-----3--|--L----7-----5--7-----3--|--L----7-----5--7-----2--|
-------------------------|-------------------------|-------------------------|


                                 PM PM      PM               PM              
  Q    E  E  E  E  E  E     Q    E  E  Q    E  E     E  Q    E  E  E  E  E   
-------------------------|------------------------|-------------------------|
-------------------------|------------------------|-------------4--4--4--4--|
--L----9-----7--9--7--5--|------------------------|-------------2--2--2--2--|
-------------------------|--2----------2-------2--|--L--2-------------------|
--L----7-----5--7--5--3--|--2----2--2--2----2--2--|--L--2----2--------------|
-------------------------|--0----0--0--0----0--0--|--L--0----0--------------|


       PM PM      PM               PM              
  Q    E  E  Q    E  E     E  Q    E  E  E  E  E   
------------------------|-------------------------|
------------------------|-------------4--4--4--4--|
------------------------|-------------2--2--2--2--|
--2----------2-------2--|--L--2-------------------|
--2----2--2--2----2--2--|--L--2----2--------------|
--0----0--0--0----0--0--|--L--0----0--------------|


     PM PM PM PM PM PM    PM PM PM PM       PM PM    PM PM PM PM              
  E  S  S  S  S  S  S  E  S  S  S  S  E     S  S  E  S  S  S  S  E  E  E  E   
-----------------------------------------|-----------------------------------|
-----------------------------------------|-----------------------4--4--4--4--|
-----------------------------------------|-----------------------2--2--2--2--|
--2--------------------2--------------2--|--------2--------------------------|
--2--2--2--2--2--2--2--2--2--2--2--2--2--|--2--2--2--2--2--2--2--------------|
--0--0--0--0--0--0--0--0--0--0--0--0--0--|--0--0--0--0--0--0--0--------------|


     PM PM PM PM    PM PM PM PM    PM PM  
  E  S  S  S  S  E  S  S  S  S  E  S  S   
-----------------------------------------|
-----------------------------------------|
-----------------------------------------|
--2--------------2--------------2--------|
--2--2--2--2--2--2--2--2--2--2--2--2--2--|
--0--0--0--0--0--0--0--0--0--0--0--0--0--|


  PM PM PM PM PM PM PM PM PM PM PM PM PM PM PM PM  
  S  S  S  S  S  S  S  S  S  S  S  S  S  S  S  S   
--------------------------------------------------|
--------------------------------------------------|
--------------------------------------------------|
--------------------------------------------------|
--2--2--2--2--2--2--2--2--2--2--2--2--2--2--2--2--|
--0--0--0--0--0--0--0--0--0--0--0--0--0--0--0--0--|


     PM PM PM    PM PM PM    PM       PM PM PM    PM PM PM    PM  
  E  S  S  E  E  S  S  E  E  E     E  S  S  E  E  S  S  E  E  E   
--------------------------------|--------------------------------|
--------------------------------|--------------------------------|
--2-----------2-----------2-----|--------------------------------|
--2-----------2-----------2-----|--3-----------3-----------3-----|
--0--0--0--0--0--0--0--0--0--0--|--3-----------3-----------3-----|
--------------------------------|--1--1--1--1--1--1--1--1--1--1--|


     PM PM PM    PM PM PM    PM       PM PM PM    PM PM PM    PM  
  E  S  S  E  E  S  S  E  E  E     E  S  S  E  E  S  S  E  E  E   
--------------------------------|--------------------------------|
--------------------------------|--------------------------------|
--5-----------5-----------5-----|--------------------------------|
--5-----------5-----------5-----|--5-----------5-----------5-----|
--3--3--3--3--3--3--3--3--3--3--|--5-----------5-----------5-----|
--------------------------------|--3--3--3--3--3--3--3--3--3--3--|


     PM PM PM    PM PM PM    PM       PM PM PM    PM PM PM    PM  
  E  S  S  E  E  S  S  E  E  E     E  S  S  E  E  S  S  E  E  E   
--------------------------------|--------------------------------|
--------------------------------|--------------------------------|
--2-----------2-----------2-----|--------------------------------|
--2-----------2-----------2-----|--3-----------3-----------3-----|
--0--0--0--0--0--0--0--0--0--0--|--3-----------3-----------3-----|
--------------------------------|--1--1--1--1--1--1--1--1--1--1--|


     PM PM PM    PM PM PM    PM                           
  E  S  S  E  E  S  S  E  E  E     E  E  Q    E  E  Q     
--------------------------------|------------------------|
--------------------------------|------------------------|
--5-----------5-----------5-----|------------------------|
--5-----------5-----------5-----|--5--5-------5--5-------|
--3--3--3--3--3--3--3--3--3--3--|--5--5-------5--5-------|
--------------------------------|--3--3-------3--3-------|


     PM PM PM PM    PM PM PM PM    PM PM  
  E  S  S  S  S  E  S  S  S  S  E  S  S   
-----------------------------------------|
-----------------------------------------|
--2--------------2--------------2--------|
--2--------------2--------------2--------|
--0--0--0--0--0--0--0--0--0--0--0--0--0--|
-----------------------------------------|


     PM PM PM PM    PM PM PM PM    PM PM  
  E  S  S  S  S  E  S  S  S  S  E  S  S   
-----------------------------------------|
-----------------------------------------|
-----------------------------------------|
--3--------------3--------------3--------|
--3--------------3--------------3--------|
--1--1--1--1--1--1--1--1--1--1--1--1--1--|


     PM PM PM PM    PM PM PM PM    PM PM  
  E  S  S  S  S  E  S  S  S  S  E  S  S   
-----------------------------------------|
-----------------------------------------|
--5--------------5--------------5--------|
--5--------------5--------------5--------|
--3--3--3--3--3--3--3--3--3--3--3--3--3--|
-----------------------------------------|


     PM PM PM PM    PM PM PM PM    PM PM  
  E  S  S  S  S  E  S  S  S  S  E  S  S   
-----------------------------------------|
-----------------------------------------|
-----------------------------------------|
--5--------------5--------------5--------|
--5--------------5--------------5--------|
--3--3--3--3--3--3--3--3--3--3--3--3--3--|


     PM PM PM PM    PM PM PM PM    PM PM  
  E  S  S  S  S  E  S  S  S  S  E  S  S   
-----------------------------------------|
-----------------------------------------|
--2--------------2--------------2--------|
--2--------------2--------------2--------|
--0--0--0--0--0--0--0--0--0--0--0--0--0--|
-----------------------------------------|


     PM PM PM PM    PM PM PM PM    PM PM  
  E  S  S  S  S  E  S  S  S  S  E  S  S   
-----------------------------------------|
-----------------------------------------|
-----------------------------------------|
--3--------------3--------------3--------|
--3--------------3--------------3--------|
--1--1--1--1--1--1--1--1--1--1--1--1--1--|


     PM PM PM PM    PM PM PM PM    PM PM  
  E  S  S  S  S  E  S  S  S  S  E  S  S   
-----------------------------------------|
-----------------------------------------|
--5--------------5--------------5--------|
--5--------------5--------------5--------|
--3--3--3--3--3--3--3--3--3--3--3--3--3--|
-----------------------------------------|


     PM PM PM PM    PM PM PM PM    PM PM  
  E  S  S  S  S  E  S  S  S  S  E  S  S   
-----------------------------------------|
-----------------------------------------|
-----------------------------------------|
--5--------------5--------------5--------|
--5--------------5--------------5--------|
--3--3--3--3--3--3--3--3--3--3--3--3--3--|


   |---3---|   |---3---|   |---3---|   |---3---|   
   E   E   E   E   E   E   E   E   E   E   E   E   
----------------------17--20--17------------------|
------------------17--------------17--------------|
--------------17----------------------17----------|
----------19------------------------------19------|
------19--------------------------------------19--|
--17----------------------------------------------|


   |---3---|   |---3---|   |---3---|   |---3---|   
   E   E   E   E   E   E   E   E   E   E   E   E   
----------------------13--17--13------------------|
------------------13--------------13--------------|
--------------14----------------------14----------|
----------15------------------------------15------|
------15--------------------------------------15--|
--13----------------------------------------------|


  |---3---|  |--3--|   |--3--|  |---3---|   
  E   E   E  E  E  E   E  E  E  E   E   E   
-------------------8--12--8----------------|
----------------8------------8-------------|
-------------9------------------9----------|
---------10------------------------10------|
-----10--------------------------------10--|
--8----------------------------------------|


   |---3---|   |---3---|   |---3---|   |---3---|   
   E   E   E   E   E   E   E   E   E   E   E   E   
----------------------15--17--15------------------|
------------------15--------------15--------------|
--------------16----------------------16----------|
----------17------------------------------17------|
------17--------------------------------------17--|
--15----------------------------------------------|


   |---3---|   |---3---|   |---3---|   |---3---|   
   E   E   E   E   E   E   E   E   E   E   E   E   
----------------------17--20--17------------------|
------------------17--------------17--------------|
--------------17----------------------17----------|
----------19------------------------------19------|
------19--------------------------------------19--|
--17----------------------------------------------|


   |---3---|   |---3---|   |---3---|   |---3---|   
   E   E   E   E   E   E   E   E   E   E   E   E   
----------------------13--17--13------------------|
------------------13--------------13--------------|
--------------14----------------------14----------|
----------15------------------------------15------|
------15--------------------------------------15--|
--13----------------------------------------------|


  |---3---|  |--3--|   |--3--|  |---3---|   
  E   E   E  E  E  E   E  E  E  E   E   E   
-------------------8--12--8----------------|
----------------8------------8-------------|
-------------9------------------9----------|
---------10------------------------10------|
-----10--------------------------------10--|
--8----------------------------------------|


   |---3---|   |---3---|   |---3---|   |---3---|                             
   E   E   E   E   E   E   E   E   E   E   E   E      H.             E   E   
----------------------15--17--15------------------|-------------------------|
------------------15--------------15--------------|-------------------------|
--------------16----------------------16----------|--14~------------14--16--|
----------17------------------------------17------|-------------------------|
------17--------------------------------------17--|-------------------------|
--15----------------------------------------------|-------------------------|


   Q.       Q.      Q        H.             E   E      Q.       Q.      Q     
-------------------------|-------------------------|-------------------------|
-------------------------|-------------------------|-------------------------|
--16b------16------14----|--12~------------14--16--|--17b------17------16----|
-------------------------|-------------------------|-------------------------|
-------------------------|-------------------------|-------------------------|
-------------------------|-------------------------|-------------------------|


   H.             E   E      Q.       Q.      Q        H.             E   E   
-------------------------|-------------------------|-------------------------|
-------------------------|-------------------------|-------------------------|
--14~------------16--17--|--19b------19------17----|--16~------------16--17--|
-------------------------|-------------------------|-------------------------|
-------------------------|-------------------------|-------------------------|
-------------------------|-------------------------|-------------------------|


   Q.       Q.      Q        W                    W                 
-------------------------|---------------------|-------------------|
-------------------------|---------------------|-------------------|
--17b------17------16----|--13~----------------|--L----------------|
-------------------------|---------------------|-------------------|
-------------------------|---------------------|-------------------|
-------------------------|---------------------|-------------------|


   W                    W                   W                  
---------------------|-------------------|--------------------|
---------------------|-------------------|--------------------|
--14~----------------|--L----------------|--9~----------------|
---------------------|-------------------|--------------------|
---------------------|-------------------|--------------------|
---------------------|-------------------|--------------------|


  W                    W                    W                 
-------------------|---------------------|-------------------|
-------------------|---------------------|-------------------|
--L----------------|--10~----------------|--L----------------|
-------------------|---------------------|-------------------|
-------------------|---------------------|-------------------|
-------------------|---------------------|-------------------|


  W                     W                    W                  
--------------------|--------------------|---------------------|
--------------------|--------------------|---------------------|
--8~----------------|---L----------------|--10~----------------|
--------------------|--------------------|---------------------|
--------------------|--------------------|---------------------|
--------------------|--------------------|---------------------|


  W                   W                    W                 
-------------------|--------------------|-------------------|
-------------------|--------------------|-------------------|
--L----------------|--8~----------------|--L----------------|
-------------------|--------------------|-------------------|
-------------------|--------------------|-------------------|
-------------------|--------------------|-------------------|


   Q.       Q.       Q         W                 
---------------------------|--------------------|
---------------------------|--------------------|
--13~------12~------10~----|---L----------------|
---------------------------|--------------------|
---------------------------|--------------------|
---------------------------|--------------------|


     PM PM PM PM    PM PM PM PM    PM PM  
  E  S  S  S  S  E  S  S  S  S  E  S  S   
-----------------------------------------|
-----------------------------------------|
--2--------------2--------------2--------|
--2--------------2--------------2--------|
--0--0--0--0--0--0--0--0--0--0--0--0--0--|
-----------------------------------------|


     PM PM PM PM    PM PM PM PM    PM PM  
  E  S  S  S  S  E  S  S  S  S  E  S  S   
-----------------------------------------|
-----------------------------------------|
-----------------------------------------|
--3--------------3--------------3--------|
--3--------------3--------------3--------|
--1--1--1--1--1--1--1--1--1--1--1--1--1--|


     PM PM PM PM    PM PM PM PM    PM PM  
  E  S  S  S  S  E  S  S  S  S  E  S  S   
-----------------------------------------|
-----------------------------------------|
--5--------------5--------------5--------|
--5--------------5--------------5--------|
--3--3--3--3--3--3--3--3--3--3--3--3--3--|
-----------------------------------------|


     PM PM PM PM    PM PM PM PM    PM PM  
  E  S  S  S  S  E  S  S  S  S  E  S  S   
-----------------------------------------|
-----------------------------------------|
-----------------------------------------|
--5--------------5--------------5--------|
--5--------------5--------------5--------|
--3--3--3--3--3--3--3--3--3--3--3--3--3--|


     PM PM PM PM    PM PM PM PM    PM PM  
  E  S  S  S  S  E  S  S  S  S  E  S  S   
-----------------------------------------|
-----------------------------------------|
--2--------------2--------------2--------|
--2--------------2--------------2--------|
--0--0--0--0--0--0--0--0--0--0--0--0--0--|
-----------------------------------------|


     PM PM PM PM    PM PM PM PM    PM PM  
  E  S  S  S  S  E  S  S  S  S  E  S  S   
-----------------------------------------|
-----------------------------------------|
-----------------------------------------|
--3--------------3--------------3--------|
--3--------------3--------------3--------|
--1--1--1--1--1--1--1--1--1--1--1--1--1--|


     PM PM PM PM    PM PM PM PM    PM PM  
  E  S  S  S  S  E  S  S  S  S  E  S  S   
-----------------------------------------|
-----------------------------------------|
--5--------------5--------------5--------|
--5--------------5--------------5--------|
--3--3--3--3--3--3--3--3--3--3--3--3--3--|
-----------------------------------------|


     PM PM PM PM    PM PM PM PM    PM PM  
  E  S  S  S  S  E  S  S  S  S  E  S  S   
-----------------------------------------|
-----------------------------------------|
-----------------------------------------|
--5--------------5--------------5--------|
--5--------------5--------------5--------|
--3--3--3--3--3--3--3--3--3--3--3--3--3--|


     PM PM PM PM    PM PM PM PM    PM PM  
  E  S  S  S  S  E  S  S  S  S  E  S  S   
-----------------------------------------|
-----------------------------------------|
--2--------------2--------------2--------|
--2--------------2--------------2--------|
--0--0--0--0--0--0--0--0--0--0--0--0--0--|
-----------------------------------------|


     PM PM PM PM    PM PM PM PM    PM PM  
  E  S  S  S  S  E  S  S  S  S  E  S  S   
-----------------------------------------|
-----------------------------------------|
-----------------------------------------|
--3--------------3--------------3--------|
--3--------------3--------------3--------|
--1--1--1--1--1--1--1--1--1--1--1--1--1--|


     PM PM PM PM    PM PM PM PM    PM PM  
  E  S  S  S  S  E  S  S  S  S  E  S  S   
-----------------------------------------|
-----------------------------------------|
--5--------------5--------------5--------|
--5--------------5--------------5--------|
--3--3--3--3--3--3--3--3--3--3--3--3--3--|
-----------------------------------------|


     PM PM PM PM    PM PM PM PM    PM PM  
  E  S  S  S  S  E  S  S  S  S  E  S  S   
-----------------------------------------|
-----------------------------------------|
-----------------------------------------|
--5--------------5--------------5--------|
--5--------------5--------------5--------|
--3--3--3--3--3--3--3--3--3--3--3--3--3--|


     PM PM PM PM    PM PM PM PM    PM PM  
  E  S  S  S  S  E  S  S  S  S  E  S  S   
-----------------------------------------|
-----------------------------------------|
--2--------------2--------------2--------|
--2--------------2--------------2--------|
--0--0--0--0--0--0--0--0--0--0--0--0--0--|
-----------------------------------------|


     PM PM PM PM    PM PM PM PM    PM PM  
  E  S  S  S  S  E  S  S  S  S  E  S  S   
-----------------------------------------|
-----------------------------------------|
-----------------------------------------|
--3--------------3--------------3--------|
--3--------------3--------------3--------|
--1--1--1--1--1--1--1--1--1--1--1--1--1--|


     PM PM PM PM    PM PM PM PM    PM PM                            
  E  S  S  S  S  E  S  S  S  S  E  S  S     E  E  Q    E  E  Q      
-----------------------------------------|------------------------||
-----------------------------------------|------------------------||
--5--------------5--------------5--------|------------------------||
--5--------------5--------------5--------|--5--5-------5--5-------||
--3--3--3--3--3--3--3--3--3--3--3--3--3--|--5--5-------5--5-------||
-----------------------------------------|--3--3-------3--3-------||

Rhythm Guitar

      W                   W                   W                 
B ||-------------------|-------------------|-------------------|
F#||-------------------|-------------------|-------------------|
D ||-------------------|-------------------|-------------------|
A ||-------------------|-------------------|-------------------|
E ||-------------------|-------------------|-------------------|
B ||-------------------|-------------------|-------------------|


  W                   W                   W                   W                 
-------------------|-------------------|-------------------|-------------------|
-------------------|-------------------|-------------------|-------------------|
-------------------|-------------------|-------------------|-------------------|
-------------------|-------------------|-------------------|-------------------|
-------------------|-------------------|-------------------|-------------------|
-------------------|-------------------|-------------------|-------------------|


                         PM PM PM PM PM PM    PM PM PM PM     
  W                   E  S  S  S  S  S  S  E  S  S  S  S  E   
-------------------|-----------------------------------------|
-------------------|-----------------------------------------|
-------------------|-----------------------------------------|
-------------------|--2--------------------2--------------2--|
-------------------|--2--2--2--2--2--2--2--2--2--2--2--2--2--|
-------------------|--0--0--0--0--0--0--0--0--0--0--0--0--0--|


  PM PM    PM PM PM PM                   PM PM PM PM PM PM    PM PM PM PM     
  S  S  E  S  S  S  S  E  E  E  E     E  S  S  S  S  S  S  E  S  S  S  S  E   
-----------------------------------|-----------------------------------------|
-----------------------4--4--4--4--|-----------------------------------------|
-----------------------2--2--2--2--|-----------------------------------------|
--------2--------------------------|--2--------------------2--------------2--|
--2--2--2--2--2--2--2--------------|--2--2--2--2--2--2--2--2--2--2--2--2--2--|
--0--0--0--0--0--0--0--------------|--0--0--0--0--0--0--0--0--0--0--0--0--0--|


  PM PM    PM PM PM PM                   PM PM PM PM PM PM    PM PM PM PM     
  S  S  E  S  S  S  S  E  E  E  E     E  S  S  S  S  S  S  E  S  S  S  S  E   
-----------------------------------|-----------------------------------------|
-----------------------4--4--4--4--|-----------------------------------------|
-----------------------2--2--2--2--|-----------------------------------------|
--------2--------------------------|--2--------------------2--------------2--|
--2--2--2--2--2--2--2--------------|--2--2--2--2--2--2--2--2--2--2--2--2--2--|
--0--0--0--0--0--0--0--------------|--0--0--0--0--0--0--0--0--0--0--0--0--0--|


  PM PM    PM PM PM PM                   PM PM PM PM    PM PM PM PM    PM PM  
  S  S  E  S  S  S  S  E  E  E  E     E  S  S  S  S  E  S  S  S  S  E  S  S   
-----------------------------------|-----------------------------------------|
-----------------------4--4--4--4--|-----------------------------------------|
-----------------------2--2--2--2--|-----------------------------------------|
--------2--------------------------|--2--------------2--------------2--------|
--2--2--2--2--2--2--2--------------|--2--2--2--2--2--2--2--2--2--2--2--2--2--|
--0--0--0--0--0--0--0--------------|--0--0--0--0--0--0--0--0--0--0--0--0--0--|


  PM PM PM PM PM PM PM PM PM PM PM PM PM PM PM PM  
  S  S  S  S  S  S  S  S  S  S  S  S  S  S  S  S   
--------------------------------------------------|
--------------------------------------------------|
--------------------------------------------------|
--------------------------------------------------|
--2--2--2--2--2--2--2--2--2--2--2--2--2--2--2--2--|
--0--0--0--0--0--0--0--0--0--0--0--0--0--0--0--0--|


     PM PM PM    PM PM PM    PM       PM PM PM    PM PM PM    PM  
  E  S  S  E  E  S  S  E  E  E     E  S  S  E  E  S  S  E  E  E   
--------------------------------|--------------------------------|
--------------------------------|--------------------------------|
--2-----------2-----------2-----|--------------------------------|
--2-----------2-----------2-----|--3-----------3-----------3-----|
--0--0--0--0--0--0--0--0--0--0--|--3-----------3-----------3-----|
--------------------------------|--1--1--1--1--1--1--1--1--1--1--|


     PM PM PM    PM PM PM    PM       PM PM PM    PM PM PM    PM  
  E  S  S  E  E  S  S  E  E  E     E  S  S  E  E  S  S  E  E  E   
--------------------------------|--------------------------------|
--------------------------------|--------------------------------|
--5-----------5-----------5-----|--------------------------------|
--5-----------5-----------5-----|--5-----------5-----------5-----|
--3--3--3--3--3--3--3--3--3--3--|--5-----------5-----------5-----|
--------------------------------|--3--3--3--3--3--3--3--3--3--3--|


     PM PM PM    PM PM PM    PM       PM PM PM    PM PM PM    PM  
  E  S  S  E  E  S  S  E  E  E     E  S  S  E  E  S  S  E  E  E   
--------------------------------|--------------------------------|
--------------------------------|--------------------------------|
--2-----------2-----------2-----|--------------------------------|
--2-----------2-----------2-----|--3-----------3-----------3-----|
--0--0--0--0--0--0--0--0--0--0--|--3-----------3-----------3-----|
--------------------------------|--1--1--1--1--1--1--1--1--1--1--|


     PM PM PM    PM PM PM    PM                           
  E  S  S  E  E  S  S  E  E  E     E  E  Q    E  E  Q     
--------------------------------|------------------------|
--------------------------------|------------------------|
--5-----------5-----------5-----|------------------------|
--5-----------5-----------5-----|--5--5-------5--5-------|
--3--3--3--3--3--3--3--3--3--3--|--5--5-------5--5-------|
--------------------------------|--3--3-------3--3-------|


     PM PM PM PM    PM PM PM PM    PM PM  
  E  S  S  S  S  E  S  S  S  S  E  S  S   
-----------------------------------------|
-----------------------------------------|
--2--------------2--------------2--------|
--2--------------2--------------2--------|
--0--0--0--0--0--0--0--0--0--0--0--0--0--|
-----------------------------------------|


     PM PM PM PM    PM PM PM PM    PM PM  
  E  S  S  S  S  E  S  S  S  S  E  S  S   
-----------------------------------------|
-----------------------------------------|
-----------------------------------------|
--3--------------3--------------3--------|
--3--------------3--------------3--------|
--1--1--1--1--1--1--1--1--1--1--1--1--1--|


     PM PM PM PM    PM PM PM PM    PM PM  
  E  S  S  S  S  E  S  S  S  S  E  S  S   
-----------------------------------------|
-----------------------------------------|
--5--------------5--------------5--------|
--5--------------5--------------5--------|
--3--3--3--3--3--3--3--3--3--3--3--3--3--|
-----------------------------------------|


     PM PM PM PM    PM PM PM PM    PM PM  
  E  S  S  S  S  E  S  S  S  S  E  S  S   
-----------------------------------------|
-----------------------------------------|
-----------------------------------------|
--5--------------5--------------5--------|
--5--------------5--------------5--------|
--3--3--3--3--3--3--3--3--3--3--3--3--3--|


     PM PM PM PM    PM PM PM PM    PM PM  
  E  S  S  S  S  E  S  S  S  S  E  S  S   
-----------------------------------------|
-----------------------------------------|
--2--------------2--------------2--------|
--2--------------2--------------2--------|
--0--0--0--0--0--0--0--0--0--0--0--0--0--|
-----------------------------------------|


     PM PM PM PM    PM PM PM PM    PM PM  
  E  S  S  S  S  E  S  S  S  S  E  S  S   
-----------------------------------------|
-----------------------------------------|
-----------------------------------------|
--3--------------3--------------3--------|
--3--------------3--------------3--------|
--1--1--1--1--1--1--1--1--1--1--1--1--1--|


     PM PM PM PM    PM PM PM PM    PM PM  
  E  S  S  S  S  E  S  S  S  S  E  S  S   
-----------------------------------------|
-----------------------------------------|
--5--------------5--------------5--------|
--5--------------5--------------5--------|
--3--3--3--3--3--3--3--3--3--3--3--3--3--|
-----------------------------------------|


     PM PM PM PM    PM PM PM PM    PM PM                            
  E  S  S  S  S  E  S  S  S  S  E  S  S     Q    E  E  E  E  E  E   
-----------------------------------------|-------------------------|
-----------------------------------------|-------------------------|
-----------------------------------------|--5----9-----7--9-----5--|
--5--------------5--------------5--------|-------------------------|
--5--------------5--------------5--------|--3----7-----5--7-----3--|
--3--3--3--3--3--3--3--3--3--3--3--3--3--|-------------------------|


  Q    E  E  E  E  E  E     Q    E  E  E  E  E  E     Q    E  E  E  E  E  E   
-------------------------|-------------------------|-------------------------|
-------------------------|-------------------------|-------------------------|
--L----9-----7--9-----5--|--L----9-----7--9-----4--|--L----9-----7--9--7--5--|
-------------------------|-------------------------|-------------------------|
--L----7-----5--7-----3--|--L----7-----5--7-----2--|--L----7-----5--7--5--3--|
-------------------------|-------------------------|-------------------------|


  Q    E  E  E  E  E  E     Q    E  E  E  E  E  E     Q    E  E  E  E  E  E   
-------------------------|-------------------------|-------------------------|
-------------------------|-------------------------|-------------------------|
--L----9-----7--9-----5--|--L----9-----7--9-----5--|--L----9-----7--9-----4--|
-------------------------|-------------------------|-------------------------|
--L----7-----5--7-----3--|--L----7-----5--7-----3--|--L----7-----5--7-----2--|
-------------------------|-------------------------|-------------------------|


                                 PM PM      PM               PM              
  Q    E  E  E  E  E  E     Q    E  E  Q    E  E     E  Q    E  E  E  E  E   
-------------------------|------------------------|-------------------------|
-------------------------|------------------------|-------------4--4--4--4--|
--L----9-----7--9--7--5--|------------------------|-------------2--2--2--2--|
-------------------------|--2----------2-------2--|--L--2-------------------|
--L----7-----5--7--5--3--|--2----2--2--2----2--2--|--L--2----2--------------|
-------------------------|--0----0--0--0----0--0--|--L--0----0--------------|


       PM PM      PM               PM              
  Q    E  E  Q    E  E     E  Q    E  E  E  E  E   
------------------------|-------------------------|
------------------------|-------------4--4--4--4--|
------------------------|-------------2--2--2--2--|
--2----------2-------2--|--L--2-------------------|
--2----2--2--2----2--2--|--L--2----2--------------|
--0----0--0--0----0--0--|--L--0----0--------------|


     PM PM PM PM PM PM    PM PM PM PM       PM PM    PM PM PM PM              
  E  S  S  S  S  S  S  E  S  S  S  S  E     S  S  E  S  S  S  S  E  E  E  E   
-----------------------------------------|-----------------------------------|
-----------------------------------------|-----------------------4--4--4--4--|
-----------------------------------------|-----------------------2--2--2--2--|
--2--------------------2--------------2--|--------2--------------------------|
--2--2--2--2--2--2--2--2--2--2--2--2--2--|--2--2--2--2--2--2--2--------------|
--0--0--0--0--0--0--0--0--0--0--0--0--0--|--0--0--0--0--0--0--0--------------|


     PM PM PM PM    PM PM PM PM    PM PM  
  E  S  S  S  S  E  S  S  S  S  E  S  S   
-----------------------------------------|
-----------------------------------------|
-----------------------------------------|
--2--------------2--------------2--------|
--2--2--2--2--2--2--2--2--2--2--2--2--2--|
--0--0--0--0--0--0--0--0--0--0--0--0--0--|


  PM PM PM PM PM PM PM PM PM PM PM PM PM PM PM PM  
  S  S  S  S  S  S  S  S  S  S  S  S  S  S  S  S   
--------------------------------------------------|
--------------------------------------------------|
--------------------------------------------------|
--------------------------------------------------|
--2--2--2--2--2--2--2--2--2--2--2--2--2--2--2--2--|
--0--0--0--0--0--0--0--0--0--0--0--0--0--0--0--0--|


     PM PM PM    PM PM PM    PM       PM PM PM    PM PM PM    PM  
  E  S  S  E  E  S  S  E  E  E     E  S  S  E  E  S  S  E  E  E   
--------------------------------|--------------------------------|
--------------------------------|--------------------------------|
--2-----------2-----------2-----|--------------------------------|
--2-----------2-----------2-----|--3-----------3-----------3-----|
--0--0--0--0--0--0--0--0--0--0--|--3-----------3-----------3-----|
--------------------------------|--1--1--1--1--1--1--1--1--1--1--|


     PM PM PM    PM PM PM    PM       PM PM PM    PM PM PM    PM  
  E  S  S  E  E  S  S  E  E  E     E  S  S  E  E  S  S  E  E  E   
--------------------------------|--------------------------------|
--------------------------------|--------------------------------|
--5-----------5-----------5-----|--------------------------------|
--5-----------5-----------5-----|--5-----------5-----------5-----|
--3--3--3--3--3--3--3--3--3--3--|--5-----------5-----------5-----|
--------------------------------|--3--3--3--3--3--3--3--3--3--3--|


     PM PM PM    PM PM PM    PM       PM PM PM    PM PM PM    PM  
  E  S  S  E  E  S  S  E  E  E     E  S  S  E  E  S  S  E  E  E   
--------------------------------|--------------------------------|
--------------------------------|--------------------------------|
--2-----------2-----------2-----|--------------------------------|
--2-----------2-----------2-----|--3-----------3-----------3-----|
--0--0--0--0--0--0--0--0--0--0--|--3-----------3-----------3-----|
--------------------------------|--1--1--1--1--1--1--1--1--1--1--|


     PM PM PM    PM PM PM    PM                           
  E  S  S  E  E  S  S  E  E  E     E  E  Q    E  E  Q     
--------------------------------|------------------------|
--------------------------------|------------------------|
--5-----------5-----------5-----|------------------------|
--5-----------5-----------5-----|--5--5-------5--5-------|
--3--3--3--3--3--3--3--3--3--3--|--5--5-------5--5-------|
--------------------------------|--3--3-------3--3-------|


     PM PM PM PM    PM PM PM PM    PM PM  
  E  S  S  S  S  E  S  S  S  S  E  S  S   
-----------------------------------------|
-----------------------------------------|
--2--------------2--------------2--------|
--2--------------2--------------2--------|
--0--0--0--0--0--0--0--0--0--0--0--0--0--|
-----------------------------------------|


     PM PM PM PM    PM PM PM PM    PM PM  
  E  S  S  S  S  E  S  S  S  S  E  S  S   
-----------------------------------------|
-----------------------------------------|
-----------------------------------------|
--3--------------3--------------3--------|
--3--------------3--------------3--------|
--1--1--1--1--1--1--1--1--1--1--1--1--1--|


     PM PM PM PM    PM PM PM PM    PM PM  
  E  S  S  S  S  E  S  S  S  S  E  S  S   
-----------------------------------------|
-----------------------------------------|
--5--------------5--------------5--------|
--5--------------5--------------5--------|
--3--3--3--3--3--3--3--3--3--3--3--3--3--|
-----------------------------------------|


     PM PM PM PM    PM PM PM PM    PM PM  
  E  S  S  S  S  E  S  S  S  S  E  S  S   
-----------------------------------------|
-----------------------------------------|
-----------------------------------------|
--5--------------5--------------5--------|
--5--------------5--------------5--------|
--3--3--3--3--3--3--3--3--3--3--3--3--3--|


     PM PM PM PM    PM PM PM PM    PM PM  
  E  S  S  S  S  E  S  S  S  S  E  S  S   
-----------------------------------------|
-----------------------------------------|
--2--------------2--------------2--------|
--2--------------2--------------2--------|
--0--0--0--0--0--0--0--0--0--0--0--0--0--|
-----------------------------------------|


     PM PM PM PM    PM PM PM PM    PM PM  
  E  S  S  S  S  E  S  S  S  S  E  S  S   
-----------------------------------------|
-----------------------------------------|
-----------------------------------------|
--3--------------3--------------3--------|
--3--------------3--------------3--------|
--1--1--1--1--1--1--1--1--1--1--1--1--1--|


     PM PM PM PM    PM PM PM PM    PM PM  
  E  S  S  S  S  E  S  S  S  S  E  S  S   
-----------------------------------------|
-----------------------------------------|
--5--------------5--------------5--------|
--5--------------5--------------5--------|
--3--3--3--3--3--3--3--3--3--3--3--3--3--|
-----------------------------------------|


     PM PM PM PM    PM PM PM PM    PM PM                            
  E  S  S  S  S  E  S  S  S  S  E  S  S     Q    E  E  E  E  E  E   
-----------------------------------------|-------------------------|
-----------------------------------------|-------------------------|
-----------------------------------------|--5----9-----7--9-----5--|
--5--------------5--------------5--------|-------------------------|
--5--------------5--------------5--------|--3----7-----5--7-----3--|
--3--3--3--3--3--3--3--3--3--3--3--3--3--|-------------------------|


  Q    E  E  E  E  E  E     Q    E  E  E  E  E  E     Q    E  E  E  E  E  E   
-------------------------|-------------------------|-------------------------|
-------------------------|-------------------------|-------------------------|
--L----9-----7--9-----5--|--L----9-----7--9-----4--|--L----9-----7--9--7--5--|
-------------------------|-------------------------|-------------------------|
--L----7-----5--7-----3--|--L----7-----5--7-----2--|--L----7-----5--7--5--3--|
-------------------------|-------------------------|-------------------------|


  Q    E  E  E  E  E  E     Q    E  E  E  E  E  E     Q    E  E  E  E  E  E   
-------------------------|-------------------------|-------------------------|
-------------------------|-------------------------|-------------------------|
--L----9-----7--9-----5--|--L----9-----7--9-----5--|--L----9-----7--9-----4--|
-------------------------|-------------------------|-------------------------|
--L----7-----5--7-----3--|--L----7-----5--7-----3--|--L----7-----5--7-----2--|
-------------------------|-------------------------|-------------------------|


                                 PM PM      PM               PM              
  Q    E  E  E  E  E  E     Q    E  E  Q    E  E     E  Q    E  E  E  E  E   
-------------------------|------------------------|-------------------------|
-------------------------|------------------------|-------------4--4--4--4--|
--L----9-----7--9--7--5--|------------------------|-------------2--2--2--2--|
-------------------------|--2----------2-------2--|--L--2-------------------|
--L----7-----5--7--5--3--|--2----2--2--2----2--2--|--L--2----2--------------|
-------------------------|--0----0--0--0----0--0--|--L--0----0--------------|


       PM PM      PM               PM              
  Q    E  E  Q    E  E     E  Q    E  E  E  E  E   
------------------------|-------------------------|
------------------------|-------------4--4--4--4--|
------------------------|-------------2--2--2--2--|
--2----------2-------2--|--L--2-------------------|
--2----2--2--2----2--2--|--L--2----2--------------|
--0----0--0--0----0--0--|--L--0----0--------------|


     PM PM PM PM PM PM    PM PM PM PM       PM PM    PM PM PM PM              
  E  S  S  S  S  S  S  E  S  S  S  S  E     S  S  E  S  S  S  S  E  E  E  E   
-----------------------------------------|-----------------------------------|
-----------------------------------------|-----------------------4--4--4--4--|
-----------------------------------------|-----------------------2--2--2--2--|
--2--------------------2--------------2--|--------2--------------------------|
--2--2--2--2--2--2--2--2--2--2--2--2--2--|--2--2--2--2--2--2--2--------------|
--0--0--0--0--0--0--0--0--0--0--0--0--0--|--0--0--0--0--0--0--0--------------|


     PM PM PM PM    PM PM PM PM    PM PM  
  E  S  S  S  S  E  S  S  S  S  E  S  S   
-----------------------------------------|
-----------------------------------------|
-----------------------------------------|
--2--------------2--------------2--------|
--2--2--2--2--2--2--2--2--2--2--2--2--2--|
--0--0--0--0--0--0--0--0--0--0--0--0--0--|


  PM PM PM PM PM PM PM PM PM PM PM PM PM PM PM PM  
  S  S  S  S  S  S  S  S  S  S  S  S  S  S  S  S   
--------------------------------------------------|
--------------------------------------------------|
--------------------------------------------------|
--------------------------------------------------|
--2--2--2--2--2--2--2--2--2--2--2--2--2--2--2--2--|
--0--0--0--0--0--0--0--0--0--0--0--0--0--0--0--0--|


     PM PM PM    PM PM PM    PM       PM PM PM    PM PM PM    PM  
  E  S  S  E  E  S  S  E  E  E     E  S  S  E  E  S  S  E  E  E   
--------------------------------|--------------------------------|
--------------------------------|--------------------------------|
--2-----------2-----------2-----|--------------------------------|
--2-----------2-----------2-----|--3-----------3-----------3-----|
--0--0--0--0--0--0--0--0--0--0--|--3-----------3-----------3-----|
--------------------------------|--1--1--1--1--1--1--1--1--1--1--|


     PM PM PM    PM PM PM    PM       PM PM PM    PM PM PM    PM  
  E  S  S  E  E  S  S  E  E  E     E  S  S  E  E  S  S  E  E  E   
--------------------------------|--------------------------------|
--------------------------------|--------------------------------|
--5-----------5-----------5-----|--------------------------------|
--5-----------5-----------5-----|--5-----------5-----------5-----|
--3--3--3--3--3--3--3--3--3--3--|--5-----------5-----------5-----|
--------------------------------|--3--3--3--3--3--3--3--3--3--3--|


     PM PM PM    PM PM PM    PM       PM PM PM    PM PM PM    PM  
  E  S  S  E  E  S  S  E  E  E     E  S  S  E  E  S  S  E  E  E   
--------------------------------|--------------------------------|
--------------------------------|--------------------------------|
--2-----------2-----------2-----|--------------------------------|
--2-----------2-----------2-----|--3-----------3-----------3-----|
--0--0--0--0--0--0--0--0--0--0--|--3-----------3-----------3-----|
--------------------------------|--1--1--1--1--1--1--1--1--1--1--|


     PM PM PM    PM PM PM    PM                           
  E  S  S  E  E  S  S  E  E  E     E  E  Q    E  E  Q     
--------------------------------|------------------------|
--------------------------------|------------------------|
--5-----------5-----------5-----|------------------------|
--5-----------5-----------5-----|--5--5-------5--5-------|
--3--3--3--3--3--3--3--3--3--3--|--5--5-------5--5-------|
--------------------------------|--3--3-------3--3-------|


     PM PM PM PM    PM PM PM PM    PM PM  
  E  S  S  S  S  E  S  S  S  S  E  S  S   
-----------------------------------------|
-----------------------------------------|
--2--------------2--------------2--------|
--2--------------2--------------2--------|
--0--0--0--0--0--0--0--0--0--0--0--0--0--|
-----------------------------------------|


     PM PM PM PM    PM PM PM PM    PM PM  
  E  S  S  S  S  E  S  S  S  S  E  S  S   
-----------------------------------------|
-----------------------------------------|
-----------------------------------------|
--3--------------3--------------3--------|
--3--------------3--------------3--------|
--1--1--1--1--1--1--1--1--1--1--1--1--1--|


     PM PM PM PM    PM PM PM PM    PM PM  
  E  S  S  S  S  E  S  S  S  S  E  S  S   
-----------------------------------------|
-----------------------------------------|
--5--------------5--------------5--------|
--5--------------5--------------5--------|
--3--3--3--3--3--3--3--3--3--3--3--3--3--|
-----------------------------------------|


     PM PM PM PM    PM PM PM PM    PM PM  
  E  S  S  S  S  E  S  S  S  S  E  S  S   
-----------------------------------------|
-----------------------------------------|
-----------------------------------------|
--5--------------5--------------5--------|
--5--------------5--------------5--------|
--3--3--3--3--3--3--3--3--3--3--3--3--3--|


     PM PM PM PM    PM PM PM PM    PM PM  
  E  S  S  S  S  E  S  S  S  S  E  S  S   
-----------------------------------------|
-----------------------------------------|
--2--------------2--------------2--------|
--2--------------2--------------2--------|
--0--0--0--0--0--0--0--0--0--0--0--0--0--|
-----------------------------------------|


     PM PM PM PM    PM PM PM PM    PM PM  
  E  S  S  S  S  E  S  S  S  S  E  S  S   
-----------------------------------------|
-----------------------------------------|
-----------------------------------------|
--3--------------3--------------3--------|
--3--------------3--------------3--------|
--1--1--1--1--1--1--1--1--1--1--1--1--1--|


     PM PM PM PM    PM PM PM PM    PM PM  
  E  S  S  S  S  E  S  S  S  S  E  S  S   
-----------------------------------------|
-----------------------------------------|
--5--------------5--------------5--------|
--5--------------5--------------5--------|
--3--3--3--3--3--3--3--3--3--3--3--3--3--|
-----------------------------------------|


     PM PM PM PM    PM PM PM PM    PM PM  
  E  S  S  S  S  E  S  S  S  S  E  S  S   
-----------------------------------------|
-----------------------------------------|
-----------------------------------------|
--5--------------5--------------5--------|
--5--------------5--------------5--------|
--3--3--3--3--3--3--3--3--3--3--3--3--3--|


     PM PM PM PM    PM PM PM PM    PM PM  
  E  S  S  S  S  E  S  S  S  S  E  S  S   
-----------------------------------------|
-----------------------------------------|
--2--------------2--------------2--------|
--2--------------2--------------2--------|
--0--0--0--0--0--0--0--0--0--0--0--0--0--|
-----------------------------------------|


     PM PM PM PM    PM PM PM PM    PM PM  
  E  S  S  S  S  E  S  S  S  S  E  S  S   
-----------------------------------------|
-----------------------------------------|
-----------------------------------------|
--3--------------3--------------3--------|
--3--------------3--------------3--------|
--1--1--1--1--1--1--1--1--1--1--1--1--1--|


     PM PM PM PM    PM PM PM PM    PM PM  
  E  S  S  S  S  E  S  S  S  S  E  S  S   
-----------------------------------------|
-----------------------------------------|
--5--------------5--------------5--------|
--5--------------5--------------5--------|
--3--3--3--3--3--3--3--3--3--3--3--3--3--|
-----------------------------------------|


     PM PM PM PM    PM PM PM PM    PM PM  
  E  S  S  S  S  E  S  S  S  S  E  S  S   
-----------------------------------------|
-----------------------------------------|
-----------------------------------------|
--5--------------5--------------5--------|
--5--------------5--------------5--------|
--3--3--3--3--3--3--3--3--3--3--3--3--3--|


     PM PM PM PM    PM PM PM PM    PM PM  
  E  S  S  S  S  E  S  S  S  S  E  S  S   
-----------------------------------------|
-----------------------------------------|
--2--------------2--------------2--------|
--2--------------2--------------2--------|
--0--0--0--0--0--0--0--0--0--0--0--0--0--|
-----------------------------------------|


     PM PM PM PM    PM PM PM PM    PM PM  
  E  S  S  S  S  E  S  S  S  S  E  S  S   
-----------------------------------------|
-----------------------------------------|
-----------------------------------------|
--3--------------3--------------3--------|
--3--------------3--------------3--------|
--1--1--1--1--1--1--1--1--1--1--1--1--1--|


     PM PM PM PM    PM PM PM PM    PM PM  
  E  S  S  S  S  E  S  S  S  S  E  S  S   
-----------------------------------------|
-----------------------------------------|
--5--------------5--------------5--------|
--5--------------5--------------5--------|
--3--3--3--3--3--3--3--3--3--3--3--3--3--|
-----------------------------------------|


     PM PM PM PM    PM PM PM PM    PM PM                            
  E  S  S  S  S  E  S  S  S  S  E  S  S     Q    E  E  E  E  E  E   
-----------------------------------------|-------------------------|
-----------------------------------------|-------------------------|
-----------------------------------------|--5----9-----7--9-----5--|
--5--------------5--------------5--------|-------------------------|
--5--------------5--------------5--------|--3----7-----5--7-----3--|
--3--3--3--3--3--3--3--3--3--3--3--3--3--|-------------------------|


  Q    E  E  E  E  E  E     Q    E  E  E  E  E  E     Q    E  E  E  E  E  E   
-------------------------|-------------------------|-------------------------|
-------------------------|-------------------------|-------------------------|
--L----9-----7--9-----5--|--L----9-----7--9-----4--|--L----9-----7--9--7--5--|
-------------------------|-------------------------|-------------------------|
--L----7-----5--7-----3--|--L----7-----5--7-----2--|--L----7-----5--7--5--3--|
-------------------------|-------------------------|-------------------------|


  Q    E  E  E  E  E  E     Q    E  E  E  E  E  E     Q    E  E  E  E  E  E   
-------------------------|-------------------------|-------------------------|
-------------------------|-------------------------|-------------------------|
--L----9-----7--9-----5--|--L----9-----7--9-----5--|--L----9-----7--9-----4--|
-------------------------|-------------------------|-------------------------|
--L----7-----5--7-----3--|--L----7-----5--7-----3--|--L----7-----5--7-----2--|
-------------------------|-------------------------|-------------------------|


                            PM PM PM     PM PM PM     PM PM PM    
  Q    E  E  E  E  E  E     S  S  S  E.  S  S  S  E.  S  S  S  S  
-------------------------|---------------------------------------|
-------------------------|---------------------------------------|
--L----9-----7--9--7--5--|---------------------------------------|
-------------------------|---------------------------------------|
--L----7-----5--7--5--3--|--2--2--2------2--2--2------2--2--2----|
-------------------------|--0--0--0------0--0--0------0--0--0----|


     PM PM PM     PM PM PM   PM PM PM    
  E  S  S  S  E.  S  S  S  S S  S  S  S  
----------------------------------------|
----------------------------------------|
----------------------------------------|
----------------------------------------|
-----2--2--2------2--2--2----2--2--2----|
-----0--0--0------0--0--0----0--0--0----|


  PM PM PM     PM PM PM     PM PM PM    
  S  S  S  E.  S  S  S  E.  S  S  S  S  
---------------------------------------|
---------------------------------------|
---------------------------------------|
---------------------------------------|
--2--2--2------2--2--2------2--2--2----|
--0--0--0------0--0--0------0--0--0----|


     PM PM PM     PM PM PM   PM PM PM    
  E  S  S  S  E.  S  S  S  S S  S  S  S  
----------------------------------------|
----------------------------------------|
----------------------------------------|
----------------------------------------|
-----2--2--2------2--2--2----2--2--2----|
-----0--0--0------0--0--0----0--0--0----|


  PM PM PM     PM PM PM     PM PM PM    
  S  S  S  E.  S  S  S  E.  S  S  S  S  
---------------------------------------|
---------------------------------------|
---------------------------------------|
---------------------------------------|
--2--2--2------2--2--2------2--2--2----|
--0--0--0------0--0--0------0--0--0----|


     PM PM PM     PM PM PM   PM PM PM    
  E  S  S  S  E.  S  S  S  S S  S  S  S  
----------------------------------------|
----------------------------------------|
----------------------------------------|
----------------------------------------|
-----2--2--2------2--2--2----2--2--2----|
-----0--0--0------0--0--0----0--0--0----|


  PM PM PM     PM PM PM     PM PM PM    
  S  S  S  E.  S  S  S  E.  S  S  S  S  
---------------------------------------|
---------------------------------------|
---------------------------------------|
---------------------------------------|
--2--2--2------2--2--2------2--2--2----|
--0--0--0------0--0--0------0--0--0----|


     PM PM PM     PM PM PM   PM PM PM           PM PM      PM     
  E  S  S  S  E.  S  S  S  S S  S  S  S    Q    E  E  Q    E  E   
----------------------------------------|------------------------|
----------------------------------------|------------------------|
----------------------------------------|------------------------|
----------------------------------------|--2----------2-------2--|
-----2--2--2------2--2--2----2--2--2----|--2----2--2--2----2--2--|
-----0--0--0------0--0--0----0--0--0----|--0----0--0--0----0--0--|


          PM                     PM PM      PM               PM              
  E  Q    E  E  E  E  E     Q    E  E  Q    E  E     E  Q    E  E  E  E  E   
-------------------------|------------------------|-------------------------|
-------------4--4--4--4--|------------------------|-------------4--4--4--4--|
-------------2--2--2--2--|------------------------|-------------2--2--2--2--|
--L--2-------------------|--2----------2-------2--|--L--2-------------------|
--L--2----2--------------|--2----2--2--2----2--2--|--L--2----2--------------|
--L--0----0--------------|--0----0--0--0----0--0--|--L--0----0--------------|


     PM PM PM PM PM PM    PM PM PM PM       PM PM    PM PM PM PM              
  E  S  S  S  S  S  S  E  S  S  S  S  E     S  S  E  S  S  S  S  E  E  E  E   
-----------------------------------------|-----------------------------------|
-----------------------------------------|-----------------------4--4--4--4--|
-----------------------------------------|-----------------------2--2--2--2--|
--2--------------------2--------------2--|--------2--------------------------|
--2--2--2--2--2--2--2--2--2--2--2--2--2--|--2--2--2--2--2--2--2--------------|
--0--0--0--0--0--0--0--0--0--0--0--0--0--|--0--0--0--0--0--0--0--------------|


     PM PM PM PM    PM PM PM PM    PM PM  
  E  S  S  S  S  E  S  S  S  S  E  S  S   
-----------------------------------------|
-----------------------------------------|
-----------------------------------------|
--2--------------2--------------2--------|
--2--2--2--2--2--2--2--2--2--2--2--2--2--|
--0--0--0--0--0--0--0--0--0--0--0--0--0--|


  PM PM PM PM PM PM PM PM PM PM PM PM PM PM PM PM  
  S  S  S  S  S  S  S  S  S  S  S  S  S  S  S  S   
--------------------------------------------------|
--------------------------------------------------|
--------------------------------------------------|
--------------------------------------------------|
--2--2--2--2--2--2--2--2--2--2--2--2--2--2--2--2--|
--0--0--0--0--0--0--0--0--0--0--0--0--0--0--0--0--|


     PM PM PM PM    PM PM PM PM    PM PM  
  E  S  S  S  S  E  S  S  S  S  E  S  S   
-----------------------------------------|
-----------------------------------------|
--2--------------2--------------2--------|
--2--------------2--------------2--------|
--0--0--0--0--0--0--0--0--0--0--0--0--0--|
-----------------------------------------|


     PM PM PM PM    PM PM PM PM    PM PM  
  E  S  S  S  S  E  S  S  S  S  E  S  S   
-----------------------------------------|
-----------------------------------------|
-----------------------------------------|
--3--------------3--------------3--------|
--3--------------3--------------3--------|
--1--1--1--1--1--1--1--1--1--1--1--1--1--|


     PM PM PM PM    PM PM PM PM    PM PM  
  E  S  S  S  S  E  S  S  S  S  E  S  S   
-----------------------------------------|
-----------------------------------------|
--5--------------5--------------5--------|
--5--------------5--------------5--------|
--3--3--3--3--3--3--3--3--3--3--3--3--3--|
-----------------------------------------|


     PM PM PM PM    PM PM PM PM    PM PM  
  E  S  S  S  S  E  S  S  S  S  E  S  S   
-----------------------------------------|
-----------------------------------------|
-----------------------------------------|
--5--------------5--------------5--------|
--5--------------5--------------5--------|
--3--3--3--3--3--3--3--3--3--3--3--3--3--|


     PM PM PM PM    PM PM PM PM    PM PM  
  E  S  S  S  S  E  S  S  S  S  E  S  S   
-----------------------------------------|
-----------------------------------------|
--2--------------2--------------2--------|
--2--------------2--------------2--------|
--0--0--0--0--0--0--0--0--0--0--0--0--0--|
-----------------------------------------|


     PM PM PM PM    PM PM PM PM    PM PM  
  E  S  S  S  S  E  S  S  S  S  E  S  S   
-----------------------------------------|
-----------------------------------------|
-----------------------------------------|
--3--------------3--------------3--------|
--3--------------3--------------3--------|
--1--1--1--1--1--1--1--1--1--1--1--1--1--|


     PM PM PM PM    PM PM PM PM    PM PM  
  E  S  S  S  S  E  S  S  S  S  E  S  S   
-----------------------------------------|
-----------------------------------------|
--5--------------5--------------5--------|
--5--------------5--------------5--------|
--3--3--3--3--3--3--3--3--3--3--3--3--3--|
-----------------------------------------|


     PM PM PM PM    PM PM PM PM    PM PM  
  E  S  S  S  S  E  S  S  S  S  E  S  S   
-----------------------------------------|
-----------------------------------------|
-----------------------------------------|
--5--------------5--------------5--------|
--5--------------5--------------5--------|
--3--3--3--3--3--3--3--3--3--3--3--3--3--|


     PM PM PM PM    PM PM PM PM    PM PM  
  E  S  S  S  S  E  S  S  S  S  E  S  S   
-----------------------------------------|
-----------------------------------------|
--2--------------2--------------2--------|
--2--------------2--------------2--------|
--0--0--0--0--0--0--0--0--0--0--0--0--0--|
-----------------------------------------|


     PM PM PM PM    PM PM PM PM    PM PM  
  E  S  S  S  S  E  S  S  S  S  E  S  S   
-----------------------------------------|
-----------------------------------------|
-----------------------------------------|
--3--------------3--------------3--------|
--3--------------3--------------3--------|
--1--1--1--1--1--1--1--1--1--1--1--1--1--|


     PM PM PM PM    PM PM PM PM    PM PM  
  E  S  S  S  S  E  S  S  S  S  E  S  S   
-----------------------------------------|
-----------------------------------------|
--5--------------5--------------5--------|
--5--------------5--------------5--------|
--3--3--3--3--3--3--3--3--3--3--3--3--3--|
-----------------------------------------|


     PM PM PM PM    PM PM PM PM    PM PM  
  E  S  S  S  S  E  S  S  S  S  E  S  S   
-----------------------------------------|
-----------------------------------------|
-----------------------------------------|
--5--------------5--------------5--------|
--5--------------5--------------5--------|
--3--3--3--3--3--3--3--3--3--3--3--3--3--|


     PM PM PM PM    PM PM PM PM    PM PM  
  E  S  S  S  S  E  S  S  S  S  E  S  S   
-----------------------------------------|
-----------------------------------------|
--2--------------2--------------2--------|
--2--------------2--------------2--------|
--0--0--0--0--0--0--0--0--0--0--0--0--0--|
-----------------------------------------|


     PM PM PM PM    PM PM PM PM    PM PM  
  E  S  S  S  S  E  S  S  S  S  E  S  S   
-----------------------------------------|
-----------------------------------------|
-----------------------------------------|
--3--------------3--------------3--------|
--3--------------3--------------3--------|
--1--1--1--1--1--1--1--1--1--1--1--1--1--|


     PM PM PM PM    PM PM PM PM    PM PM                            
  E  S  S  S  S  E  S  S  S  S  E  S  S     E  E  Q    E  E  Q      
-----------------------------------------|------------------------||
-----------------------------------------|------------------------||
--5--------------5--------------5--------|------------------------||
--5--------------5--------------5--------|--5--5-------5--5-------||
--3--3--3--3--3--3--3--3--3--3--3--3--3--|--5--5-------5--5-------||
-----------------------------------------|--3--3-------3--3-------||

Bass Guitar

     W                   W                   W                 
G||-------------------|-------------------|-------------------|
D||-------------------|-------------------|-------------------|
A||-------------------|-------------------|-------------------|
E||-------------------|-------------------|-------------------|
B||-------------------|-------------------|-------------------|


  W                   W                   W                   W                 
-------------------|-------------------|-------------------|-------------------|
-------------------|-------------------|-------------------|-------------------|
-------------------|-------------------|-------------------|-------------------|
-------------------|-------------------|-------------------|-------------------|
-------------------|-------------------|-------------------|-------------------|


  W                   E  S S S S S S E  S S S S E   
-------------------|-------------------------------|
-------------------|-------------------------------|
-------------------|-------------------------------|
-------------------|-------------------------------|
-------------------|--0--0-0-0-0-0-0-0--0-0-0-0-0--|


  S S E  S S S S E  E  E  E     E  S S S S S S E  S S S S E   
-----------------------------|-------------------------------|
-----------------------------|-------------------------------|
-----------------------------|-------------------------------|
-----------------0--0--0--0--|-------------------------------|
--0-0-0--0-0-0-0-------------|--0--0-0-0-0-0-0-0--0-0-0-0-0--|


  S S E  S S S S E  E  E  E     E  S S S S S S E  S S S S E   
-----------------------------|-------------------------------|
-----------------------------|-------------------------------|
-----------------------------|-------------------------------|
-----------------0--0--0--0--|-------------------------------|
--0-0-0--0-0-0-0-------------|--0--0-0-0-0-0-0-0--0-0-0-0-0--|


  S S E  S S S S E  E  E  E     E  S S S S E  S S S S E  S S  
-----------------------------|-------------------------------|
-----------------------------|-------------------------------|
-----------------------------|-------------------------------|
-----------------0--0--0--0--|-------------------------------|
--0-0-0--0-0-0-0-------------|--0--0-0-0-0-0--0-0-0-0-0--0-0-|


  S S S S S S S S S S S S S S S S    E  S S E  E  S S E  E  E   
----------------------------------|----------------------------|
----------------------------------|----------------------------|
----------------------------------|----------------------------|
----------------------------------|--0--0-0-0--0--0-0-0--0--0--|
--0-0-0-0-0-0-0-0-0-0-0-0-0-0-0-0-|----------------------------|


  E  S S E  E  S S E  E  E     E  S S E  E  S S E  E  E   
----------------------------|----------------------------|
----------------------------|----------------------------|
----------------------------|----------------------------|
----------------------------|--3--3-3-3--3--3-3-3--3--3--|
--1--1-1-1--1--1-1-1--1--1--|----------------------------|


  E  S S E  E  S S E  E  E     E  S S E  E  S S E  E  E   
----------------------------|----------------------------|
----------------------------|----------------------------|
----------------------------|----------------------------|
----------------------------|--0--0-0-0--0--0-0-0--0--0--|
--3--3-3-3--3--3-3-3--3--3--|----------------------------|


  E  S S E  E  S S E  E  E     E  S S E  E  S S E  E  E   
----------------------------|----------------------------|
----------------------------|----------------------------|
----------------------------|----------------------------|
----------------------------|--3--3-3-3--3--3-3-3--3--3--|
--1--1-1-1--1--1-1-1--1--1--|----------------------------|


  E  E  Q    E  E  Q       E  S S S S E  S S S S E  S S  
------------------------|-------------------------------|
------------------------|-------------------------------|
------------------------|-------------------------------|
------------------------|--0--0-0-0-0-0--0-0-0-0-0--0-0-|
--3--3-------3--3-------|-------------------------------|


  E  S S S S E  S S S S E  S S    E  S S S S E  S S S S E  S S  
-------------------------------|-------------------------------|
-------------------------------|-------------------------------|
-------------------------------|-------------------------------|
-------------------------------|--3--3-3-3-3-3--3-3-3-3-3--3-3-|
--1--1-1-1-1-1--1-1-1-1-1--1-1-|-------------------------------|


  E  S S S S E  S S S S E  S S    E  S S S S E  S S S S E  S S  
-------------------------------|-------------------------------|
-------------------------------|-------------------------------|
-------------------------------|-------------------------------|
-------------------------------|--0--0-0-0-0-0--0-0-0-0-0--0-0-|
--3--3-3-3-3-3--3-3-3-3-3--3-3-|-------------------------------|


  E  S S S S E  S S S S E  S S    E  S S S S E  S S S S E  S S  
-------------------------------|-------------------------------|
-------------------------------|-------------------------------|
-------------------------------|-------------------------------|
-------------------------------|--3--3-3-3-3-3--3-3-3-3-3--3-3-|
--1--1-1-1-1-1--1-1-1-1-1--1-1-|-------------------------------|


  E  S S S S E  S S S S E  S S    Q    E  E  E  E  E  E   
-------------------------------|-------------------------|
-------------------------------|-------------------------|
-------------------------------|-------2-----0--2--------|
-------------------------------|--3-------------------3--|
--3--3-3-3-3-3--3-3-3-3-3--3-3-|-------------------------|


  Q    E  E  E  E  E  E     Q    E  E  E  E  E  E     Q    E  E  E  E  E  E   
-------------------------|-------------------------|-------------------------|
-------------------------|-------------------------|-------------------------|
-------2-----0--2--------|-------2-----0--2--------|-------2-----0--2--0-----|
--L-------------------3--|--L-------------------2--|--L-------------------3--|
-------------------------|-------------------------|-------------------------|


  Q    E  E  E  E  E  E     Q    E  E  E  E  E  E     Q    E  E  E  E  E  E   
-------------------------|-------------------------|-------------------------|
-------------------------|-------------------------|-------------------------|
-------2-----0--2--------|-------2-----0--2--------|-------2-----0--2--------|
--L-------------------3--|--L-------------------3--|--L-------------------2--|
-------------------------|-------------------------|-------------------------|


  Q    E  E  E  E  E  E     Q    E  E  Q    E  E     E  Q    E  E  E  E  E   
-------------------------|------------------------|-------------------------|
-------------------------|------------------------|-------------------------|
-------2-----0--2--0-----|------------------------|-------------------------|
--L-------------------3--|------------------------|-------------0--0--0--0--|
-------------------------|--0----0--0--0----0--0--|--L--0----0--------------|


  Q    E  E  Q    E  E     E  Q    E  E  E  E  E   
------------------------|-------------------------|
------------------------|-------------------------|
------------------------|-------------------------|
------------------------|-------------0--0--0--0--|
--0----0--0--0----0--0--|--L--0----0--------------|


  E  S S S S S S E  S S S S E     S S E  S S S S E  E  E  E   
-------------------------------|-----------------------------|
-------------------------------|-----------------------------|
-------------------------------|-----------------------------|
-------------------------------|-----------------0--0--0--0--|
--0--0-0-0-0-0-0-0--0-0-0-0-0--|--0-0-0--0-0-0-0-------------|


  E  S S S S E  S S S S E  S S    S S S S S S S S S S S S S S S S  
-------------------------------|----------------------------------|
-------------------------------|----------------------------------|
-------------------------------|----------------------------------|
-------------------------------|----------------------------------|
--0--0-0-0-0-0--0-0-0-0-0--0-0-|--0-0-0-0-0-0-0-0-0-0-0-0-0-0-0-0-|


  E  S S E  E  S S E  E  E     E  S S E  E  S S E  E  E   
----------------------------|----------------------------|
----------------------------|----------------------------|
----------------------------|----------------------------|
--0--0-0-0--0--0-0-0--0--0--|----------------------------|
----------------------------|--1--1-1-1--1--1-1-1--1--1--|


  E  S S E  E  S S E  E  E     E  S S E  E  S S E  E  E   
----------------------------|----------------------------|
----------------------------|----------------------------|
----------------------------|----------------------------|
--3--3-3-3--3--3-3-3--3--3--|----------------------------|
----------------------------|--3--3-3-3--3--3-3-3--3--3--|


  E  S S E  E  S S E  E  E     E  S S E  E  S S E  E  E   
----------------------------|----------------------------|
----------------------------|----------------------------|
----------------------------|----------------------------|
--0--0-0-0--0--0-0-0--0--0--|----------------------------|
----------------------------|--1--1-1-1--1--1-1-1--1--1--|


  E  S S E  E  S S E  E  E     E  E  Q    E  E  Q     
----------------------------|------------------------|
----------------------------|------------------------|
----------------------------|------------------------|
--3--3-3-3--3--3-3-3--3--3--|------------------------|
----------------------------|--3--3-------3--3-------|


  E  S S S S E  S S S S E  S S    E  S S S S E  S S S S E  S S  
-------------------------------|-------------------------------|
-------------------------------|-------------------------------|
-------------------------------|-------------------------------|
--0--0-0-0-0-0--0-0-0-0-0--0-0-|-------------------------------|
-------------------------------|--1--1-1-1-1-1--1-1-1-1-1--1-1-|


  E  S S S S E  S S S S E  S S    E  S S S S E  S S S S E  S S  
-------------------------------|-------------------------------|
-------------------------------|-------------------------------|
-------------------------------|-------------------------------|
--3--3-3-3-3-3--3-3-3-3-3--3-3-|-------------------------------|
-------------------------------|--3--3-3-3-3-3--3-3-3-3-3--3-3-|


  E  S S S S E  S S S S E  S S    E  S S S S E  S S S S E  S S  
-------------------------------|-------------------------------|
-------------------------------|-------------------------------|
-------------------------------|-------------------------------|
--0--0-0-0-0-0--0-0-0-0-0--0-0-|-------------------------------|
-------------------------------|--1--1-1-1-1-1--1-1-1-1-1--1-1-|


  E  S S S S E  S S S S E  S S    E  S S S S E  S S S S E  S S  
-------------------------------|-------------------------------|
-------------------------------|-------------------------------|
-------------------------------|-------------------------------|
--3--3-3-3-3-3--3-3-3-3-3--3-3-|-------------------------------|
-------------------------------|--3--3-3-3-3-3--3-3-3-3-3--3-3-|


  Q    E  E  E  E  E  E     Q    E  E  E  E  E  E     Q    E  E  E  E  E  E   
-------------------------|-------------------------|-------------------------|
-------------------------|-------------------------|-------------------------|
-------2-----0--2--------|-------2-----0--2--------|-------2-----0--2--------|
--3-------------------3--|--L-------------------3--|--L-------------------2--|
-------------------------|-------------------------|-------------------------|


  Q    E  E  E  E  E  E     Q    E  E  E  E  E  E     Q    E  E  E  E  E  E   
-------------------------|-------------------------|-------------------------|
-------------------------|-------------------------|-------------------------|
-------2-----0--2--0-----|-------2-----0--2--------|-------2-----0--2--------|
--L-------------------3--|--L-------------------3--|--L-------------------3--|
-------------------------|-------------------------|-------------------------|


  Q    E  E  E  E  E  E     Q    E  E  E  E  E  E     Q    E  E  Q    E  E   
-------------------------|-------------------------|------------------------|
-------------------------|-------------------------|------------------------|
-------2-----0--2--------|-------2-----0--2--0-----|------------------------|
--L-------------------2--|--L-------------------3--|------------------------|
-------------------------|-------------------------|--0----0--0--0----0--0--|


  E  Q    E  E  E  E  E     Q    E  E  Q    E  E     E  Q    E  E  E  E  E   
-------------------------|------------------------|-------------------------|
-------------------------|------------------------|-------------------------|
-------------------------|------------------------|-------------------------|
-------------0--0--0--0--|------------------------|-------------0--0--0--0--|
--L--0----0--------------|--0----0--0--0----0--0--|--L--0----0--------------|


  E  S S S S S S E  S S S S E     S S E  S S S S E  E  E  E   
-------------------------------|-----------------------------|
-------------------------------|-----------------------------|
-------------------------------|-----------------------------|
-------------------------------|-----------------0--0--0--0--|
--0--0-0-0-0-0-0-0--0-0-0-0-0--|--0-0-0--0-0-0-0-------------|


  E  S S S S E  S S S S E  S S    S S S S S S S S S S S S S S S S  
-------------------------------|----------------------------------|
-------------------------------|----------------------------------|
-------------------------------|----------------------------------|
-------------------------------|----------------------------------|
--0--0-0-0-0-0--0-0-0-0-0--0-0-|--0-0-0-0-0-0-0-0-0-0-0-0-0-0-0-0-|


  E  S S E  E  S S E  E  E     E  S S E  E  S S E  E  E   
----------------------------|----------------------------|
----------------------------|----------------------------|
----------------------------|----------------------------|
--0--0-0-0--0--0-0-0--0--0--|----------------------------|
----------------------------|--1--1-1-1--1--1-1-1--1--1--|


  E  S S E  E  S S E  E  E     E  S S E  E  S S E  E  E   
----------------------------|----------------------------|
----------------------------|----------------------------|
----------------------------|----------------------------|
--3--3-3-3--3--3-3-3--3--3--|----------------------------|
----------------------------|--3--3-3-3--3--3-3-3--3--3--|


  E  S S E  E  S S E  E  E     E  S S E  E  S S E  E  E   
----------------------------|----------------------------|
----------------------------|----------------------------|
----------------------------|----------------------------|
--0--0-0-0--0--0-0-0--0--0--|----------------------------|
----------------------------|--1--1-1-1--1--1-1-1--1--1--|


  E  S S E  E  S S E  E  E     E  E  Q    E  E  Q     
----------------------------|------------------------|
----------------------------|------------------------|
----------------------------|------------------------|
--3--3-3-3--3--3-3-3--3--3--|------------------------|
----------------------------|--3--3-------3--3-------|


  E  S S S S E  S S S S E  S S    E  S S S S E  S S S S E  S S  
-------------------------------|-------------------------------|
-------------------------------|-------------------------------|
-------------------------------|-------------------------------|
--0--0-0-0-0-0--0-0-0-0-0--0-0-|-------------------------------|
-------------------------------|--1--1-1-1-1-1--1-1-1-1-1--1-1-|


  E  S S S S E  S S S S E  S S    E  S S S S E  S S S S E  S S  
-------------------------------|-------------------------------|
-------------------------------|-------------------------------|
-------------------------------|-------------------------------|
--3--3-3-3-3-3--3-3-3-3-3--3-3-|-------------------------------|
-------------------------------|--3--3-3-3-3-3--3-3-3-3-3--3-3-|


  E  S S S S E  S S S S E  S S    E  S S S S E  S S S S E  S S  
-------------------------------|-------------------------------|
-------------------------------|-------------------------------|
-------------------------------|-------------------------------|
--0--0-0-0-0-0--0-0-0-0-0--0-0-|-------------------------------|
-------------------------------|--1--1-1-1-1-1--1-1-1-1-1--1-1-|


  E  S S S S E  S S S S E  S S    E  S S S S E  S S S S E  S S  
-------------------------------|-------------------------------|
-------------------------------|-------------------------------|
-------------------------------|-------------------------------|
--3--3-3-3-3-3--3-3-3-3-3--3-3-|-------------------------------|
-------------------------------|--3--3-3-3-3-3--3-3-3-3-3--3-3-|


   E    S   S   S   S   E    S   S   S   S   E    S   S   
---------------------------------------------------------|
---------------------------------------------------------|
---------------------------------------------------------|
--(0)--(0)-(0)-(0)-(0)-(0)--(0)-(0)-(0)-(0)-(0)--(0)-(0)-|
---------------------------------------------------------|


   E    S   S   S   S   E    S   S   S   S   E    S   S   
---------------------------------------------------------|
---------------------------------------------------------|
---------------------------------------------------------|
---------------------------------------------------------|
--(1)--(1)-(1)-(1)-(1)-(1)--(1)-(1)-(1)-(1)-(1)--(1)-(1)-|


   E    S   S   S   S   E    S   S   S   S   E    S   S   
---------------------------------------------------------|
---------------------------------------------------------|
---------------------------------------------------------|
--(3)--(3)-(3)-(3)-(3)-(3)--(3)-(3)-(3)-(3)-(3)--(3)-(3)-|
---------------------------------------------------------|


   E    S   S   S   S   E    S   S   S   S   E    S   S   
---------------------------------------------------------|
---------------------------------------------------------|
---------------------------------------------------------|
---------------------------------------------------------|
--(3)--(3)-(3)-(3)-(3)-(3)--(3)-(3)-(3)-(3)-(3)--(3)-(3)-|


   E    S   S   S   S   E    S   S   S   S   E    S   S   
---------------------------------------------------------|
---------------------------------------------------------|
---------------------------------------------------------|
--(0)--(0)-(0)-(0)-(0)-(0)--(0)-(0)-(0)-(0)-(0)--(0)-(0)-|
---------------------------------------------------------|


   E    S   S   S   S   E    S   S   S   S   E    S   S   
---------------------------------------------------------|
---------------------------------------------------------|
---------------------------------------------------------|
---------------------------------------------------------|
--(1)--(1)-(1)-(1)-(1)-(1)--(1)-(1)-(1)-(1)-(1)--(1)-(1)-|


   E    S   S   S   S   E    S   S   S   S   E    S   S   
---------------------------------------------------------|
---------------------------------------------------------|
---------------------------------------------------------|
--(3)--(3)-(3)-(3)-(3)-(3)--(3)-(3)-(3)-(3)-(3)--(3)-(3)-|
---------------------------------------------------------|


   E    S   S   S   S   E    S   S   S   S   E    S   S   
---------------------------------------------------------|
---------------------------------------------------------|
---------------------------------------------------------|
---------------------------------------------------------|
--(3)--(3)-(3)-(3)-(3)-(3)--(3)-(3)-(3)-(3)-(3)--(3)-(3)-|


  Q    E  E  E  E  E  E     Q    E  E  E  E  E  E     Q    E  E  E  E  E  E   
-------------------------|-------------------------|-------------------------|
-------------------------|-------------------------|-------------------------|
-------2-----0--2--------|-------2-----0--2--------|-------2-----0--2--------|
--3-------------------3--|--L-------------------3--|--L-------------------2--|
-------------------------|-------------------------|-------------------------|


  Q    E  E  E  E  E  E     Q    E  E  E  E  E  E     Q    E  E  E  E  E  E   
-------------------------|-------------------------|-------------------------|
-------------------------|-------------------------|-------------------------|
-------2-----0--2--0-----|-------2-----0--2--------|-------2-----0--2--------|
--L-------------------3--|--L-------------------3--|--L-------------------3--|
-------------------------|-------------------------|-------------------------|


  Q    E  E  E  E  E  E     Q    E  E  E  E  E  E   
-------------------------|-------------------------|
-------------------------|-------------------------|
-------2-----0--2--------|-------2-----0--2--0-----|
--L-------------------2--|--L-------------------3--|
-------------------------|-------------------------|


  S S S E.  S S S E.  S S S S    E  S S S E.  S S S S S S S S  
------------------------------|-------------------------------|
------------------------------|-------------------------------|
------------------------------|-------------------------------|
------------------------------|-------------------------------|
--0-0-0-----0-0-0-----0-0-0---|-----0-0-0-----0-0-0---0-0-0---|


  S S S E.  S S S E.  S S S S    E  S S S E.  S S S S S S S S  
------------------------------|-------------------------------|
------------------------------|-------------------------------|
------------------------------|-------------------------------|
------------------------------|-------------------------------|
--0-0-0-----0-0-0-----0-0-0---|-----0-0-0-----0-0-0---0-0-0---|


  S S S E.  S S S E.  S S S S    E  S S S E.  S S S S S S S S  
------------------------------|-------------------------------|
------------------------------|-------------------------------|
------------------------------|-------------------------------|
------------------------------|-------------------------------|
--0-0-0-----0-0-0-----0-0-0---|-----0-0-0-----0-0-0---0-0-0---|


  S S S E.  S S S E.  S S S S    E  S S S E.  S S S S S S S S  
------------------------------|-------------------------------|
------------------------------|-------------------------------|
------------------------------|-------------------------------|
------------------------------|-------------------------------|
--0-0-0-----0-0-0-----0-0-0---|-----0-0-0-----0-0-0---0-0-0---|


  Q    E  E  Q    E  E     E  Q    E  E  E  E  E     Q    E  E  Q    E  E   
------------------------|-------------------------|------------------------|
------------------------|-------------------------|------------------------|
------------------------|-------------------------|------------------------|
------------------------|-------------0--0--0--0--|------------------------|
--0----0--0--0----0--0--|--L--0----0--------------|--0----0--0--0----0--0--|


  E  Q    E  E  E  E  E     E  S S S S S S E  S S S S E   
-------------------------|-------------------------------|
-------------------------|-------------------------------|
-------------------------|-------------------------------|
-------------0--0--0--0--|-------------------------------|
--L--0----0--------------|--0--0-0-0-0-0-0-0--0-0-0-0-0--|


  S S E  S S S S E  E  E  E     E  S S S S E  S S S S E  S S  
-----------------------------|-------------------------------|
-----------------------------|-------------------------------|
-----------------------------|-------------------------------|
-----------------0--0--0--0--|-------------------------------|
--0-0-0--0-0-0-0-------------|--0--0-0-0-0-0--0-0-0-0-0--0-0-|


  S S S S S S S S S S S S S S S S    E  S S S S E  S S S S E  S S  
----------------------------------|-------------------------------|
----------------------------------|-------------------------------|
----------------------------------|-------------------------------|
----------------------------------|--0--0-0-0-0-0--0-0-0-0-0--0-0-|
--0-0-0-0-0-0-0-0-0-0-0-0-0-0-0-0-|-------------------------------|


  E  S S S S E  S S S S E  S S    E  S S S S E  S S S S E  S S  
-------------------------------|-------------------------------|
-------------------------------|-------------------------------|
-------------------------------|-------------------------------|
-------------------------------|--3--3-3-3-3-3--3-3-3-3-3--3-3-|
--1--1-1-1-1-1--1-1-1-1-1--1-1-|-------------------------------|


  E  S S S S E  S S S S E  S S    E  S S S S E  S S S S E  S S  
-------------------------------|-------------------------------|
-------------------------------|-------------------------------|
-------------------------------|-------------------------------|
-------------------------------|--0--0-0-0-0-0--0-0-0-0-0--0-0-|
--3--3-3-3-3-3--3-3-3-3-3--3-3-|-------------------------------|


  E  S S S S E  S S S S E  S S    E  S S S S E  S S S S E  S S  
-------------------------------|-------------------------------|
-------------------------------|-------------------------------|
-------------------------------|-------------------------------|
-------------------------------|--3--3-3-3-3-3--3-3-3-3-3--3-3-|
--1--1-1-1-1-1--1-1-1-1-1--1-1-|-------------------------------|


  E  S S S S E  S S S S E  S S    E  S S S S E  S S S S E  S S  
-------------------------------|-------------------------------|
-------------------------------|-------------------------------|
-------------------------------|-------------------------------|
-------------------------------|--0--0-0-0-0-0--0-0-0-0-0--0-0-|
--3--3-3-3-3-3--3-3-3-3-3--3-3-|-------------------------------|


  E  S S S S E  S S S S E  S S    E  S S S S E  S S S S E  S S  
-------------------------------|-------------------------------|
-------------------------------|-------------------------------|
-------------------------------|-------------------------------|
-------------------------------|--3--3-3-3-3-3--3-3-3-3-3--3-3-|
--1--1-1-1-1-1--1-1-1-1-1--1-1-|-------------------------------|


  E  S S S S E  S S S S E  S S    E  S S S S E  S S S S E  S S  
-------------------------------|-------------------------------|
-------------------------------|-------------------------------|
-------------------------------|-------------------------------|
-------------------------------|--0--0-0-0-0-0--0-0-0-0-0--0-0-|
--3--3-3-3-3-3--3-3-3-3-3--3-3-|-------------------------------|


  E  S S S S E  S S S S E  S S    E  S S S S E  S S S S E  S S  
-------------------------------|-------------------------------|
-------------------------------|-------------------------------|
-------------------------------|-------------------------------|
-------------------------------|--3--3-3-3-3-3--3-3-3-3-3--3-3-|
--1--1-1-1-1-1--1-1-1-1-1--1-1-|-------------------------------|


  E  E  Q    E  E  Q      
------------------------||
------------------------||
------------------------||
------------------------||
--3--3-------3--3-------||




Duration Legend
---------------
W - whole
H - half
Q - quarter
E - 8th
S - 16th
T - 32nd
X - 64th
. - note dotted
|-n-|  - n-tuplets


Tablature Legend
----------------
L - tied note
x - dead note
g - grace note
(n) - ghost note
> - accentuded note
NH - natural harmonic
AH - artificial harmonic
TH - tapped harmonic
SH - semi harmonic
PH - pitch harmonic
h - hammer on
p - pull off
b - bend
br - bendRelease
pb - preBend
pbr - preBendRelease
brb - bendReleaseBend
\n/ - tremolo bar dip
\n - tremolo bar dive
-/n - tremolo bar Release up
/n\ - tremolo bar inverted dip
/n - tremolo bar return
-\n - tremolo bar Release down
S - shift slide
s - legato slide
/ -  slide into from below or out of upwards
\ -  slide into from above or out of downwards
~ - vibrato
W - wide vibrato
tr - trill
TP - tremolo picking
T - tapping
S - slap
P - pop
< - fade in
^ - brush up
v - brush down
comments
print report bad tab
I want to post or [tab]
guest
You may want to rate the tab now too:
select rating
Please do not post tabs as comments. Select "correction" instead!