Oops, an error
Loading. Please wait.

Do It Again Acoustic Tab

ver2
ver2

Whole song

More versions @911Tabs.com
489 views 1 this week
no commentswrite comment
1 2 3 4 5
please rate
Autoscroll
+/-
esc
set tempo
stop
Contributor
Difficulty
intermediate
WARNING: You are trying to view
                                    content from Ultimate-Guitar.com
                                    in an unauthorized application,
                                    which is prohibited.

                                    Please use an official Ultimate
                                    Guitar Tabs application for iPhone,
                                    iPad or Android to access legitimate
                                    chords, guitar, bass, and drum tabs
                                    from Ultimate-Guitar.com database.

                                    Type "ultimate guitar tabs" in Apple
                                    App Store's or Android Market's
                                    search to find the application.
Capo on the 3rd Fret

Intro
e|---------x--------------x--------x------------x----|
b|-------3-x------------2-x------3-x----------0-x----|
g|---------x-0---------2--x--------x-0----------x-0--|X2
d|-----2---x--2---0h2-2---x-----2--x--2------1--x--1-|X2
a|--0h2----x------0-------x--0h3---x------0h2---x----|
E|--x------x--------------x--------x------------x----|

Verse 1
e|---------x--------------x--------x------------x----|
b|-------3-x------------2-x------3-x----------0-x----|
g|---------x-0---------2--x--------x-0----------x-0--|
d|-----2---x--2---0h2-2---x-----2--x--2------1--x--1-|
a|--0h2----x------0-------x--0h3---x------0h2---x----|
E|--x------x--------------x--------x------------x----|

e|---------x--------------x--------x------------x----|
b|-------3-x------------2-x------3-x----------0-x----|
g|---------x-0---------2--x--------x-0----------x-0--|
d|-----2---x--2---0h2-2---x-----2--x--2------1--x--1-|
a|--0h2----x------0-------x--0h3---x------0h2---x----|
E|--x------x--------------x--------x------------x----|

e|---------x--------------x--------x------------x----|
b|-------3-x------------2-x------3-x----------0-x----|
g|---------x-0---------2--x--------x-0----------x-0--|
d|-----2---x--2---0h2-2---x-----2--x--2------1--x--1-|
a|--0h2----x------0-------x--0h3---x------0h2---x----|
E|--x------x--------------x--------x------------x----|

Chorus 1

e|---------x--------------x--------x-------0-0-------|
b|-------3-x------------2-x------3-x------------0----|
g|---------x-0---------2--x--------x-0-----2-2---2---|
d|-----2---x--2---0h2-2---x-----2--x--2--------1-----|
a|--0h2----x------0-------x--0h3---x-------2-2-------|
E|--x------x--------------x--------x-----------------|

e|---------x--------------x--------x------------x----|
b|-------3-x------------2-x------3-x----------0-x----|
g|---------x-0---------2--x--------x-0----------x-0--|
d|-----2---x--2---0h2-2---x-----2--x--2------1--x--1-|
a|--0h2----x------0-------x--0h3---x------0h2---x----|
E|--x------x--------------x--------x------------x----|

e|---------x--------------x--------x-------0-0-------|
b|-------3-x------------2-x------3-x------------0----|
g|---------x-0---------2--x--------x-0-----2-2---2---|
d|-----2---x--2---0h2-2---x-----2--x--2--------1-----|
a|--0h2----x------0-------x--0h3---x-------2-2-------|
E|--x------x--------------x--------x-----------------|


e|---------x--------------x--------x-----------0-----|
b|-------3-x------------2-x------3-x----------0------|
g|---------x-0---------2--x--------x-0-------2-------|
d|-----2---x--2---0h2-2---x-----2--x--2-----1--------|
a|--0h2----x------0-------x--0h3---x-------2---------|
E|--x------x--------------x--------x-------x---------|

Riff A

e|--00-x--00--xxxx--x--00--00--x--00--0---------------------|
b|--33-x--00--2222--x--00--00--x--00--0------0--------------|
g|--00-x--00--2222--x--00--00--x--00--2--2/4---4p2p0--------|
d|--22-x--00--2222--x--00--22--x--00--1--------------2p0----|
a|--22-x--xx--xxxx--x--xx--33--x--xx--2---------------------|
E|--xx-x--xx--xxxx--x--xx--xx--x--xx--x---------------------|

e|--00-x--00--xxxx--x--00--00--x--00--0---------------------|
b|--33-x--00--2222--x--00--00--x--00--0------0--------------|
g|--00-x--00--2222--x--00--00--x--00--2--2/4---4p2p0--------|
d|--22-x--00--2222--x--00--22--x--00--1--------------2p0----|
a|--22-x--xx--xxxx--x--xx--33--x--xx--2---------------------|
E|--xx-x--xx--xxxx--x--xx--xx--x--xx--x---------------------|

Verse 2

e|--00-x--00--xxxx--x--00--00--x--00--00--x--00-------------|
b|--33-x--00--2222--x--00--00--x--00--00--x--00-------------|
g|--00-x--00--2222--x--00--00--x--00--22--x--00------X4-----|
d|--22-x--00--2222--x--00--22--x--00--11--x--00------X4-----|
a|--22-x--xx--xxxx--x--xx--33--x--xx--22--x--xx-------------|
E|--xx-x--xx--xxxx--x--xx--xx--x--xx--xx--x--xx-------------|


Chorus 2

e|--00-x--00--xxxx--x--00--00--x--00--00--x--00-----------|
b|--33-x--00--2222--x--00--00--x--00--00--x--00-----------|
g|--00-x--00--2222--x--00--00--x--00--22--x--00-----------|
d|--22-x--00--2222--x--00--22--x--00--11--x--00-----------|
a|--22-x--xx--xxxx--x--xx--33--x--xx--22--x--xx-----------|
E|--xx-x--xx--xxxx--x--xx--xx--x--xx--xx--x--xx-----------|


e|--00-x--00---------x-00--00--x--00--0---------------------|
b|--33-x--00-----222-x-00--00--x--00--0------0--------------|
g|--00-x--00----2-22-x-00--00--x--00--2--2/4---4p2p0--------|
d|--22-x--00---2--22-x-00--22--x--00--1-------------2p0-----|
a|--22-x--xx--2------x-xx--33--x--xx--2---------------------|
E|--xx-x--xx--x------x-xx--xx--x--xx--x---------------------|

e|--00-x--00--xxxx--x--00--00--x--00--00--x--00-----------|
b|--33-x--00--2222--x--00--00--x--00--00--x--00-----------|
g|--00-x--00--2222--x--00--00--x--00--22--x--00-----------|
d|--22-x--00--2222--x--00--22--x--00--11--x--00-----------|
a|--22-x--xx--xxxx--x--xx--33--x--xx--22--x--xx-----------|
E|--xx-x--xx--xxxx--x--xx--xx--x--xx--xx--x--xx-----------|

e|--00-x--00--xxxx--x--00--00--x--00--00--x--000----------|
b|--33-x--00--2222--x--00--00--x--00--00--x--000----------|
g|--00-x--00--2222--x--00--00--x--00--22--x--000----------|
d|--22-x--00--2222--x--00--22--x--00--11--x--000----------|
a|--22-x--xx--xxxx--x--xx--33--x--xx--22--x--xxx----------|
E|--xx-x--xx--xxxx--x--xx--xx--x--xx--xx--x--xxx----------|

Riff B

e|----------x--x----------x-x-----------x--x--0------------------|
b|------3-3-x--0------2-2-x-0------0-0--x--0--0------0-----------|
g|-----0--0-x--0-----2--2-x-0-----0--0--x--0--2--2/4---4p2p0-----|
d|----2-----x--0----2-----x-0----2------x--0--1--------------2p0-|
a|--2-------x--x--2-------x-x--3--------x--x--2------------------|
E|--0-------x--x--x-------x-x--x--------x--x--x------------------|

e|----------x--x----------x-x-----------x--x--0------------------|
b|------3-3-x--0------2-2-x-0------0-0--x--0--0------0-----------|
g|-----0--0-x--0-----2--2-x-0-----0--0--x--0--2--2/4---4p2p0-----|
d|----2-----x--0----2-----x-0----2------x--0--1--------------2p0-|
a|--2-------x--x--2-------x-x--3--------x--x--2------------------|
E|--0-------x--x--x-------x-x--x--------x--x--x------------------|

Bridge

no return i burn.....
e|--x---0----x---0----x---0----0-x--00-------|
b|--3---0----2---0----0---0----0-x--00-------|
g|--0---x----2---x----0---x----2-x--00----X3-|
d|--2---9----2---9----2---9----1-x--00----X3-|
a|--2///10\\\x///10\\\3///10\\\2-x--xx-------|
E|--x---x----x---x----x---x----x-x--xx-------|

Chorus 3

e|--00-x--00--xxxx--x--00--00--x--00--00--x--00-----------|
b|--33-x--00--2222--x--00--00--x--00--00--x--00-----------|
g|--00-x--00--2222--x--00--00--x--00--22--x--00-----------|
d|--22-x--00--2222--x--00--22--x--00--11--x--00-----------|
a|--22-x--xx--xxxx--x--xx--33--x--xx--22--x--xx-----------|
E|--xx-x--xx--xxxx--x--xx--xx--x--xx--xx--x--xx-----------|


e|--00-x--00---------x-00--00--x--00--0---------------------|
b|--33-x--00-----222-x-00--00--x--00--0------0--------------|
g|--00-x--00----2-22-x-00--00--x--00--2--2/4---4p2p0--------|
d|--22-x--00---2--22-x-00--22--x--00--1-------------2p0-----|
a|--22-x--xx--2------x-xx--33--x--xx--2---------------------|
E|--xx-x--xx--x------x-xx--xx--x--xx--x---------------------|

e|--00-x--00--xxxx--x--00--00--x--00--00--x--00-----------|
b|--33-x--00--2222--x--00--00--x--00--00--x--00-----------|
g|--00-x--00--2222--x--00--00--x--00--22--x--00-----------|
d|--22-x--00--2222--x--00--22--x--00--11--x--00-----------|
a|--22-x--xx--xxxx--x--xx--33--x--xx--22--x--xx-----------|
E|--xx-x--xx--xxxx--x--xx--xx--x--xx--xx--x--xx-----------|

e|--00-x--00--xxxx--x--00--00--x--00--00--x--000----------|
b|--33-x--00--2222--x--00--00--x--00--00--x--000----------|
g|--00-x--00--2222--x--00--00--x--00--22--x--000----------|
d|--22-x--00--2222--x--00--22--x--00--11--x--000----------|
a|--22-x--xx--xxxx--x--xx--33--x--xx--22--x--xxx----------|
E|--xx-x--xx--xxxx--x--xx--xx--x--xx--xx--x--xxx----------|

Riff B

e|----------x--x----------x-x-----------x--x--0------------------|
b|------3-3-x--0------2-2-x-0------0-0--x--0--0------0-----------|
g|-----0--0-x--0-----2--2-x-0-----0--0--x--0--2--2/4---4p2p0-----|
d|----2-----x--0----2-----x-0----2------x--0--1--------------2p0-|
a|--2-------x--x--2-------x-x--3--------x--x--2------------------|
E|--0-------x--x--x-------x-x--x--------x--x--x------------------|

e|----------x--x----------x-x-----------x--x--0------------------|
b|------3-3-x--0------2-2-x-0------0-0--x--0--0------0-----------|
g|-----0--0-x--0-----2--2-x-0-----0--0--x--0--2--2/4---4p2p0-----|
d|----2-----x--0----2-----x-0----2------x--0--1--------------2p0-|
a|--2-------x--x--2-------x-x--3--------x--x--2------------------|
E|--0-------x--x--x-------x-x--x--------x--x--x------------------|


e|--x---0----x---0----x---0----0-x--00-------|
b|--3---0----2---0----0---0----0-x--00-------|
g|--0---x----2---x----0---x----2-x--00----X2-|
d|--2---9----2---9----2---9----1-x--00----X2-|
a|--2///10\\\x///10\\\3///10\\\2-x--xx-------|
E|--x---x----x---x----x---x----x-x--xx-------|


e|--00-x--00---------x-00--00--x--00--0/0/0/000/0/00-------|
b|--33-x--00-----222-x-00--00--x--00--0/0/0/000/0/00-------|
g|--00-x--00----2-22-x-00--00--x--00--2/3/4/555/6/77-------|
d|--22-x--00---2--22-x-00--22--x--00--1/2/3/444/5/66-------|
a|--22-x--xx--2------x-xx--33--x--xx--2/3/4/555/6/77-------|
E|--xx-x--xx--x------x-xx--xx--x--xx--x--------------------|

Solo

e|----x-x-x--x-x-x-x-x-x-x-x-x-----------x-xxx-0/00\00\00--------|
b|----3-x-x--3-x-3-x-0-x-0-x-0-----------2-xxx-0/00\00\00--------|
g|----0-x-x--0-x-0-x-0-x-0-x-0-0h2p0-----2-xxx-x/xx\xx\xx--------|
d|----2-x-x--2-x-2-x-2-x-2-x-2------2p0--2-xxx-0/99\77\55-5h7p5--|
a|----2-x-x--2-x-2-x-2-x-2-x-2----------0x-xxx-------------------|
E|--0-x-x-x--x-x-x-x-x-x-x-x-x-----------x-xxx-------------------|

e|----x-x-x-x-x-x-x-x--------------0-x-0-x-0//0000-----------|
b|----0-x-0-x-0-x-0-0--------------0-x-0-x-0//xxxx-----------|
g|----2-x-x-x-x-x-0-0-0h2p0--------2-x-2-x-2//4444-4p2p0-----|
d|----x-x-2-x-4-x-x-x-------0h2p0--1-x-1-x-1-------------2p0-|
a|--3-3-x-3-x-3-x-3-3--------------2-x-2-x-2-----------------|
E|--x-x-x-x-x-x-x-x-x--------------x-x-x-x-x-----------------|

e|----x-x-x--x-x-x-x-x-x-x-x-x-----------x-xxx-0/00\00\00--------|
b|----3-x-x--3-x-3-x-0-x-0-x-0-----------2-xxx-0/00\00\00--------|
g|----0-x-x--0-x-0-x-0-x-0-x-0-0h2p0-----2-xxx-x/xx\xx\xx--------|
d|----2-x-x--2-x-2-x-2-x-2-x-2------2p0--2-xxx-0/99\77\55-5h7p5--|
a|----2-x-x--2-x-2-x-2-x-2-x-2----------0x-xxx-------------------|
E|--0-x-x-x--x-x-x-x-x-x-x-x-x-----------x-xxx-------------------|

e|----x-x-x-x-x-x-x-x--------------0-x-0-x-0//0000-----------|
b|----0-x-0-x-0-x-0-0--------------0-x-0-x-0//xxxx-----------|
g|----2-x-x-x-x-x-0-0-0h2p0--------2-x-2-x-2//4444-4p2p0-----|
d|----x-x-2-x-4-x-x-x-------0h2p0--1-x-1-x-1-------------2p0-|
a|--3-3-x-3-x-3-x-3-3--------------2-x-2-x-2-----------------|
E|--x-x-x-x-x-x-x-x-x--------------x-x-x-x-x-----------------|


e|----x-x-x--x-x-x-x-x-x-x-x-x-----------x-xxx-0/00\00\00--------|
b|----3-x-x--3-x-3-x-0-x-0-x-0-----------2-xxx-0/00\00\00--------|
g|----0-x-x--0-x-0-x-0-x-0-x-0-0h2p0-----2-xxx-x/xx\xx\xx--------|
d|----2-x-x--2-x-2-x-2-x-2-x-2------2p0--2-xxx-0/99\77\55-5h7p5--|
a|----2-x-x--2-x-2-x-2-x-2-x-2----------0x-xxx-------------------|
E|--0-x-x-x--x-x-x-x-x-x-x-x-x-----------x-xxx-------------------|


e|----x-x-x-x-x-x-x-x--------------0/0/0/0/00\0\0\0\00----0/0/0/000/0/00-|
b|----0-x-0-x-0-x-0-0--------------0/0/0/0/00\0\0\0\00----0/0/0/000/0/00-|
g|----2-x-x-x-x-x-0-0-0h2p0--------2/3/4/5/66\5\4\3\22-X3-2/3/4/555/6/77-|
d|----x-x-2-x-4-x-x-x-------0h2p0--1/2/3/4/55\4\3\2\11-X3-1/2/3/444/5/66-|
a|--3-3-x-3-x-3-x-3-3--------------2/3/4/5/66\5\4\3\22----2/3/4/555/6/77-|
E|--x-x-x-x-x-x-x-x-x--------------xxxxxxxxxxxxxxxxxxx----xxxxxxxxxxxxxx-|

Chorus 3/ Ending

e|--00-x--00--xxxx--x--00--00--x--00--00--x--00-----------|
b|--33-x--00--2222--x--00--00--x--00--00--x--00-----------|
g|--00-x--00--2222--x--00--00--x--00--22--x--00-----------|
d|--22-x--00--2222--x--00--22--x--00--11--x--00-----------|
a|--22-x--xx--xxxx--x--xx--33--x--xx--22--x--xx-----------|
E|--xx-x--xx--xxxx--x--xx--xx--x--xx--xx--x--xx-----------|

e|--00-x--00---------x-00--00--x--00--00--x--00-------------|
b|--33-x--00-----222-x-00--00--x--00--00--x--00-------------|
g|--00-x--00----2-22-x-00--00--x--00--22--x--00-------------|
d|--22-x--00---2--22-x-00--22--x--00--11--x--00-------------|
a|--22-x--xx--2------x-xx--33--x--xx--22--x--xx-------------|
E|--xx-x--xx--x------x-xx--xx--x--xx--xx--x--xx-------------|

e|--00-x--00--xxxx--x--00--00--x--00--00--x--00-----------|
b|--33-x--00--2222--x--00--00--x--00--00--x--00-----------|
g|--00-x--00--2222--x--00--00--x--00--22--x--00-----------|
d|--22-x--00--2222--x--00--22--x--00--11--x--00-----------|
a|--22-x--xx--xxxx--x--xx--33--x--xx--22--x--xx-----------|
E|--xx-x--xx--xxxx--x--xx--xx--x--xx--xx--x--xx-----------|

e|--00-x--00--xxxx--x--00--00--x--00--00--x--00-----------|
b|--33-x--00--2222--x--00--00--x--00--00--x--00-----------|
g|--00-x--00--2222--x--00--00--x--00--22--x--00-----------|
d|--22-x--00--2222--x--00--22--x--00--11--x--00-----------|
a|--22-x--xx--xxxx--x--xx--33--x--xx--22--x--xx-----------|
E|--xx-x--xx--xxxx--x--xx--xx--x--xx--xx--x--xx-----------|

e|--00-x--00--xxxx--x--00--00--x--00--0~~~~-----------|
b|--33-x--00--2222--x--00--00--x--00--0~~~~-----------|
g|--00-x--00--2222--x--00--00--x--00--2~~~~-----------|
d|--22-x--00--2222--x--00--22--x--00--1~~~~-----------|
a|--22-x--xx--xxxx--x--xx--33--x--xx--2~~~~-----------|
E|--xx-x--xx--xxxx--x--xx--xx--x--xx--x~~~~-----------|
comments
We did not receive enough feedback on this tab! Please rate:
print report bad tab
1 2 3 4 5
I want to post or [tab]
guest
You may want to rate the tab now too:
select rating
Please do not post tabs as comments. Select "correction" instead!