Oops, an error
Loading. Please wait.

Im So Afraid Tab

ver2
ver2

Whole song

Interactive

More versions @911Tabs.com
10,114 views 36 this week
no commentswrite comment
1 2 3 4 5
excellent!
x 5
Autoscroll
+/-
esc
set tempo
stop
Contributor
Difficulty
intermediate
Hey! There's an official Ultimate Guitar app which is ideal
for learning songs when you're away from computer. Get the app
WARNING: You are trying to view
                                    content from Ultimate-Guitar.com
                                    in an unauthorized application,
                                    which is prohibited.

                                    Please use an official Ultimate
                                    Guitar Tabs application for iPhone,
                                    iPad or Android to access legitimate
                                    chords, guitar, bass, and drum tabs
                                    from Ultimate-Guitar.com database.

                                    Type "ultimate guitar tabs" in Apple
                                    App Store's or Android Market's
                                    search to find the application.

Guitar Tabs by: Fleetwood Mac
Tabs for song: Im So Afraid

Live version

Intro:
--------------------------------------------------4p3p1-----------------------|
----1v---------1v---1p0-------1v----------1v----1-------4p3p1-------1v--------|
----1v---------1v-------1p0---1v----------1v------------------3p1---1v--------|
-3v------3-3-3--------------3-------3-3-3-------------------------3-----------|
------------------------------------------------------------------------------|
------------------------------------------------------------------------------|


---4p3p1----------------------1-----1------1---------5------------------------|
-1-------4p3p1-------1v-------1-----1------1------4b---4p1--------------------|
---------------3p1---1v-----3b----3b-----3b----3b----------3--1-3br--p1-------|
-------------------3----------------------------------------------------3-----|
------------------------------------------------------------------------------|
------------------------------------------------------------------------------|


------------------------------------------------------------------------------|
-1--3-3b--p1-----3b-----3b-p1----3-3--3b-p1-----------1-----1v-----------1v---|
-1--3-3br-p1-----3b-----3b-p1----3-3--3b-p1-----------1-----1v-----------1v---|
--------------3---------------3-------------3-----------3-3--------3-3-3------|
------------------------------------------------------------------------------|
------------------------------------------------------------------------------|

                              Verse (first bar is continuation of intro)
-----------------------------|-----------------------------------------------|
--------1v-------------------|-----------------------------------------------|
--------1v-------------------|--------------------------5-5-5--5-0-----------|
--3-3-3------3---------------|--3-3-3--3-3---3-3-3-3----5-5-5--5-0--3-3-3-3--|
-----------------------------|--3-3-3--3-3---3-3-3-3----3-3-3--3-0--3-3-3-3--|
-----------------------------|--1-1-1--1-0---1-1-1-1----------------1-0-1-1--|
                                                                        x4
  Chorus                                                          First solo
-|-----------------------------------------------|--------------4-6-8-8br-----|
-|-----------------------------------------------|---4h6-6-6v-----------------|
-|-6-6\---3-3-3-3/--5--5-5-----------------------|----------------------------|
-|-6-6\---3-3-3-3/--5--5-5--3--3-3-3-------------|----------------------------|
-|-4-4\---1-1-1-1/--3--3-3--3--3-3-3----3-3--3-3-|----------------------------|
-|--------------------------1--1-0-1----0-1--0-1-|----------------------------|
                                              x3

-6h8p6--4----4-3-4/6-4--3-------------------------6b-6b-6b---6-4------4-6-8---|
--------------------------4/6-6-4-6br---4h6p4--------------------4h6----------|
----------------------------------------------5v------------------------------|
------------------------------------------------------------------------------|
------------------------------------------------------------------------------|
------------------------------------------------------------------------------|


-8br--6h8p6-4--4----4------4-3-4/6-4-3----4----------------------------4-4----|
---------------4h6--4------------------4b---6v---6-4-6br---4h6-4---4h6--------|
----------------------6v-----------------------------------------5------------|
------------------------------------------------------------------------------|
------------------------------------------------------------------------------|
------------------------------------------------------------------------------|

     Verse                                       Chorus
-6b-|-------------------------------------------|-----------------------------|
----|-------------------------------------------|-----------------------------|
----|----------------------5-5-5--5-0-----------|--6-6\--3-3-3-3/--5--5-5-----|
----|-3-3-3--3-3--3-3-3-3--5-5-5--5-0--3-3--3-3-|--6-6\--3-3-3-3/--5--5-5--3--|
----|-3-3-3--3-3--3-3-3-3--3-3-3--3-0--3-3--3-3-|--4-4\--1-1-1-1---3--3-3--3--|
----|-1-1-1--1-0--1-1-1-1--------------1-0--1-1-|--------------------------1--|
                                            x3
                    Second Solo
-------------------|-------------4-6-8-8br--6h8p6--4--4-3-4/6-4-3-------------|
-------------------|---4h6-6-6v-----------------------------------4/6-6v------|
-------------------|----------------------------------------------------------|
--3-3-3---3-3--3-3-|----------------------------------------------------------|
--3-3-3---3-3--3-3-|----------------------------------------------------------|
--1-0-1---0-1--0-1-|----------------------------------------------------------|
                x3

-------------------6b-6b-6b--6-4------4-6-8--8br--6h8p6-4--4----4------4-3-4/-|
-6-4-6br--4h6p4------------------4h6-----------------------4h6--4-------------|
----------------5--------------------------------------------------6v---------|
------------------------------------------------------------------------------|
------------------------------------------------------------------------------|
------------------------------------------------------------------------------|


-6-4-------4--------------------------4-4-6b----------------------------------|
------6-4b---6---6-4-6br--4h6-4---4h6-----------------------------------------|
--------------------------------5---------------------------------------------|
----------------------------------------------------1-3v--3-3v--3-3-3-3v--1---|
------------------------------------------------------------------------------|
------------------------------------------------------------------------------|


------------------------------------------------------------------------------|
------------------------------------------------------------------------------|
------------------------------------------------------------------------------|
-1-1--1h3-3-3-3-3v---3-3-3-3-3-1-1-1------------------------------------------|
-------------------------------------4-4-4-4v--4-4-4-3-3-3--1-1h3-3-v---------|
------------------------------------------------------------------------------|


------------------------------------------------------------------------------|
-------------------------------------------------1--1-2/4-4-4-4-4v---4-2-1----|
---------------------1v----3---1-3-3br-p1-----3-1-----------------------------|
-----1---1-3-1---1-3---------3------------3-----------------------------------|
-1-3---3-------3--------------------------------------------------------------|
------------------------------------------------------------------------------|


---------------------------------------------0--1-----|-1---3---4---3---|-----|
-2-1---------------------1-------------1-2-4-----1-1--|---1---1---1---1-|-----|
-----3--3br-3p1---3br--3b--3p1---1---3----------------|-----------------|-----|
----------------3--------------3----------------------|-----------------|-----|
------------------------------------------------------|-----------------|-----|
------------------------------------------------------|-----------------|-----|
                                                       *let ring     x3

-1---1-3--1-3--4-3-4-3--1-3---|-1-3-4-3--|-4-3p1-1-|---------4-6-6br-p4-------|
---1------1----1--------1-----|-1--------|---------|--4-6-6v------------6-----|
------------------------------|----------|---------|--------------------------|
------------------------------|----------|---------|--------------------------|
------------------------------|----------|---------|--------------------------|
------------------------------|----------|---------|--------------------------|
              *gradually get faster   x5         x5

-6br-p4---6b--6b-6b-6br-p4------4-6-6b4-p4-------4b--6p4-6p4----4--6p4-6p4----|
--------6------------------6-6v------------6-6v--------------6-------------6--|
------------------------------------------------------------------------------|
------------------------------------------------------------------------------|
------------------------------------------------------------------------------|
------------------------------------------------------------------------------|


------6b-4---4---6br-6-4-6b---6br-6-4-6--6p4---4--6br-6-4--|-11--11--11--11--|
-6v--------6---------------------------------6-------------|-11b-11b-11b-11b-|
-----------------------------------------------------------|-----------------|
-----------------------------------------------------------|-----------------|
-----------------------------------------------------------|-----------------|
-----------------------------------------------------------|-----------------|
                                                                         x2

-----11-11-11------11-11-11-----11-11-11--|-----11-----11-----11-----11-|-----|
-11b-----------11b----------11b-----------|-11b----11b----11b----11b----|-----|
------------------------------------------|-----------------------------|-----|
------------------------------------------|-----------------------------|-----|
------------------------------------------|-----------------------------|-----|
------------------------------------------|-----------------------------|-----|
                                        x2                            x2

-11-11-11-|-11b-------------------|-----9-11/13-11-13-13b-13p11----13--13p11--|
----------|-----9----9-----9-9----|-/11-------------------------13------------|
----------|-------10----10-----10-|-------------------------------------------|
----------|-----------------------|-------------------------------------------|
----------|-----------------------|-------------------------------------------|
----------|-----------------------|-------------------------------------------|
                               x4

----13---16b---16p13-16p13------16--16p13-16p13-16br--16p13-16p13-----16p13---|
-13-------------------------16------------------------------------16----------|
------------------------------------------------------------------------------|
------------------------------------------------------------------------------|
------------------------------------------------------------------------------|
------------------------------------------------------------------------------|


-16p13-----------|-----------------|-------------13-13-16-13-16-16-16-13-16---|
-------16---16br-|-13--13-16-13----|--16-16-16--------------------------------|
-----------------|-15b----------15-|------------------------------------------|
-----------------|-----------------|------------------------------------------|
-----------------|-----------------|------------------------------------------|
-----------------|-----------------|------------------------------------------|
                                 x8

-16-13--16-13--16-13--18-13--16-13--18-13--20-18-13--16-13-13---16-13-13------|
------------------------------------------------------------------------------|
------------------------------------------------------------------------------|
------------------------------------------------------------------------------|
------------------------------------------------------------------------------|
------------------------------------------------------------------------------|


-16--18-18-18bv---------------------------------------------------------------|
------------------------------------------------------------------------------|
------------------------------------------------------------------------------|
------------------------------------------------------------------------------|
------------------------------------------------------------------------------|
------------------------------------------------------------------------------|
            *hold bend.....................................................

-18-18br--18br--18b-18b-18br--18b--18b--18b--18b--18b--18b--18b--18b------18--|
------------------------------x----x----x----x----x----x----x----x--------x---|
------------------------------------------------------------------------------|
------------------------------------------------------------------------------|
------------------------------------------------------------------------------|
------------------------------------------------------------------------------|

            Outro
-16--13\---|------------------------------------------------------------------|
-x---x-----|------------------------------------------------------------------|
-----------|----------------------6-6v6--6-6-6v6v6--6-6v6-----3-3-3--3-3-3-3--|
-----------|-3-3-3---3-3-3-3-3-3--6-6v6--6-6-6v6v6--6-6v6-----3-3-3--3-3-3-3--|
-----------|-3-3-3---3-3-3-3-3-3--4-4v4v-4-4-4v4v4--4-4v4\----1-1-1--1-1-1-0--|
-----------|-1-1-1---1-1-1-0-1-1----------------------------------------------|


----------------------------------13\-----------------------------------------|
------------------------------------------------------------------------------|
-3--3v3v3v3----6---3---5-5----------------------------------------------------|
-3--3v3v3v3----6---3---5-5-------------3--3--3-3--3333333333333333333--3-3----|
-1--1v1v1v1----4\--1--/3-3-------------3--3--3-3--3333333333333333333--3-3----|
---------------------------------------1--1--1-1--11111111111111111111-1-1----|


------------------------------------------------------------------------------|
------------------------------------------------------------------------------|
------------------------------------------------------------------------------|
-3-----------------------------------3-3\-------------------------------------|
-3-----------------------------------3-3\-------------------------------------|
-1-----------------------------------1-1\-------------------------------------|

Back to Fleetwood Mac Tabs
© 2007 AZChords.com
Chords & tabs for guitar/bass
All tabs, chords & lyrics are the author's own work and represents their interpretation 
the song.
You may only use this tab file for private study, scholarship, research or language 
purposes.
comments
print report bad tab
I want to post or [tab]
guest
You may want to rate the tab now too:
select rating
Please do not post tabs as comments. Select "correction" instead!