Oops, an error
Loading. Please wait.

Jewel Eyed Judy Tab

1,544 views 6 this week
no commentswrite comment
1 2 3 4 5
please rate
Autoscroll
+/-
esc
set tempo
stop
Contributor
Hey! There's an official Ultimate Guitar app which is ideal
for learning songs when you're away from computer. Get the app
WARNING: You are trying to view
                                    content from Ultimate-Guitar.com
                                    in an unauthorized application,
                                    which is prohibited.

                                    Please use an official Ultimate
                                    Guitar Tabs application for iPhone,
                                    iPad or Android to access legitimate
                                    chords, guitar, bass, and drum tabs
                                    from Ultimate-Guitar.com database.

                                    Type "ultimate guitar tabs" in Apple
                                    App Store's or Android Market's
                                    search to find the application.
This is the solo played over the chords.....in calibration with Chris (my bro)
Chords to song to follow.......

      Legend

    > = bend down/ half bend
    h<= hold bend up until r
    ~~= vibrate
    <m= bend up then mute
     h= hammer on
     /= slide up
     \= slide down


    SOLO GUITAR 2

  e-----------------------------------------|
  b-----------------------------------------|
  g-----------------------------------------|
  d--------2--4>-22--------2---2---2---4/6--|
  a--2--4------------2--4----4---4----------|
  e-----------------------------------------|

  e-----------------------------------------|
  b--------5~~--7h<-7777r--5---5---55-------|
  g--4--6--------------------6---6----------|
  d-----------------------------------------|
  a-----------------------------------------|
  e-----------------------------------------|

  e---------7---7---------------------------|
  b--7<m--7h<-7---7r--5---5---7h--5---------|
  g---------------------6------------6------|
  d--------------------------------------2--|
  a-----------------------------------------|
  e-----------------------------------------|

  Play with feeling........enjoy
comments
We did not receive enough feedback on this tab! Please rate:
print report bad tab
1 2 3 4 5
I want to post or [tab]
guest
You may want to rate the tab now too:
select rating
Please do not post tabs as comments. Select "correction" instead!